  0
SECTION
  2
HEADER
  9
$ACADVER
  1
AC1015
  9
$ACADMAINTVER
 70
     6
  9
$DWGCODEPAGE
  3
ANSI_1252
  9
$INSBASE
 10
0.0
 20
0.0
 30
0.0
  9
$EXTMIN
 10
69.395417
 20
287.976483
 30
-1.0
  9
$EXTMAX
 10
1026.514554
 20
492.804657
 30
0.7
  9
$LIMMIN
 10
0.0
 20
0.0
  9
$LIMMAX
 10
12.0
 20
9.0
  9
$ORTHOMODE
 70
     0
  9
$REGENMODE
 70
     1
  9
$FILLMODE
 70
     1
  9
$QTEXTMODE
 70
     0
  9
$MIRRTEXT
 70
     0
  9
$LTSCALE
 40
5.0
  9
$ATTMODE
 70
     1
  9
$TEXTSIZE
 40
0.2
  9
$TRACEWID
 40
0.05
  9
$TEXTSTYLE
  7
STANDARD
  9
$CLAYER
  8
0
  9
$CELTYPE
  6
ByLayer
  9
$CECOLOR
 62
   256
  9
$CELTSCALE
 40
1.0
  9
$DISPSILH
 70
     0
  9
$DIMSCALE
 40
1.0
  9
$DIMASZ
 40
0.18
  9
$DIMEXO
 40
0.0625
  9
$DIMDLI
 40
0.38
  9
$DIMRND
 40
0.0
  9
$DIMDLE
 40
0.0
  9
$DIMEXE
 40
0.18
  9
$DIMTP
 40
0.0
  9
$DIMTM
 40
0.0
  9
$DIMTXT
 40
0.18
  9
$DIMCEN
 40
0.09
  9
$DIMTSZ
 40
0.0
  9
$DIMTOL
 70
     0
  9
$DIMLIM
 70
     0
  9
$DIMTIH
 70
     1
  9
$DIMTOH
 70
     1
  9
$DIMSE1
 70
     0
  9
$DIMSE2
 70
     0
  9
$DIMTAD
 70
     0
  9
$DIMZIN
 70
     0
  9
$DIMBLK
  1

  9
$DIMASO
 70
     1
  9
$DIMSHO
 70
     1
  9
$DIMPOST
  1

  9
$DIMAPOST
  1

  9
$DIMALT
 70
     0
  9
$DIMALTD
 70
     2
  9
$DIMALTF
 40
25.4
  9
$DIMLFAC
 40
1.0
  9
$DIMTOFL
 70
     0
  9
$DIMTVP
 40
0.0
  9
$DIMTIX
 70
     0
  9
$DIMSOXD
 70
     0
  9
$DIMSAH
 70
     0
  9
$DIMBLK1
  1

  9
$DIMBLK2
  1

  9
$DIMSTYLE
  2
STANDARD
  9
$DIMCLRD
 70
     0
  9
$DIMCLRE
 70
     0
  9
$DIMCLRT
 70
     0
  9
$DIMTFAC
 40
1.0
  9
$DIMGAP
 40
0.09
  9
$DIMJUST
 70
     0
  9
$DIMSD1
 70
     0
  9
$DIMSD2
 70
     0
  9
$DIMTOLJ
 70
     1
  9
$DIMTZIN
 70
     0
  9
$DIMALTZ
 70
     0
  9
$DIMALTTZ
 70
     0
  9
$DIMUPT
 70
     0
  9
$DIMDEC
 70
     4
  9
$DIMTDEC
 70
     4
  9
$DIMALTU
 70
     2
  9
$DIMALTTD
 70
     2
  9
$DIMTXSTY
  7
STANDARD
  9
$DIMAUNIT
 70
     0
  9
$DIMADEC
 70
     0
  9
$DIMALTRND
 40
0.0
  9
$DIMAZIN
 70
     0
  9
$DIMDSEP
 70
     0
  9
$DIMATFIT
 70
     3
  9
$DIMFRAC
 70
     0
  9
$DIMLDRBLK
  1

  9
$DIMLUNIT
 70
     2
  9
$DIMLWD
 70
     0
  9
$DIMLWE
 70
     0
  9
$DIMTMOVE
 70
     0
  9
$LUNITS
 70
     2
  9
$LUPREC
 70
     4
  9
$SKETCHINC
 40
0.1
  9
$FILLETRAD
 40
0.0
  9
$AUNITS
 70
     0
  9
$AUPREC
 70
     0
  9
$MENU
  1
.
  9
$ELEVATION
 40
0.0
  9
$PELEVATION
 40
0.0
  9
$THICKNESS
 40
0.0
  9
$LIMCHECK
 70
     0
  9
$CHAMFERA
 40
0.0
  9
$CHAMFERB
 40
0.0
  9
$CHAMFERC
 40
0.0
  9
$CHAMFERD
 40
0.0
  9
$SKPOLY
 70
     0
  9
$TDCREATE
 40
2453353.758792454
  9
$TDUCREATE
 40
0.000000000
  9
$TDUPDATE
 40
0.000000000
  9
$TDUUPDATE
 40
2447892.958333334
  9
$TDINDWG
 40
19583144.0627810880
  9
$TDUSRTIMER
 40
0.0000000000
  9
$USRTIMER
 70
     1
  9
$ANGBASE
 50
0.0
  9
$ANGDIR
 70
     0
  9
$PDMODE
 70
     0
  9
$PDSIZE
 40
0.0
  9
$PLINEWID
 40
0.0
  9
$SPLFRAME
 70
     0
  9
$SPLINETYPE
 70
     6
  9
$SPLINESEGS
 70
     8
  9
$HANDSEED
  5
16FD
  9
$SURFTAB1
 70
     6
  9
$SURFTAB2
 70
     6
  9
$SURFTYPE
 70
     6
  9
$SURFU
 70
     6
  9
$SURFV
 70
     6
  9
$UCSBASE
  2

  9
$UCSNAME
  2

  9
$UCSORG
 10
0.0
 20
0.0
 30
0.0
  9
$UCSXDIR
 10
1.0
 20
0.0
 30
0.0
  9
$UCSYDIR
 10
0.0
 20
1.0
 30
0.0
  9
$UCSORTHOREF
  2

  9
$UCSORTHOVIEW
 70
     0
  9
$UCSORGTOP
 10
0.0
 20
0.0
 30
0.0
  9
$UCSORGBOTTOM
 10
0.0
 20
0.0
 30
0.0
  9
$UCSORGLEFT
 10
0.0
 20
0.0
 30
0.0
  9
$UCSORGRIGHT
 10
0.0
 20
0.0
 30
0.0
  9
$UCSORGFRONT
 10
0.0
 20
0.0
 30
0.0
  9
$UCSORGBACK
 10
0.0
 20
0.0
 30
0.0
  9
$PUCSBASE
  2

  9
$PUCSNAME
  2

  9
$PUCSORG
 10
0.0
 20
0.0
 30
0.0
  9
$PUCSXDIR
 10
1.0
 20
0.0
 30
0.0
  9
$PUCSYDIR
 10
0.0
 20
1.0
 30
0.0
  9
$PUCSORTHOREF
  2

  9
$PUCSORTHOVIEW
 70
     0
  9
$PUCSORGTOP
 10
0.0
 20
0.0
 30
0.0
  9
$PUCSORGBOTTOM
 10
0.0
 20
0.0
 30
0.0
  9
$PUCSORGLEFT
 10
0.0
 20
0.0
 30
0.0
  9
$PUCSORGRIGHT
 10
0.0
 20
0.0
 30
0.0
  9
$PUCSORGFRONT
 10
0.0
 20
0.0
 30
0.0
  9
$PUCSORGBACK
 10
0.0
 20
0.0
 30
0.0
  9
$USERI1
 70
     0
  9
$USERI2
 70
     0
  9
$USERI3
 70
     0
  9
$USERI4
 70
     0
  9
$USERI5
 70
     0
  9
$USERR1
 40
0.0
  9
$USERR2
 40
0.0
  9
$USERR3
 40
0.0
  9
$USERR4
 40
0.0
  9
$USERR5
 40
0.0
  9
$WORLDVIEW
 70
     1
  9
$SHADEDGE
 70
     3
  9
$SHADEDIF
 70
    70
  9
$TILEMODE
 70
     1
  9
$MAXACTVP
 70
    64
  9
$PINSBASE
 10
0.0
 20
0.0
 30
0.0
  9
$PLIMCHECK
 70
     0
  9
$PEXTMIN
 10
0.0
 20
0.0
 30
0.0
  9
$PEXTMAX
 10
0.0
 20
0.0
 30
0.0
  9
$PLIMMIN
 10
0.0
 20
0.0
  9
$PLIMMAX
 10
0.0
 20
0.0
  9
$UNITMODE
 70
     0
  9
$VISRETAIN
 70
     1
  9
$PLINEGEN
 70
     0
  9
$PSLTSCALE
 70
     1
  9
$TREEDEPTH
 70
  3020
  9
$CMLSTYLE
  2
Standard
  9
$CMLJUST
 70
     0
  9
$CMLSCALE
 40
1.0
  9
$PROXYGRAPHICS
 70
     0
  9
$MEASUREMENT
 70
     0
  9
$CELWEIGHT
370
     0
  9
$ENDCAPS
280
     0
  9
$JOINSTYLE
280
     0
  9
$LWDISPLAY
290
     0
  9
$INSUNITS
 70
     0
  9
$HYPERLINKBASE
  1

  9
$STYLESHEET
  1

  9
$XEDIT
290
     1
  9
$CEPSNTYPE
380
     0
  9
$PSTYLEMODE
290
     1
  9
$FINGERPRINTGUID
  2

  9
$VERSIONGUID
  2

  9
$EXTNAMES
290
     1
  9
$PSVPSCALE
 40
0.0
  0
ENDSEC
  0
SECTION
  2
CLASSES
  0
CLASS
  1
LWPOLYLINE
  2
AcDbPolyline
  3
AutoCAD 2000
 90
        0
280
     0
281
     1
  0
CLASS
  1
IMAGE
  2
AcDbRasterImage
  3
ISM
 90
      127
280
     0
281
     1
  0
CLASS
  1
OLE2FRAME
  2
AcDbOle2Frame
  3
AutoCAD 2000
 90
        0
280
     0
281
     1
  0
CLASS
  1
HATCH
  2
AcDbHatch
  3
AutoCAD 2000
 90
        0
280
     0
281
     1
  0
CLASS
  1
DICTIONARYVAR
  2
AcDbDictionaryVar
  3
AutoCAD 2000
 90
        0
280
     0
281
     0
  0
CLASS
  1
RASTERVARIABLES
  2
AcDbRasterVariables
  3
ISM
 90
        0
280
     0
281
     0
  0
CLASS
  1
IMAGEDEF
  2
AcDbRasterImageDef
  3
ISM
 90
        0
280
     0
281
     0
  0
CLASS
  1
IMAGEDEF_REACTOR
  2
AcDbRasterImageDefReactor
  3
ISM
 90
        1
280
     0
281
     0
  0
CLASS
  1
IDBUFFER
  2
AcDbIdBuffer
  3
AutoCAD 2000
 90
        0
280
     0
281
     0
  0
CLASS
  1
SPATIAL_FILTER
  2
AcDbSpatialFilter
  3
AutoCAD 2000
 90
        0
280
     0
281
     0
  0
CLASS
  1
XRECORD
  2
AcDbXrecord
  3
AutoCAD 2000
 90
        0
280
     0
281
     0
  0
CLASS
  1
SORTENTSTABLE
  2
AcDbSortentsTable
  3
AutoCAD 2000
 90
        0
280
     0
281
     0
  0
CLASS
  1
LAYER_INDEX
  2
AcDbLayerIndex
  3
AutoCAD 2000
 90
        0
280
     0
281
     0
  0
CLASS
  1
SPATIAL_INDEX
  2
AcDbSpatialIndex
  3
AutoCAD 2000
 90
        0
280
     0
281
     0
  0
CLASS
  1
OBJECT_PTR
  2
CAseDLPNTableRecord
  3
"ASE-LPNTableRecord"
 90
        1
280
     0
281
     0
  0
CLASS
  1
LAYOUT
  2
AcDbLayout
  3
AutoCAD 2000
 90
        0
280
     0
281
     0
  0
CLASS
  1
PLOTSETTINGS
  2
AcDbPlotSettings
  3
AutoCAD 2000
 90
        0
280
     0
281
     0
  0
CLASS
  1
ACDBDICTIONARYWDFLT
  2
AcDbDictionaryWithDefault
  3
AutoCAD 2000
 90
        0
280
     0
281
     0
  0
CLASS
  1
ACDBPLACEHOLDER
  2
AcDbPlaceHolder
  3
AutoCAD 2000
 90
        0
280
     0
281
     0
  0
CLASS
  1
VBA_PROJECT
  2
AcDbVbaProject
  3
acadvba
 90
        0
280
     0
281
     0
  0
CLASS
  1
WIPEOUT
  2
AcDbWipeout
  3
WipeOut|AutoCAD Express Tool|expresstools@autodesk.com
 90
      127
280
     0
281
     1
  0
CLASS
  1
WIPEOUTVARIABLES
  2
AcDbWipeoutVariables
  3
WipeOut|AutoCAD Express Tool|expresstools@autodesk.com
 90
        0
280
     0
281
     0
  0
CLASS
  1
RTEXT
  2
RText
  3
RText|AutoCAD Express Tool|expresstools@autodesk.com
 90
        0
280
     0
281
     1
  0
CLASS
  1
ARCALIGNEDTEXT
  2
AcDbArcAlignedText
  3
ATEXT|AutoCAD Express Tool|expresstools@autodesk.com
 90
        0
280
     0
281
     1
  0
ENDSEC
  0
SECTION
  2
TABLES
  0
TABLE
  2
VPORT
  5
FB2
100
AcDbSymbolTable
 70
     1
  0
VPORT
  5
FD1
100
AcDbSymbolTableRecord
100
AcDbViewportTableRecord
  2
*ACTIVE
 70
     0
 10
0.0
 20
0.0
 11
1.0
 21
1.0
 12
450.328833
 22
266.374849
 13
0.0
 23
0.0
 14
0.5
 24
0.5
 15
0.5
 25
0.5
 16
0.0
 26
0.0
 36
1.0
 17
0.0
 27
0.0
 37
0.0
 40
620.078606
 41
1.701534
 42
50.0
 43
0.0
 44
0.0
 50
0.0
 51
0.0
 71
    16
 72
  1000
 73
     1
 74
     3
 75
     0
 76
     0
 77
     0
 78
     0
281
     0
 65
     0
110
0.0
120
0.0
130
0.0
111
1.0
121
0.0
131
0.0
112
0.0
122
1.0
132
0.0
345
0
346
0
 79
     0
146
0.0
  0
ENDTAB
  0
TABLE
  2
LTYPE
  5
FAF
100
AcDbSymbolTable
 70
     6
  0
LTYPE
  5
FB8
100
AcDbSymbolTableRecord
100
AcDbLinetypeTableRecord
  2
ByBlock
 70
    64
  3

 72
    65
 73
     0
 40
0.0
  0
LTYPE
  5
FB9
100
AcDbSymbolTableRecord
100
AcDbLinetypeTableRecord
  2
ByLayer
 70
    64
  3

 72
    65
 73
     0
 40
0.0
  0
LTYPE
  5
FBA
100
AcDbSymbolTableRecord
100
AcDbLinetypeTableRecord
  2
CONTINUOUS
 70
     0
  3
Solid line
 72
    65
 73
     0
 40
0.0
  0
LTYPE
  5
FBB
100
AcDbSymbolTableRecord
100
AcDbLinetypeTableRecord
  2
CENTER
 70
     0
  3
____ _ ____ _ ____ _ ____ _ ____ _ ____ _ ____
 72
    65
 73
     4
 40
0.6
 49
0.375
 74
     0
 49
-0.075
 74
     0
 49
0.075
 74
     0
 49
-0.075
 74
     0
  0
LTYPE
  5
FBC
100
AcDbSymbolTableRecord
100
AcDbLinetypeTableRecord
  2
ACAD_ISO02W100
 70
     0
  3
ISO Strichlinie __ __ __ __ __ __ __ __ __ __ _
 72
    65
 73
     2
 40
15.0
 49
12.0
 74
     0
 49
-3.0
 74
     0
  0
LTYPE
  5
FBD
100
AcDbSymbolTableRecord
100
AcDbLinetypeTableRecord
  2
DASHED
 70
     0
  3
_ _ _ _ _ _ _ _ _ _ _ _ _ _ _ _ _ _ _ _ _ _ _ _
 72
    65
 73
     2
 40
0.375
 49
0.25
 74
     0
 49
-0.125
 74
     0
  0
ENDTAB
  0
TABLE
  2
LAYER
  5
FAD
100
AcDbSymbolTable
 70
     5
  0
LAYER
  5
FBE
100
AcDbSymbolTableRecord
100
AcDbLayerTableRecord
  2
0
 70
     0
 62
     7
  6
CONTINUOUS
290
     1
370
    -3
390
0
  0
LAYER
  5
FBF
100
AcDbSymbolTableRecord
100
AcDbLayerTableRecord
  2
90000_FRAME
 70
     0
 62
     7
  6
CONTINUOUS
290
     1
370
    -3
390
0
  0
LAYER
  5
FC0
100
AcDbSymbolTableRecord
100
AcDbLayerTableRecord
  2
91000_TIP
 70
     0
 62
     7
  6
CONTINUOUS
290
     1
370
    -3
390
0
  0
LAYER
  5
FC1
100
AcDbSymbolTableRecord
100
AcDbLayerTableRecord
  2
10000_FRONT
 70
     0
 62
     7
  6
CONTINUOUS
290
     1
370
    -3
390
0
  0
LAYER
  5
FC5
100
AcDbSymbolTableRecord
100
AcDbLayerTableRecord
  2
DEFPOINTS
 70
     0
 62
     7
  6
CONTINUOUS
290
     0
370
    -3
390
0
  0
ENDTAB
  0
TABLE
  2
STYLE
  5
FAE
100
AcDbSymbolTable
 70
     1
  0
STYLE
  5
FD5
100
AcDbSymbolTableRecord
100
AcDbTextStyleTableRecord
  2
STANDARD
 70
     0
 40
0.0
 41
1.0
 50
0.0
 71
     0
 42
0.2
  3
txt.shx
  4

  0
ENDTAB
  0
TABLE
  2
VIEW
  5
FB0
100
AcDbSymbolTable
 70
     0
  0
ENDTAB
  0
TABLE
  2
UCS
  5
FB1
100
AcDbSymbolTable
 70
     0
  0
ENDTAB
  0
TABLE
  2
APPID
  5
FB3
100
AcDbSymbolTable
 70
     3
  0
APPID
  5
FD2
100
AcDbSymbolTableRecord
100
AcDbRegAppTableRecord
  2
ACAD
 70
     0
  0
APPID
  5
FD3
100
AcDbSymbolTableRecord
100
AcDbRegAppTableRecord
  2
AUSTER_ANSICHT
 70
     0
  0
APPID
  5
FD4
100
AcDbSymbolTableRecord
100
AcDbRegAppTableRecord
  2
AUSTER_FOLIE
 70
     0
  0
ENDTAB
  0
TABLE
  2
DIMSTYLE
  5
FB4
100
AcDbSymbolTable
 70
     3
100
AcDbDimStyleTable
 71
     0
  0
DIMSTYLE
105
FDF
100
AcDbSymbolTableRecord
100
AcDbDimStyleTableRecord
  2
STANDARD
 70
     0
  3

  4

 40
1.0
 41
0.18
 42
0.0625
 43
0.38
 44
0.18
 45
0.0
 46
0.0
 47
0.0
 48
0.0
 71
     0
 72
     0
 73
     1
 74
     1
 75
     0
 76
     0
 77
     0
 78
     0
 79
     0
140
0.18
141
0.09
142
0.0
143
25.4
144
1.0
145
0.0
146
1.0
147
0.09
148
0.0
170
     0
171
     2
172
     0
173
     0
174
     0
175
     0
176
     0
177
     0
178
     0
179
     0
271
     4
272
     4
273
     2
274
     2
275
     0
276
     0
277
     2
278
    46
279
     0
280
     0
281
     0
282
     0
283
     1
284
     0
285
     0
286
     0
288
     0
289
     3
340
FD5
341
0
342
0
343
0
344
0
371
    -2
372
    -2
  0
DIMSTYLE
105
FE0
100
AcDbSymbolTableRecord
100
AcDbDimStyleTableRecord
  2
DSTYLE1
 70
     0
  3

  4

 40
1.0
 41
3.0
 42
0.0
 43
0.38
 44
1.0
 45
0.0
 46
0.0
 47
0.0
 48
0.0
 71
     0
 72
     0
 73
     0
 74
     0
 75
     0
 76
     0
 77
     1
 78
     3
 79
     0
140
2.5
141
0.09
142
0.0
143
0.03937
144
1.0
145
0.0
146
1.0
147
1.0
148
0.0
170
     0
171
     2
172
     0
173
     0
174
     0
175
     0
176
     0
177
     0
178
     0
179
     0
271
     4
272
     4
273
     2
274
     2
275
     0
276
     0
277
     2
278
    46
279
     0
280
     0
281
     0
282
     0
283
     1
284
     0
285
     0
286
     0
288
     0
289
     3
340
FD5
341
0
342
0
343
0
344
0
371
    -2
372
    -2
  0
DIMSTYLE
105
FE1
100
AcDbSymbolTableRecord
100
AcDbDimStyleTableRecord
  2
H035
 70
     0
  3

  4

 40
0.0
 41
3.5
 42
0.0
 43
3.75
 44
2.0
 45
0.0
 46
0.0
 47
0.0
 48
0.0
 71
     0
 72
     0
 73
     0
 74
     0
 75
     0
 76
     0
 77
     1
 78
     8
 79
     0
140
3.5
141
2.5
142
0.0
143
0.039
144
1.0
145
0.0
146
1.0
147
0.5
148
0.0
170
     0
171
     4
172
     1
173
     0
174
     0
175
     0
176
   256
177
     7
178
     7
179
     0
271
     4
272
     4
273
     2
274
     2
275
     0
276
     0
277
     2
278
    46
279
     0
280
     0
281
     0
282
     0
283
     1
284
     0
285
     0
286
     0
288
     0
289
     3
340
FD5
341
0
342
0
343
0
344
0
371
    -2
372
    -2
  0
ENDTAB
  0
TABLE
  2
BLOCK_RECORD
  5
FDA
100
AcDbSymbolTable
 70
     2
  0
BLOCK_RECORD
  5
FD8
100
AcDbSymbolTableRecord
100
AcDbBlockTableRecord
  2
*Model_Space
340
0
  0
BLOCK_RECORD
  5
FD9
100
AcDbSymbolTableRecord
100
AcDbBlockTableRecord
  2
*Paper_Space
340
0
  0
BLOCK_RECORD
  5
FD6
100
AcDbSymbolTableRecord
100
AcDbBlockTableRecord
  2
$MODEL_SPACE
340
0
  0
BLOCK_RECORD
  5
FD7
100
AcDbSymbolTableRecord
100
AcDbBlockTableRecord
  2
$PAPER_SPACE
340
0
  0
ENDTAB
  0
ENDSEC
  0
SECTION
  2
BLOCKS
  0
BLOCK
  5
FDB
100
AcDbEntity
  8
0
390
0
100
AcDbBlockBegin
  2
*Model_Space
 70
     0
 10
0.0
 20
0.0
 30
0.0
  3
*Model_Space
  1

  0
ENDBLK
  5
FDC
100
AcDbEntity
  8
0
390
0
100
AcDbBlockEnd
  0
BLOCK
  5
FDD
100
AcDbEntity
 67
     1
  8
0
390
0
100
AcDbBlockBegin
  2
*Paper_Space
 70
     0
 10
0.0
 20
0.0
 30
0.0
  3
*Paper_Space
  1

  0
ENDBLK
  5
FDE
100
AcDbEntity
 67
     1
  8
0
390
0
100
AcDbBlockEnd
  0
BLOCK
  5
FE2
100
AcDbEntity
  8
0
100
AcDbBlockBegin
  2
$MODEL_SPACE
 70
     0
 10
0.0
 20
0.0
 30
0.0
  3
$MODEL_SPACE
  1

  0
ENDBLK
  5
21
100
AcDbEntity
  8
0
100
AcDbBlockEnd
  0
BLOCK
  5
FE3
100
AcDbEntity
  8
0
100
AcDbBlockBegin
  2
$PAPER_SPACE
 70
     0
 10
0.0
 20
0.0
 30
0.0
  3
$PAPER_SPACE
  1

  0
ENDBLK
  5
76
100
AcDbEntity
  8
0
100
AcDbBlockEnd
  0
ENDSEC
  0
SECTION
  2
ENTITIES
  0
ARC
  5
FE9
100
AcDbEntity
  8
10000_FRONT
370
    50
390
0
  6
CONTINUOUS
 62
     7
100
AcDbCircle
 10
157.9
 20
223.364999
 30
0.0
 40
3.2
100
AcDbArc
 50
180.0
 51
0.0
  0
ARC
  5
FEA
100
AcDbEntity
  8
10000_FRONT
370
    50
390
0
  6
CONTINUOUS
 62
     7
100
AcDbCircle
 10
167.4
 20
220.664999
 30
0.0
 40
3.2
100
AcDbArc
 50
180.0
 51
0.0
  0
ARC
  5
FEB
100
AcDbEntity
  8
10000_FRONT
370
    50
390
0
  6
CONTINUOUS
 62
     7
100
AcDbCircle
 10
157.9
 20
223.364999
 30
0.0
 40
3.2
100
AcDbArc
 50
0.0
 51
180.0
  0
LINE
  5
FEC
100
AcDbEntity
  8
10000_FRONT
370
    50
390
0
  6
CONTINUOUS
 62
     7
100
AcDbLine
 10
154.207652
 20
223.364999
 30
0.0
 11
154.257482
 21
223.758138
 31
0.0
  0
LINE
  5
FED
100
AcDbEntity
  8
10000_FRONT
370
    50
390
0
  6
CONTINUOUS
 62
     7
100
AcDbLine
 10
154.257482
 20
223.758138
 30
0.0
 11
154.336945
 21
224.104276
 31
0.0
  0
LINE
  5
FEE
100
AcDbEntity
  8
10000_FRONT
370
    50
390
0
  6
CONTINUOUS
 62
     7
100
AcDbLine
 10
154.336945
 20
224.104276
 30
0.0
 11
154.43617
 21
224.408416
 31
0.0
  0
LINE
  5
FEF
100
AcDbEntity
  8
10000_FRONT
370
    50
390
0
  6
CONTINUOUS
 62
     7
100
AcDbLine
 10
154.43617
 20
224.408416
 30
0.0
 11
154.558821
 21
224.698578
 31
0.0
  0
LINE
  5
FF0
100
AcDbEntity
  8
10000_FRONT
370
    50
390
0
  6
CONTINUOUS
 62
     7
100
AcDbLine
 10
154.558821
 20
224.698578
 30
0.0
 11
154.705183
 21
224.976989
 31
0.0
  0
LINE
  5
FF1
100
AcDbEntity
  8
10000_FRONT
370
    50
390
0
  6
CONTINUOUS
 62
     7
100
AcDbLine
 10
154.705183
 20
224.976989
 30
0.0
 11
154.87448
 21
225.242178
 31
0.0
  0
LINE
  5
FF2
100
AcDbEntity
  8
10000_FRONT
370
    50
390
0
  6
CONTINUOUS
 62
     7
100
AcDbLine
 10
154.87448
 20
225.242178
 30
0.0
 11
155.06594
 21
225.492671
 31
0.0
  0
LINE
  5
FF3
100
AcDbEntity
  8
10000_FRONT
370
    50
390
0
  6
CONTINUOUS
 62
     7
100
AcDbLine
 10
155.06594
 20
225.492671
 30
0.0
 11
155.278068
 21
225.726252
 31
0.0
  0
LINE
  5
FF4
100
AcDbEntity
  8
10000_FRONT
370
    50
390
0
  6
CONTINUOUS
 62
     7
100
AcDbLine
 10
155.278068
 20
225.726252
 30
0.0
 11
155.508632
 21
225.940487
 31
0.0
  0
LINE
  5
FF5
100
AcDbEntity
  8
10000_FRONT
370
    50
390
0
  6
CONTINUOUS
 62
     7
100
AcDbLine
 10
155.508632
 20
225.940487
 30
0.0
 11
155.756311
 21
226.134264
 31
0.0
  0
LINE
  5
FF6
100
AcDbEntity
  8
10000_FRONT
370
    50
390
0
  6
CONTINUOUS
 62
     7
100
AcDbLine
 10
155.756311
 20
226.134264
 30
0.0
 11
156.019801
 21
226.306484
 31
0.0
  0
LINE
  5
FF7
100
AcDbEntity
  8
10000_FRONT
370
    50
390
0
  6
CONTINUOUS
 62
     7
100
AcDbLine
 10
156.019801
 20
226.306484
 30
0.0
 11
156.297723
 21
226.456016
 31
0.0
  0
LINE
  5
FF8
100
AcDbEntity
  8
10000_FRONT
370
    50
390
0
  6
CONTINUOUS
 62
     7
100
AcDbLine
 10
156.297723
 20
226.456016
 30
0.0
 11
156.587035
 21
226.581107
 31
0.0
  0
LINE
  5
FF9
100
AcDbEntity
  8
10000_FRONT
370
    50
390
0
  6
CONTINUOUS
 62
     7
100
AcDbLine
 10
156.587035
 20
226.581107
 30
0.0
 11
156.885434
 21
226.680851
 31
0.0
  0
LINE
  5
FFA
100
AcDbEntity
  8
10000_FRONT
370
    50
390
0
  6
CONTINUOUS
 62
     7
100
AcDbLine
 10
156.885434
 20
226.680851
 30
0.0
 11
157.19129
 21
226.754736
 31
0.0
  0
LINE
  5
FFB
100
AcDbEntity
  8
10000_FRONT
370
    50
390
0
  6
CONTINUOUS
 62
     7
100
AcDbLine
 10
157.19129
 20
226.754736
 30
0.0
 11
157.502969
 21
226.802253
 31
0.0
  0
LINE
  5
FFC
100
AcDbEntity
  8
10000_FRONT
370
    50
390
0
  6
CONTINUOUS
 62
     7
100
AcDbLine
 10
157.502969
 20
226.802253
 30
0.0
 11
157.817909
 21
226.822867
 31
0.0
  0
LINE
  5
FFD
100
AcDbEntity
  8
10000_FRONT
370
    50
390
0
  6
CONTINUOUS
 62
     7
100
AcDbLine
 10
157.817909
 20
226.822867
 30
0.0
 11
158.132763
 21
226.816398
 31
0.0
  0
LINE
  5
FFE
100
AcDbEntity
  8
10000_FRONT
370
    50
390
0
  6
CONTINUOUS
 62
     7
100
AcDbLine
 10
158.132763
 20
226.816398
 30
0.0
 11
158.44579
 21
226.782989
 31
0.0
  0
LINE
  5
FFF
100
AcDbEntity
  8
10000_FRONT
370
    50
390
0
  6
CONTINUOUS
 62
     7
100
AcDbLine
 10
158.44579
 20
226.782989
 30
0.0
 11
158.755284
 21
226.722785
 31
0.0
  0
LINE
  5
1000
100
AcDbEntity
  8
10000_FRONT
370
    50
390
0
  6
CONTINUOUS
 62
     7
100
AcDbLine
 10
158.755284
 20
226.722785
 30
0.0
 11
159.058763
 21
226.636192
 31
0.0
  0
LINE
  5
1001
100
AcDbEntity
  8
10000_FRONT
370
    50
390
0
  6
CONTINUOUS
 62
     7
100
AcDbLine
 10
159.058763
 20
226.636192
 30
0.0
 11
159.352922
 21
226.524259
 31
0.0
  0
LINE
  5
1002
100
AcDbEntity
  8
10000_FRONT
370
    50
390
0
  6
CONTINUOUS
 62
     7
100
AcDbLine
 10
159.352922
 20
226.524259
 30
0.0
 11
159.636187
 21
226.387789
 31
0.0
  0
LINE
  5
1003
100
AcDbEntity
  8
10000_FRONT
370
    50
390
0
  6
CONTINUOUS
 62
     7
100
AcDbLine
 10
159.636187
 20
226.387789
 30
0.0
 11
159.907039
 21
226.227571
 31
0.0
  0
LINE
  5
1004
100
AcDbEntity
  8
10000_FRONT
370
    50
390
0
  6
CONTINUOUS
 62
     7
100
AcDbLine
 10
159.907039
 20
226.227571
 30
0.0
 11
160.163945
 21
226.044407
 31
0.0
  0
LINE
  5
1005
100
AcDbEntity
  8
10000_FRONT
370
    50
390
0
  6
CONTINUOUS
 62
     7
100
AcDbLine
 10
160.163945
 20
226.044407
 30
0.0
 11
160.404214
 21
225.840179
 31
0.0
  0
LINE
  5
1006
100
AcDbEntity
  8
10000_FRONT
370
    50
390
0
  6
CONTINUOUS
 62
     7
100
AcDbLine
 10
160.404214
 20
225.840179
 30
0.0
 11
160.625919
 21
225.616715
 31
0.0
  0
LINE
  5
1007
100
AcDbEntity
  8
10000_FRONT
370
    50
390
0
  6
CONTINUOUS
 62
     7
100
AcDbLine
 10
160.625919
 20
225.616715
 30
0.0
 11
160.827952
 21
225.375305
 31
0.0
  0
LINE
  5
1008
100
AcDbEntity
  8
10000_FRONT
370
    50
390
0
  6
CONTINUOUS
 62
     7
100
AcDbLine
 10
160.827952
 20
225.375305
 30
0.0
 11
161.009202
 21
225.117237
 31
0.0
  0
LINE
  5
1009
100
AcDbEntity
  8
10000_FRONT
370
    50
390
0
  6
CONTINUOUS
 62
     7
100
AcDbLine
 10
161.009202
 20
225.117237
 30
0.0
 11
161.168139
 21
224.844616
 31
0.0
  0
LINE
  5
100A
100
AcDbEntity
  8
10000_FRONT
370
    50
390
0
  6
CONTINUOUS
 62
     7
100
AcDbLine
 10
161.168139
 20
224.844616
 30
0.0
 11
161.303238
 21
224.560277
 31
0.0
  0
LINE
  5
100B
100
AcDbEntity
  8
10000_FRONT
370
    50
390
0
  6
CONTINUOUS
 62
     7
100
AcDbLine
 10
161.303238
 20
224.560277
 30
0.0
 11
161.413945
 21
224.265745
 31
0.0
  0
LINE
  5
100C
100
AcDbEntity
  8
10000_FRONT
370
    50
390
0
  6
CONTINUOUS
 62
     7
100
AcDbLine
 10
161.413945
 20
224.265745
 30
0.0
 11
161.499726
 21
223.96252
 31
0.0
  0
LINE
  5
100D
100
AcDbEntity
  8
10000_FRONT
370
    50
390
0
  6
CONTINUOUS
 62
     7
100
AcDbLine
 10
161.499726
 20
223.96252
 30
0.0
 11
161.559669
 21
223.654577
 31
0.0
  0
LINE
  5
100E
100
AcDbEntity
  8
10000_FRONT
370
    50
390
0
  6
CONTINUOUS
 62
     7
100
AcDbLine
 10
161.559669
 20
223.654577
 30
0.0
 11
161.592348
 21
223.364999
 31
0.0
  0
ARC
  5
100F
100
AcDbEntity
  8
10000_FRONT
370
    50
390
0
  6
CONTINUOUS
 62
     7
100
AcDbCircle
 10
167.4
 20
220.664999
 30
0.0
 40
3.2
100
AcDbArc
 50
0.0
 51
180.0
  0
LINE
  5
1010
100
AcDbEntity
  8
10000_FRONT
370
    50
390
0
  6
CONTINUOUS
 62
     7
100
AcDbLine
 10
171.16375
 20
221.188626
 30
0.0
 11
171.160221
 21
221.185918
 31
0.0
  0
LINE
  5
1011
100
AcDbEntity
  8
10000_FRONT
370
    50
390
0
  6
CONTINUOUS
 62
     7
100
AcDbLine
 10
171.160221
 20
221.185918
 30
0.0
 11
171.158319
 21
221.18128
 31
0.0
  0
LINE
  5
1012
100
AcDbEntity
  8
10000_FRONT
370
    50
390
0
  6
CONTINUOUS
 62
     7
100
AcDbLine
 10
171.158319
 20
221.18128
 30
0.0
 11
171.156986
 21
221.175851
 31
0.0
  0
LINE
  5
1013
100
AcDbEntity
  8
10000_FRONT
370
    50
390
0
  6
CONTINUOUS
 62
     7
100
AcDbLine
 10
171.156986
 20
221.175851
 30
0.0
 11
171.155907
 21
221.169479
 31
0.0
  0
LINE
  5
1014
100
AcDbEntity
  8
10000_FRONT
370
    50
390
0
  6
CONTINUOUS
 62
     7
100
AcDbLine
 10
171.155907
 20
221.169479
 30
0.0
 11
171.155016
 21
221.162262
 31
0.0
  0
LINE
  5
1015
100
AcDbEntity
  8
10000_FRONT
370
    50
390
0
  6
CONTINUOUS
 62
     7
100
AcDbLine
 10
171.155016
 20
221.162262
 30
0.0
 11
171.154289
 21
221.15442
 31
0.0
  0
LINE
  5
1016
100
AcDbEntity
  8
10000_FRONT
370
    50
390
0
  6
CONTINUOUS
 62
     7
100
AcDbLine
 10
171.154289
 20
221.15442
 30
0.0
 11
171.153696
 21
221.146173
 31
0.0
  0
LINE
  5
1017
100
AcDbEntity
  8
10000_FRONT
370
    50
390
0
  6
CONTINUOUS
 62
     7
100
AcDbLine
 10
171.153696
 20
221.146173
 30
0.0
 11
171.1532
 21
221.137469
 31
0.0
  0
LINE
  5
1018
100
AcDbEntity
  8
10000_FRONT
370
    50
390
0
  6
CONTINUOUS
 62
     7
100
AcDbLine
 10
171.1532
 20
221.137469
 30
0.0
 11
171.152773
 21
221.128051
 31
0.0
  0
LINE
  5
1019
100
AcDbEntity
  8
10000_FRONT
370
    50
390
0
  6
CONTINUOUS
 62
     7
100
AcDbLine
 10
171.152773
 20
221.128051
 30
0.0
 11
171.152403
 21
221.117931
 31
0.0
  0
LINE
  5
101A
100
AcDbEntity
  8
10000_FRONT
370
    50
390
0
  6
CONTINUOUS
 62
     7
100
AcDbLine
 10
171.152403
 20
221.117931
 30
0.0
 11
171.152082
 21
221.107116
 31
0.0
  0
LINE
  5
101B
100
AcDbEntity
  8
10000_FRONT
370
    50
390
0
  6
CONTINUOUS
 62
     7
100
AcDbLine
 10
171.152082
 20
221.107116
 30
0.0
 11
171.1518
 21
221.095618
 31
0.0
  0
LINE
  5
101C
100
AcDbEntity
  8
10000_FRONT
370
    50
390
0
  6
CONTINUOUS
 62
     7
100
AcDbLine
 10
171.1518
 20
221.095618
 30
0.0
 11
171.151548
 21
221.083445
 31
0.0
  0
LINE
  5
101D
100
AcDbEntity
  8
10000_FRONT
370
    50
390
0
  6
CONTINUOUS
 62
     7
100
AcDbLine
 10
171.151548
 20
221.083445
 30
0.0
 11
171.151318
 21
221.070609
 31
0.0
  0
LINE
  5
101E
100
AcDbEntity
  8
10000_FRONT
370
    50
390
0
  6
CONTINUOUS
 62
     7
100
AcDbLine
 10
171.151318
 20
221.070609
 30
0.0
 11
171.1511
 21
221.057118
 31
0.0
  0
LINE
  5
101F
100
AcDbEntity
  8
10000_FRONT
370
    50
390
0
  6
CONTINUOUS
 62
     7
100
AcDbLine
 10
171.1511
 20
221.057118
 30
0.0
 11
171.150883
 21
221.042982
 31
0.0
  0
LINE
  5
1020
100
AcDbEntity
  8
10000_FRONT
370
    50
390
0
  6
CONTINUOUS
 62
     7
100
AcDbLine
 10
171.150883
 20
221.042982
 30
0.0
 11
171.15066
 21
221.028211
 31
0.0
  0
LINE
  5
1021
100
AcDbEntity
  8
10000_FRONT
370
    50
390
0
  6
CONTINUOUS
 62
     7
100
AcDbLine
 10
171.15066
 20
221.028211
 30
0.0
 11
171.150419
 21
221.012815
 31
0.0
  0
LINE
  5
1022
100
AcDbEntity
  8
10000_FRONT
370
    50
390
0
  6
CONTINUOUS
 62
     7
100
AcDbLine
 10
171.150419
 20
221.012815
 30
0.0
 11
171.150154
 21
220.996804
 31
0.0
  0
LINE
  5
1023
100
AcDbEntity
  8
10000_FRONT
370
    50
390
0
  6
CONTINUOUS
 62
     7
100
AcDbLine
 10
171.150154
 20
220.996804
 30
0.0
 11
171.149853
 21
220.980187
 31
0.0
  0
LINE
  5
1024
100
AcDbEntity
  8
10000_FRONT
370
    50
390
0
  6
CONTINUOUS
 62
     7
100
AcDbLine
 10
171.149853
 20
220.980187
 30
0.0
 11
171.149509
 21
220.962975
 31
0.0
  0
LINE
  5
1025
100
AcDbEntity
  8
10000_FRONT
370
    50
390
0
  6
CONTINUOUS
 62
     7
100
AcDbLine
 10
171.149509
 20
220.962975
 30
0.0
 11
171.149111
 21
220.945177
 31
0.0
  0
LINE
  5
1026
100
AcDbEntity
  8
10000_FRONT
370
    50
390
0
  6
CONTINUOUS
 62
     7
100
AcDbLine
 10
171.149111
 20
220.945177
 30
0.0
 11
171.148649
 21
220.926802
 31
0.0
  0
LINE
  5
1027
100
AcDbEntity
  8
10000_FRONT
370
    50
390
0
  6
CONTINUOUS
 62
     7
100
AcDbLine
 10
171.148649
 20
220.926802
 30
0.0
 11
171.148117
 21
220.907862
 31
0.0
  0
LINE
  5
1028
100
AcDbEntity
  8
10000_FRONT
370
    50
390
0
  6
CONTINUOUS
 62
     7
100
AcDbLine
 10
171.148117
 20
220.907862
 30
0.0
 11
171.147503
 21
220.888365
 31
0.0
  0
LINE
  5
1029
100
AcDbEntity
  8
10000_FRONT
370
    50
390
0
  6
CONTINUOUS
 62
     7
100
AcDbLine
 10
171.147503
 20
220.888365
 30
0.0
 11
171.146797
 21
220.868322
 31
0.0
  0
LINE
  5
102A
100
AcDbEntity
  8
10000_FRONT
370
    50
390
0
  6
CONTINUOUS
 62
     7
100
AcDbLine
 10
171.146797
 20
220.868322
 30
0.0
 11
171.145992
 21
220.847741
 31
0.0
  0
LINE
  5
102B
100
AcDbEntity
  8
10000_FRONT
370
    50
390
0
  6
CONTINUOUS
 62
     7
100
AcDbLine
 10
171.145992
 20
220.847741
 30
0.0
 11
171.145079
 21
220.826634
 31
0.0
  0
LINE
  5
102C
100
AcDbEntity
  8
10000_FRONT
370
    50
390
0
  6
CONTINUOUS
 62
     7
100
AcDbLine
 10
171.145079
 20
220.826634
 30
0.0
 11
171.144045
 21
220.80501
 31
0.0
  0
LINE
  5
102D
100
AcDbEntity
  8
10000_FRONT
370
    50
390
0
  6
CONTINUOUS
 62
     7
100
AcDbLine
 10
171.144045
 20
220.80501
 30
0.0
 11
171.142885
 21
220.782878
 31
0.0
  0
LINE
  5
102E
100
AcDbEntity
  8
10000_FRONT
370
    50
390
0
  6
CONTINUOUS
 62
     7
100
AcDbLine
 10
171.142885
 20
220.782878
 30
0.0
 11
171.141586
 21
220.760248
 31
0.0
  0
LINE
  5
102F
100
AcDbEntity
  8
10000_FRONT
370
    50
390
0
  6
CONTINUOUS
 62
     7
100
AcDbLine
 10
171.141586
 20
220.760248
 30
0.0
 11
171.140142
 21
220.73713
 31
0.0
  0
LINE
  5
1030
100
AcDbEntity
  8
10000_FRONT
370
    50
390
0
  6
CONTINUOUS
 62
     7
100
AcDbLine
 10
171.140142
 20
220.73713
 30
0.0
 11
171.138542
 21
220.713535
 31
0.0
  0
LINE
  5
1031
100
AcDbEntity
  8
10000_FRONT
370
    50
390
0
  6
CONTINUOUS
 62
     7
100
AcDbLine
 10
171.138542
 20
220.713535
 30
0.0
 11
171.136778
 21
220.689471
 31
0.0
  0
LINE
  5
1032
100
AcDbEntity
  8
10000_FRONT
370
    50
390
0
  6
CONTINUOUS
 62
     7
100
AcDbLine
 10
171.136778
 20
220.689471
 30
0.0
 11
171.134842
 21
220.664999
 31
0.0
  0
LINE
  5
1033
100
AcDbEntity
  8
10000_FRONT
370
    50
390
0
  6
CONTINUOUS
 62
     7
100
AcDbLine
 10
163.965629
 20
222.291373
 30
0.0
 11
163.989218
 21
222.314333
 31
0.0
  0
LINE
  5
1034
100
AcDbEntity
  8
10000_FRONT
370
    50
390
0
  6
CONTINUOUS
 62
     7
100
AcDbLine
 10
163.989218
 20
222.314333
 30
0.0
 11
164.025872
 21
222.366693
 31
0.0
  0
LINE
  5
1035
100
AcDbEntity
  8
10000_FRONT
370
    50
390
0
  6
CONTINUOUS
 62
     7
100
AcDbLine
 10
164.025872
 20
222.366693
 30
0.0
 11
164.077242
 21
222.444093
 31
0.0
  0
LINE
  5
1036
100
AcDbEntity
  8
10000_FRONT
370
    50
390
0
  6
CONTINUOUS
 62
     7
100
AcDbLine
 10
164.077242
 20
222.444093
 30
0.0
 11
164.143772
 21
222.542623
 31
0.0
  0
LINE
  5
1037
100
AcDbEntity
  8
10000_FRONT
370
    50
390
0
  6
CONTINUOUS
 62
     7
100
AcDbLine
 10
164.143772
 20
222.542623
 30
0.0
 11
164.225914
 21
222.658376
 31
0.0
  0
LINE
  5
1038
100
AcDbEntity
  8
10000_FRONT
370
    50
390
0
  6
CONTINUOUS
 62
     7
100
AcDbLine
 10
164.225914
 20
222.658376
 30
0.0
 11
164.327557
 21
222.791799
 31
0.0
  0
LINE
  5
1039
100
AcDbEntity
  8
10000_FRONT
370
    50
390
0
  6
CONTINUOUS
 62
     7
100
AcDbLine
 10
164.327557
 20
222.791799
 30
0.0
 11
164.452598
 21
222.942069
 31
0.0
  0
LINE
  5
103A
100
AcDbEntity
  8
10000_FRONT
370
    50
390
0
  6
CONTINUOUS
 62
     7
100
AcDbLine
 10
164.452598
 20
222.942069
 30
0.0
 11
164.60225
 21
223.104384
 31
0.0
  0
LINE
  5
103B
100
AcDbEntity
  8
10000_FRONT
370
    50
390
0
  6
CONTINUOUS
 62
     7
100
AcDbLine
 10
164.60225
 20
223.104384
 30
0.0
 11
164.777724
 21
223.273944
 31
0.0
  0
LINE
  5
103C
100
AcDbEntity
  8
10000_FRONT
370
    50
390
0
  6
CONTINUOUS
 62
     7
100
AcDbLine
 10
164.777724
 20
223.273944
 30
0.0
 11
164.98023
 21
223.445947
 31
0.0
  0
LINE
  5
103D
100
AcDbEntity
  8
10000_FRONT
370
    50
390
0
  6
CONTINUOUS
 62
     7
100
AcDbLine
 10
164.98023
 20
223.445947
 30
0.0
 11
165.210979
 21
223.615595
 31
0.0
  0
LINE
  5
103E
100
AcDbEntity
  8
10000_FRONT
370
    50
390
0
  6
CONTINUOUS
 62
     7
100
AcDbLine
 10
165.210979
 20
223.615595
 30
0.0
 11
165.469059
 21
223.776865
 31
0.0
  0
LINE
  5
103F
100
AcDbEntity
  8
10000_FRONT
370
    50
390
0
  6
CONTINUOUS
 62
     7
100
AcDbLine
 10
165.469059
 20
223.776865
 30
0.0
 11
165.740679
 21
223.918411
 31
0.0
  0
LINE
  5
1040
100
AcDbEntity
  8
10000_FRONT
370
    50
390
0
  6
CONTINUOUS
 62
     7
100
AcDbLine
 10
165.740679
 20
223.918411
 30
0.0
 11
166.022084
 21
224.038023
 31
0.0
  0
LINE
  5
1041
100
AcDbEntity
  8
10000_FRONT
370
    50
390
0
  6
CONTINUOUS
 62
     7
100
AcDbLine
 10
166.022084
 20
224.038023
 30
0.0
 11
166.311998
 21
224.135177
 31
0.0
  0
LINE
  5
1042
100
AcDbEntity
  8
10000_FRONT
370
    50
390
0
  6
CONTINUOUS
 62
     7
100
AcDbLine
 10
166.311998
 20
224.135177
 30
0.0
 11
166.609146
 21
224.20935
 31
0.0
  0
LINE
  5
1043
100
AcDbEntity
  8
10000_FRONT
370
    50
390
0
  6
CONTINUOUS
 62
     7
100
AcDbLine
 10
166.609146
 20
224.20935
 30
0.0
 11
166.911846
 21
224.259962
 31
0.0
  0
LINE
  5
1044
100
AcDbEntity
  8
10000_FRONT
370
    50
390
0
  6
CONTINUOUS
 62
     7
100
AcDbLine
 10
166.911846
 20
224.259962
 30
0.0
 11
167.217031
 21
224.286474
 31
0.0
  0
LINE
  5
1045
100
AcDbEntity
  8
10000_FRONT
370
    50
390
0
  6
CONTINUOUS
 62
     7
100
AcDbLine
 10
167.217031
 20
224.286474
 30
0.0
 11
167.523096
 21
224.288838
 31
0.0
  0
LINE
  5
1046
100
AcDbEntity
  8
10000_FRONT
370
    50
390
0
  6
CONTINUOUS
 62
     7
100
AcDbLine
 10
167.523096
 20
224.288838
 30
0.0
 11
167.82863
 21
224.267043
 31
0.0
  0
LINE
  5
1047
100
AcDbEntity
  8
10000_FRONT
370
    50
390
0
  6
CONTINUOUS
 62
     7
100
AcDbLine
 10
167.82863
 20
224.267043
 30
0.0
 11
168.132069
 21
224.221112
 31
0.0
  0
LINE
  5
1048
100
AcDbEntity
  8
10000_FRONT
370
    50
390
0
  6
CONTINUOUS
 62
     7
100
AcDbLine
 10
168.132069
 20
224.221112
 30
0.0
 11
168.430326
 21
224.151533
 31
0.0
  0
LINE
  5
1049
100
AcDbEntity
  8
10000_FRONT
370
    50
390
0
  6
CONTINUOUS
 62
     7
100
AcDbLine
 10
168.430326
 20
224.151533
 30
0.0
 11
168.721642
 21
224.058881
 31
0.0
  0
LINE
  5
104A
100
AcDbEntity
  8
10000_FRONT
370
    50
390
0
  6
CONTINUOUS
 62
     7
100
AcDbLine
 10
168.721642
 20
224.058881
 30
0.0
 11
169.004736
 21
223.943672
 31
0.0
  0
LINE
  5
104B
100
AcDbEntity
  8
10000_FRONT
370
    50
390
0
  6
CONTINUOUS
 62
     7
100
AcDbLine
 10
169.004736
 20
223.943672
 30
0.0
 11
169.278332
 21
223.806423
 31
0.0
  0
LINE
  5
104C
100
AcDbEntity
  8
10000_FRONT
370
    50
390
0
  6
CONTINUOUS
 62
     7
100
AcDbLine
 10
169.278332
 20
223.806423
 30
0.0
 11
169.543667
 21
223.646077
 31
0.0
  0
LINE
  5
104D
100
AcDbEntity
  8
10000_FRONT
370
    50
390
0
  6
CONTINUOUS
 62
     7
100
AcDbLine
 10
169.543667
 20
223.646077
 30
0.0
 11
169.833153
 21
223.436089
 31
0.0
  0
LINE
  5
104E
100
AcDbEntity
  8
10000_FRONT
370
    50
390
0
  6
CONTINUOUS
 62
     7
100
AcDbLine
 10
169.833153
 20
223.436089
 30
0.0
 11
170.14603
 21
223.15731
 31
0.0
  0
LINE
  5
104F
100
AcDbEntity
  8
10000_FRONT
370
    50
390
0
  6
CONTINUOUS
 62
     7
100
AcDbLine
 10
170.14603
 20
223.15731
 30
0.0
 11
170.468052
 21
222.797358
 31
0.0
  0
LINE
  5
1050
100
AcDbEntity
  8
10000_FRONT
370
    50
390
0
  6
CONTINUOUS
 62
     7
100
AcDbLine
 10
170.468052
 20
222.797358
 30
0.0
 11
170.722044
 21
222.445188
 31
0.0
  0
LINE
  5
1051
100
AcDbEntity
  8
10000_FRONT
370
    50
390
0
  6
CONTINUOUS
 62
     7
100
AcDbLine
 10
170.722044
 20
222.445188
 30
0.0
 11
170.834372
 21
222.291373
 31
0.0
  0
LINE
  5
1052
100
AcDbEntity
  8
10000_FRONT
370
    50
390
0
  6
CONTINUOUS
 62
     7
100
AcDbLine
 10
163.665158
 20
220.664999
 30
0.0
 11
163.656997
 21
220.785063
 31
0.0
  0
LINE
  5
1053
100
AcDbEntity
  8
10000_FRONT
370
    50
390
0
  6
CONTINUOUS
 62
     7
100
AcDbLine
 10
163.656997
 20
220.785063
 30
0.0
 11
163.652339
 21
220.893113
 31
0.0
  0
LINE
  5
1054
100
AcDbEntity
  8
10000_FRONT
370
    50
390
0
  6
CONTINUOUS
 62
     7
100
AcDbLine
 10
163.652339
 20
220.893113
 30
0.0
 11
163.650011
 21
220.986757
 31
0.0
  0
LINE
  5
1055
100
AcDbEntity
  8
10000_FRONT
370
    50
390
0
  6
CONTINUOUS
 62
     7
100
AcDbLine
 10
163.650011
 20
220.986757
 30
0.0
 11
163.648761
 21
221.064515
 31
0.0
  0
LINE
  5
1056
100
AcDbEntity
  8
10000_FRONT
370
    50
390
0
  6
CONTINUOUS
 62
     7
100
AcDbLine
 10
163.648761
 20
221.064515
 30
0.0
 11
163.64734
 21
221.124909
 31
0.0
  0
LINE
  5
1057
100
AcDbEntity
  8
10000_FRONT
370
    50
390
0
  6
CONTINUOUS
 62
     7
100
AcDbLine
 10
163.64734
 20
221.124909
 30
0.0
 11
163.644485
 21
221.166557
 31
0.0
  0
LINE
  5
1058
100
AcDbEntity
  8
10000_FRONT
370
    50
390
0
  6
CONTINUOUS
 62
     7
100
AcDbLine
 10
163.644485
 20
221.166557
 30
0.0
 11
163.63625
 21
221.188626
 31
0.0
  0
ARC
  5
1059
100
AcDbEntity
  8
10000_FRONT
370
    50
390
0
  6
CONTINUOUS
 62
     7
100
AcDbCircle
 10
167.4
 20
220.664999
 30
0.0
 40
3.0
100
AcDbArc
 50
180.0
 51
0.0
  0
ARC
  5
105A
100
AcDbEntity
  8
10000_FRONT
370
    50
390
0
  6
CONTINUOUS
 62
     7
100
AcDbCircle
 10
167.4
 20
220.664999
 30
0.0
 40
2.7
100
AcDbArc
 50
180.0
 51
0.0
  0
ARC
  5
105B
100
AcDbEntity
  8
10000_FRONT
370
    50
390
0
  6
CONTINUOUS
 62
     7
100
AcDbCircle
 10
157.9
 20
223.364999
 30
0.0
 40
3.0
100
AcDbArc
 50
180.0
 51
0.0
  0
ARC
  5
105C
100
AcDbEntity
  8
10000_FRONT
370
    50
390
0
  6
CONTINUOUS
 62
     7
100
AcDbCircle
 10
157.9
 20
223.364999
 30
0.0
 40
2.7
100
AcDbArc
 50
180.0
 51
0.0
  0
LINE
  5
105D
100
AcDbEntity
  8
10000_FRONT
370
    50
390
0
  6
CONTINUOUS
 62
     7
100
AcDbLine
 10
139.45
 20
204.875
 30
0.0
 11
139.45
 21
207.875
 31
0.0
  0
LINE
  5
105E
100
AcDbEntity
  8
10000_FRONT
370
    50
390
0
  6
CONTINUOUS
 62
     7
100
AcDbLine
 10
128.5
 20
207.875
 30
0.0
 11
129.299999
 21
207.875
 31
0.0
  0
LINE
  5
105F
100
AcDbEntity
  8
10000_FRONT
370
    50
390
0
  6
CONTINUOUS
 62
     7
100
AcDbLine
 10
129.299999
 20
207.875
 30
0.0
 11
139.45
 21
207.875
 31
0.0
  0
LINE
  5
1060
100
AcDbEntity
  8
10000_FRONT
370
    50
390
0
  6
CONTINUOUS
 62
     7
100
AcDbLine
 10
128.5
 20
207.875
 30
0.0
 11
128.5
 21
211.875
 31
0.0
  0
LINE
  5
1061
100
AcDbEntity
  8
10000_FRONT
370
    50
390
0
  6
CONTINUOUS
 62
     7
100
AcDbLine
 10
154.0085
 20
193.118599
 30
0.0
 11
154.0085
 21
194.654487
 31
0.0
  0
LINE
  5
1062
100
AcDbEntity
  8
10000_FRONT
370
    50
390
0
  6
CONTINUOUS
 62
     7
100
AcDbLine
 10
154.0085
 20
194.654487
 30
0.0
 11
153.874133
 21
194.519035
 31
0.0
  0
LINE
  5
1063
100
AcDbEntity
  8
10000_FRONT
370
    50
390
0
  6
CONTINUOUS
 62
     7
100
AcDbLine
 10
153.874133
 20
194.519035
 30
0.0
 11
153.678898
 21
194.422699
 31
0.0
  0
LINE
  5
1064
100
AcDbEntity
  8
10000_FRONT
370
    50
390
0
  6
CONTINUOUS
 62
     7
100
AcDbLine
 10
153.678898
 20
194.422699
 30
0.0
 11
153.678898
 21
194.5466
 31
0.0
  0
LINE
  5
1065
100
AcDbEntity
  8
10000_FRONT
370
    50
390
0
  6
CONTINUOUS
 62
     7
100
AcDbLine
 10
153.678898
 20
194.5466
 30
0.0
 11
153.851164
 21
194.633751
 31
0.0
  0
LINE
  5
1066
100
AcDbEntity
  8
10000_FRONT
370
    50
390
0
  6
CONTINUOUS
 62
     7
100
AcDbLine
 10
153.851164
 20
194.633751
 30
0.0
 11
154.101294
 21
194.882599
 31
0.0
  0
LINE
  5
1067
100
AcDbEntity
  8
10000_FRONT
370
    50
390
0
  6
CONTINUOUS
 62
     7
100
AcDbLine
 10
154.101294
 20
194.882599
 30
0.0
 11
154.1261
 21
194.882599
 31
0.0
  0
LINE
  5
1068
100
AcDbEntity
  8
10000_FRONT
370
    50
390
0
  6
CONTINUOUS
 62
     7
100
AcDbLine
 10
154.1261
 20
194.882599
 30
0.0
 11
154.1261
 21
193.118599
 31
0.0
  0
LINE
  5
1069
100
AcDbEntity
  8
10000_FRONT
370
    50
390
0
  6
CONTINUOUS
 62
     7
100
AcDbLine
 10
154.1261
 20
193.118599
 30
0.0
 11
154.0085
 21
193.118599
 31
0.0
  0
LINE
  5
106A
100
AcDbEntity
  8
10000_FRONT
370
    50
390
0
  6
CONTINUOUS
 62
     7
100
AcDbLine
 10
154.826845
 20
193.857799
 30
0.0
 11
154.826845
 21
193.975399
 31
0.0
  0
LINE
  5
106B
100
AcDbEntity
  8
10000_FRONT
370
    50
390
0
  6
CONTINUOUS
 62
     7
100
AcDbLine
 10
154.826845
 20
193.975399
 30
0.0
 11
155.4849
 21
193.975399
 31
0.0
  0
LINE
  5
106C
100
AcDbEntity
  8
10000_FRONT
370
    50
390
0
  6
CONTINUOUS
 62
     7
100
AcDbLine
 10
155.4849
 20
193.975399
 30
0.0
 11
155.4849
 21
194.6306
 31
0.0
  0
LINE
  5
106D
100
AcDbEntity
  8
10000_FRONT
370
    50
390
0
  6
CONTINUOUS
 62
     7
100
AcDbLine
 10
155.4849
 20
194.6306
 30
0.0
 11
155.6025
 21
194.6306
 31
0.0
  0
LINE
  5
106E
100
AcDbEntity
  8
10000_FRONT
370
    50
390
0
  6
CONTINUOUS
 62
     7
100
AcDbLine
 10
155.6025
 20
194.6306
 30
0.0
 11
155.6025
 21
193.975399
 31
0.0
  0
LINE
  5
106F
100
AcDbEntity
  8
10000_FRONT
370
    50
390
0
  6
CONTINUOUS
 62
     7
100
AcDbLine
 10
155.6025
 20
193.975399
 30
0.0
 11
156.260555
 21
193.975399
 31
0.0
  0
LINE
  5
1070
100
AcDbEntity
  8
10000_FRONT
370
    50
390
0
  6
CONTINUOUS
 62
     7
100
AcDbLine
 10
156.260555
 20
193.975399
 30
0.0
 11
156.260555
 21
193.857799
 31
0.0
  0
LINE
  5
1071
100
AcDbEntity
  8
10000_FRONT
370
    50
390
0
  6
CONTINUOUS
 62
     7
100
AcDbLine
 10
156.260555
 20
193.857799
 30
0.0
 11
155.6025
 21
193.857799
 31
0.0
  0
LINE
  5
1072
100
AcDbEntity
  8
10000_FRONT
370
    50
390
0
  6
CONTINUOUS
 62
     7
100
AcDbLine
 10
155.6025
 20
193.857799
 30
0.0
 11
155.6025
 21
193.202598
 31
0.0
  0
LINE
  5
1073
100
AcDbEntity
  8
10000_FRONT
370
    50
390
0
  6
CONTINUOUS
 62
     7
100
AcDbLine
 10
155.6025
 20
193.202598
 30
0.0
 11
155.4849
 21
193.202598
 31
0.0
  0
LINE
  5
1074
100
AcDbEntity
  8
10000_FRONT
370
    50
390
0
  6
CONTINUOUS
 62
     7
100
AcDbLine
 10
155.4849
 20
193.202598
 30
0.0
 11
155.4849
 21
193.857799
 31
0.0
  0
LINE
  5
1075
100
AcDbEntity
  8
10000_FRONT
370
    50
390
0
  6
CONTINUOUS
 62
     7
100
AcDbLine
 10
155.4849
 20
193.857799
 30
0.0
 11
154.826845
 21
193.857799
 31
0.0
  0
LINE
  5
1076
100
AcDbEntity
  8
10000_FRONT
370
    50
390
0
  6
CONTINUOUS
 62
     7
100
AcDbLine
 10
161.2584
 20
194.5634
 30
0.0
 11
161.2584
 21
193.6562
 31
0.0
  0
LINE
  5
1077
100
AcDbEntity
  8
10000_FRONT
370
    50
390
0
  6
CONTINUOUS
 62
     7
100
AcDbLine
 10
161.2584
 20
193.6562
 30
0.0
 11
160.627908
 21
193.6562
 31
0.0
  0
LINE
  5
1078
100
AcDbEntity
  8
10000_FRONT
370
    50
390
0
  6
CONTINUOUS
 62
     7
100
AcDbLine
 10
160.627908
 20
193.6562
 30
0.0
 11
161.2584
 21
194.5634
 31
0.0
  0
LINE
  5
1079
100
AcDbEntity
  8
10000_FRONT
370
    50
390
0
  6
CONTINUOUS
 62
     7
100
AcDbLine
 10
160.414298
 20
193.538601
 30
0.0
 11
161.347749
 21
194.882599
 31
0.0
  0
LINE
  5
107A
100
AcDbEntity
  8
10000_FRONT
370
    50
390
0
  6
CONTINUOUS
 62
     7
100
AcDbLine
 10
161.347749
 20
194.882599
 30
0.0
 11
161.376
 21
194.882599
 31
0.0
  0
LINE
  5
107B
100
AcDbEntity
  8
10000_FRONT
370
    50
390
0
  6
CONTINUOUS
 62
     7
100
AcDbLine
 10
161.376
 20
194.882599
 30
0.0
 11
161.376
 21
193.6562
 31
0.0
  0
LINE
  5
107C
100
AcDbEntity
  8
10000_FRONT
370
    50
390
0
  6
CONTINUOUS
 62
     7
100
AcDbLine
 10
161.376
 20
193.6562
 30
0.0
 11
161.705602
 21
193.6562
 31
0.0
  0
LINE
  5
107D
100
AcDbEntity
  8
10000_FRONT
370
    50
390
0
  6
CONTINUOUS
 62
     7
100
AcDbLine
 10
161.705602
 20
193.6562
 30
0.0
 11
161.705602
 21
193.538601
 31
0.0
  0
LINE
  5
107E
100
AcDbEntity
  8
10000_FRONT
370
    50
390
0
  6
CONTINUOUS
 62
     7
100
AcDbLine
 10
161.705602
 20
193.538601
 30
0.0
 11
161.376
 21
193.538601
 31
0.0
  0
LINE
  5
107F
100
AcDbEntity
  8
10000_FRONT
370
    50
390
0
  6
CONTINUOUS
 62
     7
100
AcDbLine
 10
161.376
 20
193.538601
 30
0.0
 11
161.376
 21
193.118599
 31
0.0
  0
LINE
  5
1080
100
AcDbEntity
  8
10000_FRONT
370
    50
390
0
  6
CONTINUOUS
 62
     7
100
AcDbLine
 10
161.376
 20
193.118599
 30
0.0
 11
161.2584
 21
193.118599
 31
0.0
  0
LINE
  5
1081
100
AcDbEntity
  8
10000_FRONT
370
    50
390
0
  6
CONTINUOUS
 62
     7
100
AcDbLine
 10
161.2584
 20
193.118599
 30
0.0
 11
161.2584
 21
193.538601
 31
0.0
  0
LINE
  5
1082
100
AcDbEntity
  8
10000_FRONT
370
    50
390
0
  6
CONTINUOUS
 62
     7
100
AcDbLine
 10
161.2584
 20
193.538601
 30
0.0
 11
160.414298
 21
193.538601
 31
0.0
  0
LINE
  5
1083
100
AcDbEntity
  8
10000_FRONT
370
    50
390
0
  6
CONTINUOUS
 62
     7
100
AcDbLine
 10
167.030321
 20
194.573639
 30
0.0
 11
167.387486
 21
193.6562
 31
0.0
  0
LINE
  5
1084
100
AcDbEntity
  8
10000_FRONT
370
    50
390
0
  6
CONTINUOUS
 62
     7
100
AcDbLine
 10
167.387486
 20
193.6562
 30
0.0
 11
166.673157
 21
193.6562
 31
0.0
  0
LINE
  5
1085
100
AcDbEntity
  8
10000_FRONT
370
    50
390
0
  6
CONTINUOUS
 62
     7
100
AcDbLine
 10
166.673157
 20
193.6562
 30
0.0
 11
167.030321
 21
194.573639
 31
0.0
  0
LINE
  5
1086
100
AcDbEntity
  8
10000_FRONT
370
    50
390
0
  6
CONTINUOUS
 62
     7
100
AcDbLine
 10
166.343554
 20
193.118599
 30
0.0
 11
167.017689
 21
194.882599
 31
0.0
  0
LINE
  5
1087
100
AcDbEntity
  8
10000_FRONT
370
    50
390
0
  6
CONTINUOUS
 62
     7
100
AcDbLine
 10
167.017689
 20
194.882599
 30
0.0
 11
167.042953
 21
194.882599
 31
0.0
  0
LINE
  5
1088
100
AcDbEntity
  8
10000_FRONT
370
    50
390
0
  6
CONTINUOUS
 62
     7
100
AcDbLine
 10
167.042953
 20
194.882599
 30
0.0
 11
167.717087
 21
193.118599
 31
0.0
  0
LINE
  5
1089
100
AcDbEntity
  8
10000_FRONT
370
    50
390
0
  6
CONTINUOUS
 62
     7
100
AcDbLine
 10
167.717087
 20
193.118599
 30
0.0
 11
167.595352
 21
193.118599
 31
0.0
  0
LINE
  5
108A
100
AcDbEntity
  8
10000_FRONT
370
    50
390
0
  6
CONTINUOUS
 62
     7
100
AcDbLine
 10
167.595352
 20
193.118599
 30
0.0
 11
167.432274
 21
193.538601
 31
0.0
  0
LINE
  5
108B
100
AcDbEntity
  8
10000_FRONT
370
    50
390
0
  6
CONTINUOUS
 62
     7
100
AcDbLine
 10
167.432274
 20
193.538601
 30
0.0
 11
166.628367
 21
193.538601
 31
0.0
  0
LINE
  5
108C
100
AcDbEntity
  8
10000_FRONT
370
    50
390
0
  6
CONTINUOUS
 62
     7
100
AcDbLine
 10
166.628367
 20
193.538601
 30
0.0
 11
166.466437
 21
193.118599
 31
0.0
  0
LINE
  5
108D
100
AcDbEntity
  8
10000_FRONT
370
    50
390
0
  6
CONTINUOUS
 62
     7
100
AcDbLine
 10
166.466437
 20
193.118599
 30
0.0
 11
166.343554
 21
193.118599
 31
0.0
  0
LINE
  5
108E
100
AcDbEntity
  8
10000_FRONT
370
    50
390
0
  6
CONTINUOUS
 62
     7
100
AcDbLine
 10
169.51651
 20
193.299724
 30
0.0
 11
169.4352
 21
193.715263
 31
0.0
  0
LINE
  5
108F
100
AcDbEntity
  8
10000_FRONT
370
    50
390
0
  6
CONTINUOUS
 62
     7
100
AcDbLine
 10
169.4352
 20
193.715263
 30
0.0
 11
169.4352
 21
194.049423
 31
0.0
  0
LINE
  5
1090
100
AcDbEntity
  8
10000_FRONT
370
    50
390
0
  6
CONTINUOUS
 62
     7
100
AcDbLine
 10
169.4352
 20
194.049423
 30
0.0
 11
169.51651
 21
194.465225
 31
0.0
  0
LINE
  5
1091
100
AcDbEntity
  8
10000_FRONT
370
    50
390
0
  6
CONTINUOUS
 62
     7
100
AcDbLine
 10
169.51651
 20
194.465225
 30
0.0
 11
169.682573
 21
194.797024
 31
0.0
  0
LINE
  5
1092
100
AcDbEntity
  8
10000_FRONT
370
    50
390
0
  6
CONTINUOUS
 62
     7
100
AcDbLine
 10
169.682573
 20
194.797024
 30
0.0
 11
169.850245
 21
195.046398
 31
0.0
  0
LINE
  5
1093
100
AcDbEntity
  8
10000_FRONT
370
    50
390
0
  6
CONTINUOUS
 62
     7
100
AcDbLine
 10
169.850245
 20
195.046398
 30
0.0
 11
170.021362
 21
195.218597
 31
0.0
  0
LINE
  5
1094
100
AcDbEntity
  8
10000_FRONT
370
    50
390
0
  6
CONTINUOUS
 62
     7
100
AcDbLine
 10
170.021362
 20
195.218597
 30
0.0
 11
170.155729
 21
195.218597
 31
0.0
  0
LINE
  5
1095
100
AcDbEntity
  8
10000_FRONT
370
    50
390
0
  6
CONTINUOUS
 62
     7
100
AcDbLine
 10
170.155729
 20
195.218597
 30
0.0
 11
169.960495
 21
195.0233
 31
0.0
  0
LINE
  5
1096
100
AcDbEntity
  8
10000_FRONT
370
    50
390
0
  6
CONTINUOUS
 62
     7
100
AcDbLine
 10
169.960495
 20
195.0233
 30
0.0
 11
169.797417
 21
194.778648
 31
0.0
  0
LINE
  5
1097
100
AcDbEntity
  8
10000_FRONT
370
    50
390
0
  6
CONTINUOUS
 62
     7
100
AcDbLine
 10
169.797417
 20
194.778648
 30
0.0
 11
169.635489
 21
194.451572
 31
0.0
  0
LINE
  5
1098
100
AcDbEntity
  8
10000_FRONT
370
    50
390
0
  6
CONTINUOUS
 62
     7
100
AcDbLine
 10
169.635489
 20
194.451572
 30
0.0
 11
169.552799
 21
194.044964
 31
0.0
  0
LINE
  5
1099
100
AcDbEntity
  8
10000_FRONT
370
    50
390
0
  6
CONTINUOUS
 62
     7
100
AcDbLine
 10
169.552799
 20
194.044964
 30
0.0
 11
169.552799
 21
193.719986
 31
0.0
  0
LINE
  5
109A
100
AcDbEntity
  8
10000_FRONT
370
    50
390
0
  6
CONTINUOUS
 62
     7
100
AcDbLine
 10
169.552799
 20
193.719986
 30
0.0
 11
169.635489
 21
193.313373
 31
0.0
  0
LINE
  5
109B
100
AcDbEntity
  8
10000_FRONT
370
    50
390
0
  6
CONTINUOUS
 62
     7
100
AcDbLine
 10
169.635489
 20
193.313373
 30
0.0
 11
169.797417
 21
192.98735
 31
0.0
  0
LINE
  5
109C
100
AcDbEntity
  8
10000_FRONT
370
    50
390
0
  6
CONTINUOUS
 62
     7
100
AcDbLine
 10
169.797417
 20
192.98735
 30
0.0
 11
169.960495
 21
192.742698
 31
0.0
  0
LINE
  5
109D
100
AcDbEntity
  8
10000_FRONT
370
    50
390
0
  6
CONTINUOUS
 62
     7
100
AcDbLine
 10
169.960495
 20
192.742698
 30
0.0
 11
170.155729
 21
192.547397
 31
0.0
  0
LINE
  5
109E
100
AcDbEntity
  8
10000_FRONT
370
    50
390
0
  6
CONTINUOUS
 62
     7
100
AcDbLine
 10
170.155729
 20
192.547397
 30
0.0
 11
170.021362
 21
192.547397
 31
0.0
  0
LINE
  5
109F
100
AcDbEntity
  8
10000_FRONT
370
    50
390
0
  6
CONTINUOUS
 62
     7
100
AcDbLine
 10
170.021362
 20
192.547397
 30
0.0
 11
169.850245
 21
192.7196
 31
0.0
  0
LINE
  5
10A0
100
AcDbEntity
  8
10000_FRONT
370
    50
390
0
  6
CONTINUOUS
 62
     7
100
AcDbLine
 10
169.850245
 20
192.7196
 30
0.0
 11
169.682573
 21
192.968975
 31
0.0
  0
LINE
  5
10A1
100
AcDbEntity
  8
10000_FRONT
370
    50
390
0
  6
CONTINUOUS
 62
     7
100
AcDbLine
 10
169.682573
 20
192.968975
 30
0.0
 11
169.51651
 21
193.299724
 31
0.0
  0
LINE
  5
10A2
100
AcDbEntity
  8
10000_FRONT
370
    50
390
0
  6
CONTINUOUS
 62
     7
100
AcDbLine
 10
169.826845
 20
193.857799
 30
0.0
 11
169.826845
 21
193.975399
 31
0.0
  0
LINE
  5
10A3
100
AcDbEntity
  8
10000_FRONT
370
    50
390
0
  6
CONTINUOUS
 62
     7
100
AcDbLine
 10
169.826845
 20
193.975399
 30
0.0
 11
170.4849
 21
193.975399
 31
0.0
  0
LINE
  5
10A4
100
AcDbEntity
  8
10000_FRONT
370
    50
390
0
  6
CONTINUOUS
 62
     7
100
AcDbLine
 10
170.4849
 20
193.975399
 30
0.0
 11
170.4849
 21
194.6306
 31
0.0
  0
LINE
  5
10A5
100
AcDbEntity
  8
10000_FRONT
370
    50
390
0
  6
CONTINUOUS
 62
     7
100
AcDbLine
 10
170.4849
 20
194.6306
 30
0.0
 11
170.602501
 21
194.6306
 31
0.0
  0
LINE
  5
10A6
100
AcDbEntity
  8
10000_FRONT
370
    50
390
0
  6
CONTINUOUS
 62
     7
100
AcDbLine
 10
170.602501
 20
194.6306
 30
0.0
 11
170.602501
 21
193.975399
 31
0.0
  0
LINE
  5
10A7
100
AcDbEntity
  8
10000_FRONT
370
    50
390
0
  6
CONTINUOUS
 62
     7
100
AcDbLine
 10
170.602501
 20
193.975399
 30
0.0
 11
171.260555
 21
193.975399
 31
0.0
  0
LINE
  5
10A8
100
AcDbEntity
  8
10000_FRONT
370
    50
390
0
  6
CONTINUOUS
 62
     7
100
AcDbLine
 10
171.260555
 20
193.975399
 30
0.0
 11
171.260555
 21
193.857799
 31
0.0
  0
LINE
  5
10A9
100
AcDbEntity
  8
10000_FRONT
370
    50
390
0
  6
CONTINUOUS
 62
     7
100
AcDbLine
 10
171.260555
 20
193.857799
 30
0.0
 11
170.602501
 21
193.857799
 31
0.0
  0
LINE
  5
10AA
100
AcDbEntity
  8
10000_FRONT
370
    50
390
0
  6
CONTINUOUS
 62
     7
100
AcDbLine
 10
170.602501
 20
193.857799
 30
0.0
 11
170.602501
 21
193.202598
 31
0.0
  0
LINE
  5
10AB
100
AcDbEntity
  8
10000_FRONT
370
    50
390
0
  6
CONTINUOUS
 62
     7
100
AcDbLine
 10
170.602501
 20
193.202598
 30
0.0
 11
170.4849
 21
193.202598
 31
0.0
  0
LINE
  5
10AC
100
AcDbEntity
  8
10000_FRONT
370
    50
390
0
  6
CONTINUOUS
 62
     7
100
AcDbLine
 10
170.4849
 20
193.202598
 30
0.0
 11
170.4849
 21
193.857799
 31
0.0
  0
LINE
  5
10AD
100
AcDbEntity
  8
10000_FRONT
370
    50
390
0
  6
CONTINUOUS
 62
     7
100
AcDbLine
 10
170.4849
 20
193.857799
 30
0.0
 11
169.826845
 21
193.857799
 31
0.0
  0
LINE
  5
10AE
100
AcDbEntity
  8
10000_FRONT
370
    50
390
0
  6
CONTINUOUS
 62
     7
100
AcDbLine
 10
162.318117
 20
193.857799
 30
0.0
 11
162.318117
 21
193.975399
 31
0.0
  0
LINE
  5
10AF
100
AcDbEntity
  8
10000_FRONT
370
    50
390
0
  6
CONTINUOUS
 62
     7
100
AcDbLine
 10
162.318117
 20
193.975399
 30
0.0
 11
163.8375
 21
193.975399
 31
0.0
  0
LINE
  5
10B0
100
AcDbEntity
  8
10000_FRONT
370
    50
390
0
  6
CONTINUOUS
 62
     7
100
AcDbLine
 10
163.8375
 20
193.975399
 30
0.0
 11
163.8375
 21
193.857799
 31
0.0
  0
LINE
  5
10B1
100
AcDbEntity
  8
10000_FRONT
370
    50
390
0
  6
CONTINUOUS
 62
     7
100
AcDbLine
 10
163.8375
 20
193.857799
 30
0.0
 11
162.318117
 21
193.857799
 31
0.0
  0
LINE
  5
10B2
100
AcDbEntity
  8
10000_FRONT
370
    50
390
0
  6
CONTINUOUS
 62
     7
100
AcDbLine
 10
156.100805
 20
192.742698
 30
0.0
 11
156.263883
 21
192.98735
 31
0.0
  0
LINE
  5
10B3
100
AcDbEntity
  8
10000_FRONT
370
    50
390
0
  6
CONTINUOUS
 62
     7
100
AcDbLine
 10
156.263883
 20
192.98735
 30
0.0
 11
156.425813
 21
193.313373
 31
0.0
  0
LINE
  5
10B4
100
AcDbEntity
  8
10000_FRONT
370
    50
390
0
  6
CONTINUOUS
 62
     7
100
AcDbLine
 10
156.425813
 20
193.313373
 30
0.0
 11
156.5085
 21
193.719986
 31
0.0
  0
LINE
  5
10B5
100
AcDbEntity
  8
10000_FRONT
370
    50
390
0
  6
CONTINUOUS
 62
     7
100
AcDbLine
 10
156.5085
 20
193.719986
 30
0.0
 11
156.5085
 21
194.044964
 31
0.0
  0
LINE
  5
10B6
100
AcDbEntity
  8
10000_FRONT
370
    50
390
0
  6
CONTINUOUS
 62
     7
100
AcDbLine
 10
156.5085
 20
194.044964
 30
0.0
 11
156.425813
 21
194.451572
 31
0.0
  0
LINE
  5
10B7
100
AcDbEntity
  8
10000_FRONT
370
    50
390
0
  6
CONTINUOUS
 62
     7
100
AcDbLine
 10
156.425813
 20
194.451572
 30
0.0
 11
156.263883
 21
194.778648
 31
0.0
  0
LINE
  5
10B8
100
AcDbEntity
  8
10000_FRONT
370
    50
390
0
  6
CONTINUOUS
 62
     7
100
AcDbLine
 10
156.263883
 20
194.778648
 30
0.0
 11
156.100805
 21
195.0233
 31
0.0
  0
LINE
  5
10B9
100
AcDbEntity
  8
10000_FRONT
370
    50
390
0
  6
CONTINUOUS
 62
     7
100
AcDbLine
 10
156.100805
 20
195.0233
 30
0.0
 11
155.906719
 21
195.218597
 31
0.0
  0
LINE
  5
10BA
100
AcDbEntity
  8
10000_FRONT
370
    50
390
0
  6
CONTINUOUS
 62
     7
100
AcDbLine
 10
155.906719
 20
195.218597
 30
0.0
 11
156.039938
 21
195.218597
 31
0.0
  0
LINE
  5
10BB
100
AcDbEntity
  8
10000_FRONT
370
    50
390
0
  6
CONTINUOUS
 62
     7
100
AcDbLine
 10
156.039938
 20
195.218597
 30
0.0
 11
156.212203
 21
195.046398
 31
0.0
  0
LINE
  5
10BC
100
AcDbEntity
  8
10000_FRONT
370
    50
390
0
  6
CONTINUOUS
 62
     7
100
AcDbLine
 10
156.212203
 20
195.046398
 30
0.0
 11
156.378726
 21
194.797024
 31
0.0
  0
LINE
  5
10BD
100
AcDbEntity
  8
10000_FRONT
370
    50
390
0
  6
CONTINUOUS
 62
     7
100
AcDbLine
 10
156.378726
 20
194.797024
 30
0.0
 11
156.54571
 21
194.465225
 31
0.0
  0
LINE
  5
10BE
100
AcDbEntity
  8
10000_FRONT
370
    50
390
0
  6
CONTINUOUS
 62
     7
100
AcDbLine
 10
156.54571
 20
194.465225
 30
0.0
 11
156.6261
 21
194.049423
 31
0.0
  0
LINE
  5
10BF
100
AcDbEntity
  8
10000_FRONT
370
    50
390
0
  6
CONTINUOUS
 62
     7
100
AcDbLine
 10
156.6261
 20
194.049423
 30
0.0
 11
156.6261
 21
193.715263
 31
0.0
  0
LINE
  5
10C0
100
AcDbEntity
  8
10000_FRONT
370
    50
390
0
  6
CONTINUOUS
 62
     7
100
AcDbLine
 10
156.6261
 20
193.715263
 30
0.0
 11
156.54571
 21
193.299724
 31
0.0
  0
LINE
  5
10C1
100
AcDbEntity
  8
10000_FRONT
370
    50
390
0
  6
CONTINUOUS
 62
     7
100
AcDbLine
 10
156.54571
 20
193.299724
 30
0.0
 11
156.378726
 21
192.968975
 31
0.0
  0
LINE
  5
10C2
100
AcDbEntity
  8
10000_FRONT
370
    50
390
0
  6
CONTINUOUS
 62
     7
100
AcDbLine
 10
156.378726
 20
192.968975
 30
0.0
 11
156.212203
 21
192.7196
 31
0.0
  0
LINE
  5
10C3
100
AcDbEntity
  8
10000_FRONT
370
    50
390
0
  6
CONTINUOUS
 62
     7
100
AcDbLine
 10
156.212203
 20
192.7196
 30
0.0
 11
156.039938
 21
192.547397
 31
0.0
  0
LINE
  5
10C4
100
AcDbEntity
  8
10000_FRONT
370
    50
390
0
  6
CONTINUOUS
 62
     7
100
AcDbLine
 10
156.039938
 20
192.547397
 30
0.0
 11
155.906719
 21
192.547397
 31
0.0
  0
LINE
  5
10C5
100
AcDbEntity
  8
10000_FRONT
370
    50
390
0
  6
CONTINUOUS
 62
     7
100
AcDbLine
 10
155.906719
 20
192.547397
 30
0.0
 11
156.100805
 21
192.742698
 31
0.0
  0
LINE
  5
10C6
100
AcDbEntity
  8
10000_FRONT
370
    50
390
0
  6
CONTINUOUS
 62
     7
100
AcDbLine
 10
163.600804
 20
192.742698
 30
0.0
 11
163.763883
 21
192.98735
 31
0.0
  0
LINE
  5
10C7
100
AcDbEntity
  8
10000_FRONT
370
    50
390
0
  6
CONTINUOUS
 62
     7
100
AcDbLine
 10
163.763883
 20
192.98735
 30
0.0
 11
163.925813
 21
193.313373
 31
0.0
  0
LINE
  5
10C8
100
AcDbEntity
  8
10000_FRONT
370
    50
390
0
  6
CONTINUOUS
 62
     7
100
AcDbLine
 10
163.925813
 20
193.313373
 30
0.0
 11
164.0085
 21
193.719986
 31
0.0
  0
LINE
  5
10C9
100
AcDbEntity
  8
10000_FRONT
370
    50
390
0
  6
CONTINUOUS
 62
     7
100
AcDbLine
 10
164.0085
 20
193.719986
 30
0.0
 11
164.0085
 21
194.044964
 31
0.0
  0
LINE
  5
10CA
100
AcDbEntity
  8
10000_FRONT
370
    50
390
0
  6
CONTINUOUS
 62
     7
100
AcDbLine
 10
164.0085
 20
194.044964
 30
0.0
 11
163.925813
 21
194.451572
 31
0.0
  0
LINE
  5
10CB
100
AcDbEntity
  8
10000_FRONT
370
    50
390
0
  6
CONTINUOUS
 62
     7
100
AcDbLine
 10
163.925813
 20
194.451572
 30
0.0
 11
163.763883
 21
194.778648
 31
0.0
  0
LINE
  5
10CC
100
AcDbEntity
  8
10000_FRONT
370
    50
390
0
  6
CONTINUOUS
 62
     7
100
AcDbLine
 10
163.763883
 20
194.778648
 30
0.0
 11
163.600804
 21
195.0233
 31
0.0
  0
LINE
  5
10CD
100
AcDbEntity
  8
10000_FRONT
370
    50
390
0
  6
CONTINUOUS
 62
     7
100
AcDbLine
 10
163.600804
 20
195.0233
 30
0.0
 11
163.406718
 21
195.218597
 31
0.0
  0
LINE
  5
10CE
100
AcDbEntity
  8
10000_FRONT
370
    50
390
0
  6
CONTINUOUS
 62
     7
100
AcDbLine
 10
163.406718
 20
195.218597
 30
0.0
 11
163.539938
 21
195.218597
 31
0.0
  0
LINE
  5
10CF
100
AcDbEntity
  8
10000_FRONT
370
    50
390
0
  6
CONTINUOUS
 62
     7
100
AcDbLine
 10
163.539938
 20
195.218597
 30
0.0
 11
163.712203
 21
195.046398
 31
0.0
  0
LINE
  5
10D0
100
AcDbEntity
  8
10000_FRONT
370
    50
390
0
  6
CONTINUOUS
 62
     7
100
AcDbLine
 10
163.712203
 20
195.046398
 30
0.0
 11
163.878727
 21
194.797024
 31
0.0
  0
LINE
  5
10D1
100
AcDbEntity
  8
10000_FRONT
370
    50
390
0
  6
CONTINUOUS
 62
     7
100
AcDbLine
 10
163.878727
 20
194.797024
 30
0.0
 11
164.04571
 21
194.465225
 31
0.0
  0
LINE
  5
10D2
100
AcDbEntity
  8
10000_FRONT
370
    50
390
0
  6
CONTINUOUS
 62
     7
100
AcDbLine
 10
164.04571
 20
194.465225
 30
0.0
 11
164.1261
 21
194.049423
 31
0.0
  0
LINE
  5
10D3
100
AcDbEntity
  8
10000_FRONT
370
    50
390
0
  6
CONTINUOUS
 62
     7
100
AcDbLine
 10
164.1261
 20
194.049423
 30
0.0
 11
164.1261
 21
193.715263
 31
0.0
  0
LINE
  5
10D4
100
AcDbEntity
  8
10000_FRONT
370
    50
390
0
  6
CONTINUOUS
 62
     7
100
AcDbLine
 10
164.1261
 20
193.715263
 30
0.0
 11
164.04571
 21
193.299724
 31
0.0
  0
LINE
  5
10D5
100
AcDbEntity
  8
10000_FRONT
370
    50
390
0
  6
CONTINUOUS
 62
     7
100
AcDbLine
 10
164.04571
 20
193.299724
 30
0.0
 11
163.878727
 21
192.968975
 31
0.0
  0
LINE
  5
10D6
100
AcDbEntity
  8
10000_FRONT
370
    50
390
0
  6
CONTINUOUS
 62
     7
100
AcDbLine
 10
163.878727
 20
192.968975
 30
0.0
 11
163.712203
 21
192.7196
 31
0.0
  0
LINE
  5
10D7
100
AcDbEntity
  8
10000_FRONT
370
    50
390
0
  6
CONTINUOUS
 62
     7
100
AcDbLine
 10
163.712203
 20
192.7196
 30
0.0
 11
163.539938
 21
192.547397
 31
0.0
  0
LINE
  5
10D8
100
AcDbEntity
  8
10000_FRONT
370
    50
390
0
  6
CONTINUOUS
 62
     7
100
AcDbLine
 10
163.539938
 20
192.547397
 30
0.0
 11
163.406718
 21
192.547397
 31
0.0
  0
LINE
  5
10D9
100
AcDbEntity
  8
10000_FRONT
370
    50
390
0
  6
CONTINUOUS
 62
     7
100
AcDbLine
 10
163.406718
 20
192.547397
 30
0.0
 11
163.600804
 21
192.742698
 31
0.0
  0
LINE
  5
10DA
100
AcDbEntity
  8
10000_FRONT
370
    50
390
0
  6
CONTINUOUS
 62
     7
100
AcDbLine
 10
171.100805
 20
192.742698
 30
0.0
 11
171.263884
 21
192.98735
 31
0.0
  0
LINE
  5
10DB
100
AcDbEntity
  8
10000_FRONT
370
    50
390
0
  6
CONTINUOUS
 62
     7
100
AcDbLine
 10
171.263884
 20
192.98735
 30
0.0
 11
171.425814
 21
193.313373
 31
0.0
  0
LINE
  5
10DC
100
AcDbEntity
  8
10000_FRONT
370
    50
390
0
  6
CONTINUOUS
 62
     7
100
AcDbLine
 10
171.425814
 20
193.313373
 30
0.0
 11
171.508499
 21
193.719986
 31
0.0
  0
LINE
  5
10DD
100
AcDbEntity
  8
10000_FRONT
370
    50
390
0
  6
CONTINUOUS
 62
     7
100
AcDbLine
 10
171.508499
 20
193.719986
 30
0.0
 11
171.508499
 21
194.044964
 31
0.0
  0
LINE
  5
10DE
100
AcDbEntity
  8
10000_FRONT
370
    50
390
0
  6
CONTINUOUS
 62
     7
100
AcDbLine
 10
171.508499
 20
194.044964
 30
0.0
 11
171.425814
 21
194.451572
 31
0.0
  0
LINE
  5
10DF
100
AcDbEntity
  8
10000_FRONT
370
    50
390
0
  6
CONTINUOUS
 62
     7
100
AcDbLine
 10
171.425814
 20
194.451572
 30
0.0
 11
171.263884
 21
194.778648
 31
0.0
  0
LINE
  5
10E0
100
AcDbEntity
  8
10000_FRONT
370
    50
390
0
  6
CONTINUOUS
 62
     7
100
AcDbLine
 10
171.263884
 20
194.778648
 30
0.0
 11
171.100805
 21
195.0233
 31
0.0
  0
LINE
  5
10E1
100
AcDbEntity
  8
10000_FRONT
370
    50
390
0
  6
CONTINUOUS
 62
     7
100
AcDbLine
 10
171.100805
 20
195.0233
 30
0.0
 11
170.906719
 21
195.218597
 31
0.0
  0
LINE
  5
10E2
100
AcDbEntity
  8
10000_FRONT
370
    50
390
0
  6
CONTINUOUS
 62
     7
100
AcDbLine
 10
170.906719
 20
195.218597
 30
0.0
 11
171.039938
 21
195.218597
 31
0.0
  0
LINE
  5
10E3
100
AcDbEntity
  8
10000_FRONT
370
    50
390
0
  6
CONTINUOUS
 62
     7
100
AcDbLine
 10
171.039938
 20
195.218597
 30
0.0
 11
171.212204
 21
195.046398
 31
0.0
  0
LINE
  5
10E4
100
AcDbEntity
  8
10000_FRONT
370
    50
390
0
  6
CONTINUOUS
 62
     7
100
AcDbLine
 10
171.212204
 20
195.046398
 30
0.0
 11
171.378727
 21
194.797024
 31
0.0
  0
LINE
  5
10E5
100
AcDbEntity
  8
10000_FRONT
370
    50
390
0
  6
CONTINUOUS
 62
     7
100
AcDbLine
 10
171.378727
 20
194.797024
 30
0.0
 11
171.54571
 21
194.465225
 31
0.0
  0
LINE
  5
10E6
100
AcDbEntity
  8
10000_FRONT
370
    50
390
0
  6
CONTINUOUS
 62
     7
100
AcDbLine
 10
171.54571
 20
194.465225
 30
0.0
 11
171.626101
 21
194.049423
 31
0.0
  0
LINE
  5
10E7
100
AcDbEntity
  8
10000_FRONT
370
    50
390
0
  6
CONTINUOUS
 62
     7
100
AcDbLine
 10
171.626101
 20
194.049423
 30
0.0
 11
171.626101
 21
193.715263
 31
0.0
  0
LINE
  5
10E8
100
AcDbEntity
  8
10000_FRONT
370
    50
390
0
  6
CONTINUOUS
 62
     7
100
AcDbLine
 10
171.626101
 20
193.715263
 30
0.0
 11
171.54571
 21
193.299724
 31
0.0
  0
LINE
  5
10E9
100
AcDbEntity
  8
10000_FRONT
370
    50
390
0
  6
CONTINUOUS
 62
     7
100
AcDbLine
 10
171.54571
 20
193.299724
 30
0.0
 11
171.378727
 21
192.968975
 31
0.0
  0
LINE
  5
10EA
100
AcDbEntity
  8
10000_FRONT
370
    50
390
0
  6
CONTINUOUS
 62
     7
100
AcDbLine
 10
171.378727
 20
192.968975
 30
0.0
 11
171.212204
 21
192.7196
 31
0.0
  0
LINE
  5
10EB
100
AcDbEntity
  8
10000_FRONT
370
    50
390
0
  6
CONTINUOUS
 62
     7
100
AcDbLine
 10
171.212204
 20
192.7196
 30
0.0
 11
171.039938
 21
192.547397
 31
0.0
  0
LINE
  5
10EC
100
AcDbEntity
  8
10000_FRONT
370
    50
390
0
  6
CONTINUOUS
 62
     7
100
AcDbLine
 10
171.039938
 20
192.547397
 30
0.0
 11
170.906719
 21
192.547397
 31
0.0
  0
LINE
  5
10ED
100
AcDbEntity
  8
10000_FRONT
370
    50
390
0
  6
CONTINUOUS
 62
     7
100
AcDbLine
 10
170.906719
 20
192.547397
 30
0.0
 11
171.100805
 21
192.742698
 31
0.0
  0
LINE
  5
10EE
100
AcDbEntity
  8
10000_FRONT
370
    50
390
0
  6
CONTINUOUS
 62
     7
100
AcDbLine
 10
168.020414
 20
193.288963
 30
0.0
 11
167.923944
 21
193.483211
 31
0.0
  0
LINE
  5
10EF
100
AcDbEntity
  8
10000_FRONT
370
    50
390
0
  6
CONTINUOUS
 62
     7
100
AcDbLine
 10
167.923944
 20
193.483211
 30
0.0
 11
168.047977
 21
193.483211
 31
0.0
  0
LINE
  5
10F0
100
AcDbEntity
  8
10000_FRONT
370
    50
390
0
  6
CONTINUOUS
 62
     7
100
AcDbLine
 10
168.047977
 20
193.483211
 30
0.0
 11
168.10425
 21
193.368236
 31
0.0
  0
LINE
  5
10F1
100
AcDbEntity
  8
10000_FRONT
370
    50
390
0
  6
CONTINUOUS
 62
     7
100
AcDbLine
 10
168.10425
 20
193.368236
 30
0.0
 11
168.370687
 21
193.236198
 31
0.0
  0
LINE
  5
10F2
100
AcDbEntity
  8
10000_FRONT
370
    50
390
0
  6
CONTINUOUS
 62
     7
100
AcDbLine
 10
168.370687
 20
193.236198
 30
0.0
 11
168.610712
 21
193.236198
 31
0.0
  0
LINE
  5
10F3
100
AcDbEntity
  8
10000_FRONT
370
    50
390
0
  6
CONTINUOUS
 62
     7
100
AcDbLine
 10
168.610712
 20
193.236198
 30
0.0
 11
168.768047
 21
193.291324
 31
0.0
  0
LINE
  5
10F4
100
AcDbEntity
  8
10000_FRONT
370
    50
390
0
  6
CONTINUOUS
 62
     7
100
AcDbLine
 10
168.768047
 20
193.291324
 30
0.0
 11
168.878296
 21
193.363773
 31
0.0
  0
LINE
  5
10F5
100
AcDbEntity
  8
10000_FRONT
370
    50
390
0
  6
CONTINUOUS
 62
     7
100
AcDbLine
 10
168.878296
 20
193.363773
 30
0.0
 11
168.951797
 21
193.474025
 31
0.0
  0
LINE
  5
10F6
100
AcDbEntity
  8
10000_FRONT
370
    50
390
0
  6
CONTINUOUS
 62
     7
100
AcDbLine
 10
168.951797
 20
193.474025
 30
0.0
 11
169.005774
 21
193.632835
 31
0.0
  0
LINE
  5
10F7
100
AcDbEntity
  8
10000_FRONT
370
    50
390
0
  6
CONTINUOUS
 62
     7
100
AcDbLine
 10
169.005774
 20
193.632835
 30
0.0
 11
169.005774
 21
193.709751
 31
0.0
  0
LINE
  5
10F8
100
AcDbEntity
  8
10000_FRONT
370
    50
390
0
  6
CONTINUOUS
 62
     7
100
AcDbLine
 10
169.005774
 20
193.709751
 30
0.0
 11
168.951797
 21
193.867248
 31
0.0
  0
LINE
  5
10F9
100
AcDbEntity
  8
10000_FRONT
370
    50
390
0
  6
CONTINUOUS
 62
     7
100
AcDbLine
 10
168.951797
 20
193.867248
 30
0.0
 11
168.878296
 21
193.978813
 31
0.0
  0
LINE
  5
10FA
100
AcDbEntity
  8
10000_FRONT
370
    50
390
0
  6
CONTINUOUS
 62
     7
100
AcDbLine
 10
168.878296
 20
193.978813
 30
0.0
 11
168.768047
 21
194.051262
 31
0.0
  0
LINE
  5
10FB
100
AcDbEntity
  8
10000_FRONT
370
    50
390
0
  6
CONTINUOUS
 62
     7
100
AcDbLine
 10
168.768047
 20
194.051262
 30
0.0
 11
168.610712
 21
194.105076
 31
0.0
  0
LINE
  5
10FC
100
AcDbEntity
  8
10000_FRONT
370
    50
390
0
  6
CONTINUOUS
 62
     7
100
AcDbLine
 10
168.610712
 20
194.105076
 30
0.0
 11
168.328196
 21
194.105076
 31
0.0
  0
LINE
  5
10FD
100
AcDbEntity
  8
10000_FRONT
370
    50
390
0
  6
CONTINUOUS
 62
     7
100
AcDbLine
 10
168.328196
 20
194.105076
 30
0.0
 11
168.838102
 21
194.764999
 31
0.0
  0
LINE
  5
10FE
100
AcDbEntity
  8
10000_FRONT
370
    50
390
0
  6
CONTINUOUS
 62
     7
100
AcDbLine
 10
168.838102
 20
194.764999
 30
0.0
 11
168.099657
 21
194.764999
 31
0.0
  0
LINE
  5
10FF
100
AcDbEntity
  8
10000_FRONT
370
    50
390
0
  6
CONTINUOUS
 62
     7
100
AcDbLine
 10
168.099657
 20
194.764999
 30
0.0
 11
168.099657
 21
194.882599
 31
0.0
  0
LINE
  5
1100
100
AcDbEntity
  8
10000_FRONT
370
    50
390
0
  6
CONTINUOUS
 62
     7
100
AcDbLine
 10
168.099657
 20
194.882599
 30
0.0
 11
169.068937
 21
194.882599
 31
0.0
  0
LINE
  5
1101
100
AcDbEntity
  8
10000_FRONT
370
    50
390
0
  6
CONTINUOUS
 62
     7
100
AcDbLine
 10
169.068937
 20
194.882599
 30
0.0
 11
168.552141
 21
194.2253
 31
0.0
  0
LINE
  5
1102
100
AcDbEntity
  8
10000_FRONT
370
    50
390
0
  6
CONTINUOUS
 62
     7
100
AcDbLine
 10
168.552141
 20
194.2253
 30
0.0
 11
168.615305
 21
194.2253
 31
0.0
  0
LINE
  5
1103
100
AcDbEntity
  8
10000_FRONT
370
    50
390
0
  6
CONTINUOUS
 62
     7
100
AcDbLine
 10
168.615305
 20
194.2253
 30
0.0
 11
168.86911
 21
194.14051
 31
0.0
  0
LINE
  5
1104
100
AcDbEntity
  8
10000_FRONT
370
    50
390
0
  6
CONTINUOUS
 62
     7
100
AcDbLine
 10
168.86911
 20
194.14051
 30
0.0
 11
169.041374
 21
193.968574
 31
0.0
  0
LINE
  5
1105
100
AcDbEntity
  8
10000_FRONT
370
    50
390
0
  6
CONTINUOUS
 62
     7
100
AcDbLine
 10
169.041374
 20
193.968574
 30
0.0
 11
169.125212
 21
193.715
 31
0.0
  0
LINE
  5
1106
100
AcDbEntity
  8
10000_FRONT
370
    50
390
0
  6
CONTINUOUS
 62
     7
100
AcDbLine
 10
169.125212
 20
193.715
 30
0.0
 11
169.125212
 21
193.627849
 31
0.0
  0
LINE
  5
1107
100
AcDbEntity
  8
10000_FRONT
370
    50
390
0
  6
CONTINUOUS
 62
     7
100
AcDbLine
 10
169.125212
 20
193.627849
 30
0.0
 11
169.041374
 21
193.374275
 31
0.0
  0
LINE
  5
1108
100
AcDbEntity
  8
10000_FRONT
370
    50
390
0
  6
CONTINUOUS
 62
     7
100
AcDbLine
 10
169.041374
 20
193.374275
 30
0.0
 11
168.86911
 21
193.203388
 31
0.0
  0
LINE
  5
1109
100
AcDbEntity
  8
10000_FRONT
370
    50
390
0
  6
CONTINUOUS
 62
     7
100
AcDbLine
 10
168.86911
 20
193.203388
 30
0.0
 11
168.615305
 21
193.118599
 31
0.0
  0
LINE
  5
110A
100
AcDbEntity
  8
10000_FRONT
370
    50
390
0
  6
CONTINUOUS
 62
     7
100
AcDbLine
 10
168.615305
 20
193.118599
 30
0.0
 11
168.363796
 21
193.118599
 31
0.0
  0
LINE
  5
110B
100
AcDbEntity
  8
10000_FRONT
370
    50
390
0
  6
CONTINUOUS
 62
     7
100
AcDbLine
 10
168.363796
 20
193.118599
 30
0.0
 11
168.109991
 21
193.202335
 31
0.0
  0
LINE
  5
110C
100
AcDbEntity
  8
10000_FRONT
370
    50
390
0
  6
CONTINUOUS
 62
     7
100
AcDbLine
 10
168.109991
 20
193.202335
 30
0.0
 11
168.020414
 21
193.288963
 31
0.0
  0
LINE
  5
110D
100
AcDbEntity
  8
10000_FRONT
370
    50
390
0
  6
CONTINUOUS
 62
     7
100
AcDbLine
 10
162.01651
 20
193.299724
 30
0.0
 11
161.9352
 21
193.715263
 31
0.0
  0
LINE
  5
110E
100
AcDbEntity
  8
10000_FRONT
370
    50
390
0
  6
CONTINUOUS
 62
     7
100
AcDbLine
 10
161.9352
 20
193.715263
 30
0.0
 11
161.9352
 21
194.049423
 31
0.0
  0
LINE
  5
110F
100
AcDbEntity
  8
10000_FRONT
370
    50
390
0
  6
CONTINUOUS
 62
     7
100
AcDbLine
 10
161.9352
 20
194.049423
 30
0.0
 11
162.01651
 21
194.465225
 31
0.0
  0
LINE
  5
1110
100
AcDbEntity
  8
10000_FRONT
370
    50
390
0
  6
CONTINUOUS
 62
     7
100
AcDbLine
 10
162.01651
 20
194.465225
 30
0.0
 11
162.182573
 21
194.797024
 31
0.0
  0
LINE
  5
1111
100
AcDbEntity
  8
10000_FRONT
370
    50
390
0
  6
CONTINUOUS
 62
     7
100
AcDbLine
 10
162.182573
 20
194.797024
 30
0.0
 11
162.350245
 21
195.046398
 31
0.0
  0
LINE
  5
1112
100
AcDbEntity
  8
10000_FRONT
370
    50
390
0
  6
CONTINUOUS
 62
     7
100
AcDbLine
 10
162.350245
 20
195.046398
 30
0.0
 11
162.521363
 21
195.218597
 31
0.0
  0
LINE
  5
1113
100
AcDbEntity
  8
10000_FRONT
370
    50
390
0
  6
CONTINUOUS
 62
     7
100
AcDbLine
 10
162.521363
 20
195.218597
 30
0.0
 11
162.65573
 21
195.218597
 31
0.0
  0
LINE
  5
1114
100
AcDbEntity
  8
10000_FRONT
370
    50
390
0
  6
CONTINUOUS
 62
     7
100
AcDbLine
 10
162.65573
 20
195.218597
 30
0.0
 11
162.460495
 21
195.0233
 31
0.0
  0
LINE
  5
1115
100
AcDbEntity
  8
10000_FRONT
370
    50
390
0
  6
CONTINUOUS
 62
     7
100
AcDbLine
 10
162.460495
 20
195.0233
 30
0.0
 11
162.297417
 21
194.778648
 31
0.0
  0
LINE
  5
1116
100
AcDbEntity
  8
10000_FRONT
370
    50
390
0
  6
CONTINUOUS
 62
     7
100
AcDbLine
 10
162.297417
 20
194.778648
 30
0.0
 11
162.135488
 21
194.451572
 31
0.0
  0
LINE
  5
1117
100
AcDbEntity
  8
10000_FRONT
370
    50
390
0
  6
CONTINUOUS
 62
     7
100
AcDbLine
 10
162.135488
 20
194.451572
 30
0.0
 11
162.0528
 21
194.044964
 31
0.0
  0
LINE
  5
1118
100
AcDbEntity
  8
10000_FRONT
370
    50
390
0
  6
CONTINUOUS
 62
     7
100
AcDbLine
 10
162.0528
 20
194.044964
 30
0.0
 11
162.0528
 21
193.719986
 31
0.0
  0
LINE
  5
1119
100
AcDbEntity
  8
10000_FRONT
370
    50
390
0
  6
CONTINUOUS
 62
     7
100
AcDbLine
 10
162.0528
 20
193.719986
 30
0.0
 11
162.135488
 21
193.313373
 31
0.0
  0
LINE
  5
111A
100
AcDbEntity
  8
10000_FRONT
370
    50
390
0
  6
CONTINUOUS
 62
     7
100
AcDbLine
 10
162.135488
 20
193.313373
 30
0.0
 11
162.297417
 21
192.98735
 31
0.0
  0
LINE
  5
111B
100
AcDbEntity
  8
10000_FRONT
370
    50
390
0
  6
CONTINUOUS
 62
     7
100
AcDbLine
 10
162.297417
 20
192.98735
 30
0.0
 11
162.460495
 21
192.742698
 31
0.0
  0
LINE
  5
111C
100
AcDbEntity
  8
10000_FRONT
370
    50
390
0
  6
CONTINUOUS
 62
     7
100
AcDbLine
 10
162.460495
 20
192.742698
 30
0.0
 11
162.65573
 21
192.547397
 31
0.0
  0
LINE
  5
111D
100
AcDbEntity
  8
10000_FRONT
370
    50
390
0
  6
CONTINUOUS
 62
     7
100
AcDbLine
 10
162.65573
 20
192.547397
 30
0.0
 11
162.521363
 21
192.547397
 31
0.0
  0
LINE
  5
111E
100
AcDbEntity
  8
10000_FRONT
370
    50
390
0
  6
CONTINUOUS
 62
     7
100
AcDbLine
 10
162.521363
 20
192.547397
 30
0.0
 11
162.350245
 21
192.7196
 31
0.0
  0
LINE
  5
111F
100
AcDbEntity
  8
10000_FRONT
370
    50
390
0
  6
CONTINUOUS
 62
     7
100
AcDbLine
 10
162.350245
 20
192.7196
 30
0.0
 11
162.182573
 21
192.968975
 31
0.0
  0
LINE
  5
1120
100
AcDbEntity
  8
10000_FRONT
370
    50
390
0
  6
CONTINUOUS
 62
     7
100
AcDbLine
 10
162.182573
 20
192.968975
 30
0.0
 11
162.01651
 21
193.299724
 31
0.0
  0
LINE
  5
1121
100
AcDbEntity
  8
10000_FRONT
370
    50
390
0
  6
CONTINUOUS
 62
     7
100
AcDbLine
 10
159.53032
 20
194.573639
 30
0.0
 11
159.887485
 21
193.6562
 31
0.0
  0
LINE
  5
1122
100
AcDbEntity
  8
10000_FRONT
370
    50
390
0
  6
CONTINUOUS
 62
     7
100
AcDbLine
 10
159.887485
 20
193.6562
 30
0.0
 11
159.173157
 21
193.6562
 31
0.0
  0
LINE
  5
1123
100
AcDbEntity
  8
10000_FRONT
370
    50
390
0
  6
CONTINUOUS
 62
     7
100
AcDbLine
 10
159.173157
 20
193.6562
 30
0.0
 11
159.53032
 21
194.573639
 31
0.0
  0
LINE
  5
1124
100
AcDbEntity
  8
10000_FRONT
370
    50
390
0
  6
CONTINUOUS
 62
     7
100
AcDbLine
 10
158.843555
 20
193.118599
 30
0.0
 11
159.517688
 21
194.882599
 31
0.0
  0
LINE
  5
1125
100
AcDbEntity
  8
10000_FRONT
370
    50
390
0
  6
CONTINUOUS
 62
     7
100
AcDbLine
 10
159.517688
 20
194.882599
 30
0.0
 11
159.542953
 21
194.882599
 31
0.0
  0
LINE
  5
1126
100
AcDbEntity
  8
10000_FRONT
370
    50
390
0
  6
CONTINUOUS
 62
     7
100
AcDbLine
 10
159.542953
 20
194.882599
 30
0.0
 11
160.217086
 21
193.118599
 31
0.0
  0
LINE
  5
1127
100
AcDbEntity
  8
10000_FRONT
370
    50
390
0
  6
CONTINUOUS
 62
     7
100
AcDbLine
 10
160.217086
 20
193.118599
 30
0.0
 11
160.095351
 21
193.118599
 31
0.0
  0
LINE
  5
1128
100
AcDbEntity
  8
10000_FRONT
370
    50
390
0
  6
CONTINUOUS
 62
     7
100
AcDbLine
 10
160.095351
 20
193.118599
 30
0.0
 11
159.932274
 21
193.538601
 31
0.0
  0
LINE
  5
1129
100
AcDbEntity
  8
10000_FRONT
370
    50
390
0
  6
CONTINUOUS
 62
     7
100
AcDbLine
 10
159.932274
 20
193.538601
 30
0.0
 11
159.128367
 21
193.538601
 31
0.0
  0
LINE
  5
112A
100
AcDbEntity
  8
10000_FRONT
370
    50
390
0
  6
CONTINUOUS
 62
     7
100
AcDbLine
 10
159.128367
 20
193.538601
 30
0.0
 11
158.966438
 21
193.118599
 31
0.0
  0
LINE
  5
112B
100
AcDbEntity
  8
10000_FRONT
370
    50
390
0
  6
CONTINUOUS
 62
     7
100
AcDbLine
 10
158.966438
 20
193.118599
 30
0.0
 11
158.843555
 21
193.118599
 31
0.0
  0
LINE
  5
112C
100
AcDbEntity
  8
10000_FRONT
370
    50
390
0
  6
CONTINUOUS
 62
     7
100
AcDbLine
 10
154.61651
 20
193.299724
 30
0.0
 11
154.5352
 21
193.715263
 31
0.0
  0
LINE
  5
112D
100
AcDbEntity
  8
10000_FRONT
370
    50
390
0
  6
CONTINUOUS
 62
     7
100
AcDbLine
 10
154.5352
 20
193.715263
 30
0.0
 11
154.5352
 21
194.049423
 31
0.0
  0
LINE
  5
112E
100
AcDbEntity
  8
10000_FRONT
370
    50
390
0
  6
CONTINUOUS
 62
     7
100
AcDbLine
 10
154.5352
 20
194.049423
 30
0.0
 11
154.61651
 21
194.465225
 31
0.0
  0
LINE
  5
112F
100
AcDbEntity
  8
10000_FRONT
370
    50
390
0
  6
CONTINUOUS
 62
     7
100
AcDbLine
 10
154.61651
 20
194.465225
 30
0.0
 11
154.782573
 21
194.797024
 31
0.0
  0
LINE
  5
1130
100
AcDbEntity
  8
10000_FRONT
370
    50
390
0
  6
CONTINUOUS
 62
     7
100
AcDbLine
 10
154.782573
 20
194.797024
 30
0.0
 11
154.950245
 21
195.046398
 31
0.0
  0
LINE
  5
1131
100
AcDbEntity
  8
10000_FRONT
370
    50
390
0
  6
CONTINUOUS
 62
     7
100
AcDbLine
 10
154.950245
 20
195.046398
 30
0.0
 11
155.121363
 21
195.218597
 31
0.0
  0
LINE
  5
1132
100
AcDbEntity
  8
10000_FRONT
370
    50
390
0
  6
CONTINUOUS
 62
     7
100
AcDbLine
 10
155.121363
 20
195.218597
 30
0.0
 11
155.25573
 21
195.218597
 31
0.0
  0
LINE
  5
1133
100
AcDbEntity
  8
10000_FRONT
370
    50
390
0
  6
CONTINUOUS
 62
     7
100
AcDbLine
 10
155.25573
 20
195.218597
 30
0.0
 11
155.060495
 21
195.0233
 31
0.0
  0
LINE
  5
1134
100
AcDbEntity
  8
10000_FRONT
370
    50
390
0
  6
CONTINUOUS
 62
     7
100
AcDbLine
 10
155.060495
 20
195.0233
 30
0.0
 11
154.897417
 21
194.778648
 31
0.0
  0
LINE
  5
1135
100
AcDbEntity
  8
10000_FRONT
370
    50
390
0
  6
CONTINUOUS
 62
     7
100
AcDbLine
 10
154.897417
 20
194.778648
 30
0.0
 11
154.735488
 21
194.451572
 31
0.0
  0
LINE
  5
1136
100
AcDbEntity
  8
10000_FRONT
370
    50
390
0
  6
CONTINUOUS
 62
     7
100
AcDbLine
 10
154.735488
 20
194.451572
 30
0.0
 11
154.6528
 21
194.044964
 31
0.0
  0
LINE
  5
1137
100
AcDbEntity
  8
10000_FRONT
370
    50
390
0
  6
CONTINUOUS
 62
     7
100
AcDbLine
 10
154.6528
 20
194.044964
 30
0.0
 11
154.6528
 21
193.719986
 31
0.0
  0
LINE
  5
1138
100
AcDbEntity
  8
10000_FRONT
370
    50
390
0
  6
CONTINUOUS
 62
     7
100
AcDbLine
 10
154.6528
 20
193.719986
 30
0.0
 11
154.735488
 21
193.313373
 31
0.0
  0
LINE
  5
1139
100
AcDbEntity
  8
10000_FRONT
370
    50
390
0
  6
CONTINUOUS
 62
     7
100
AcDbLine
 10
154.735488
 20
193.313373
 30
0.0
 11
154.897417
 21
192.98735
 31
0.0
  0
LINE
  5
113A
100
AcDbEntity
  8
10000_FRONT
370
    50
390
0
  6
CONTINUOUS
 62
     7
100
AcDbLine
 10
154.897417
 20
192.98735
 30
0.0
 11
155.060495
 21
192.742698
 31
0.0
  0
LINE
  5
113B
100
AcDbEntity
  8
10000_FRONT
370
    50
390
0
  6
CONTINUOUS
 62
     7
100
AcDbLine
 10
155.060495
 20
192.742698
 30
0.0
 11
155.25573
 21
192.547397
 31
0.0
  0
LINE
  5
113C
100
AcDbEntity
  8
10000_FRONT
370
    50
390
0
  6
CONTINUOUS
 62
     7
100
AcDbLine
 10
155.25573
 20
192.547397
 30
0.0
 11
155.121363
 21
192.547397
 31
0.0
  0
LINE
  5
113D
100
AcDbEntity
  8
10000_FRONT
370
    50
390
0
  6
CONTINUOUS
 62
     7
100
AcDbLine
 10
155.121363
 20
192.547397
 30
0.0
 11
154.950245
 21
192.7196
 31
0.0
  0
LINE
  5
113E
100
AcDbEntity
  8
10000_FRONT
370
    50
390
0
  6
CONTINUOUS
 62
     7
100
AcDbLine
 10
154.950245
 20
192.7196
 30
0.0
 11
154.782573
 21
192.968975
 31
0.0
  0
LINE
  5
113F
100
AcDbEntity
  8
10000_FRONT
370
    50
390
0
  6
CONTINUOUS
 62
     7
100
AcDbLine
 10
154.782573
 20
192.968975
 30
0.0
 11
154.61651
 21
193.299724
 31
0.0
  0
LINE
  5
1140
100
AcDbEntity
  8
10000_FRONT
370
    50
390
0
  6
CONTINUOUS
 62
     7
100
AcDbLine
 10
152.141
 20
194.764999
 30
0.0
 11
152.695006
 21
194.764999
 31
0.0
  0
LINE
  5
1141
100
AcDbEntity
  8
10000_FRONT
370
    50
390
0
  6
CONTINUOUS
 62
     7
100
AcDbLine
 10
152.695006
 20
194.764999
 30
0.0
 11
152.930206
 21
194.684414
 31
0.0
  0
LINE
  5
1142
100
AcDbEntity
  8
10000_FRONT
370
    50
390
0
  6
CONTINUOUS
 62
     7
100
AcDbLine
 10
152.930206
 20
194.684414
 30
0.0
 11
153.0083
 21
194.531376
 31
0.0
  0
LINE
  5
1143
100
AcDbEntity
  8
10000_FRONT
370
    50
390
0
  6
CONTINUOUS
 62
     7
100
AcDbLine
 10
153.0083
 20
194.531376
 30
0.0
 11
153.0083
 21
194.293026
 31
0.0
  0
LINE
  5
1144
100
AcDbEntity
  8
10000_FRONT
370
    50
390
0
  6
CONTINUOUS
 62
     7
100
AcDbLine
 10
153.0083
 20
194.293026
 30
0.0
 11
152.930206
 21
194.139988
 31
0.0
  0
LINE
  5
1145
100
AcDbEntity
  8
10000_FRONT
370
    50
390
0
  6
CONTINUOUS
 62
     7
100
AcDbLine
 10
152.930206
 20
194.139988
 30
0.0
 11
152.695006
 21
194.059398
 31
0.0
  0
LINE
  5
1146
100
AcDbEntity
  8
10000_FRONT
370
    50
390
0
  6
CONTINUOUS
 62
     7
100
AcDbLine
 10
152.695006
 20
194.059398
 30
0.0
 11
152.141
 21
194.059398
 31
0.0
  0
LINE
  5
1147
100
AcDbEntity
  8
10000_FRONT
370
    50
390
0
  6
CONTINUOUS
 62
     7
100
AcDbLine
 10
152.141
 20
194.059398
 30
0.0
 11
152.141
 21
194.764999
 31
0.0
  0
LINE
  5
1148
100
AcDbEntity
  8
10000_FRONT
370
    50
390
0
  6
CONTINUOUS
 62
     7
100
AcDbLine
 10
152.141
 20
193.941799
 30
0.0
 11
152.695006
 21
193.941799
 31
0.0
  0
LINE
  5
1149
100
AcDbEntity
  8
10000_FRONT
370
    50
390
0
  6
CONTINUOUS
 62
     7
100
AcDbLine
 10
152.695006
 20
193.941799
 30
0.0
 11
152.930206
 21
193.861213
 31
0.0
  0
LINE
  5
114A
100
AcDbEntity
  8
10000_FRONT
370
    50
390
0
  6
CONTINUOUS
 62
     7
100
AcDbLine
 10
152.930206
 20
193.861213
 30
0.0
 11
153.0083
 21
193.708175
 31
0.0
  0
LINE
  5
114B
100
AcDbEntity
  8
10000_FRONT
370
    50
390
0
  6
CONTINUOUS
 62
     7
100
AcDbLine
 10
153.0083
 20
193.708175
 30
0.0
 11
153.0083
 21
193.469826
 31
0.0
  0
LINE
  5
114C
100
AcDbEntity
  8
10000_FRONT
370
    50
390
0
  6
CONTINUOUS
 62
     7
100
AcDbLine
 10
153.0083
 20
193.469826
 30
0.0
 11
152.930206
 21
193.316787
 31
0.0
  0
LINE
  5
114D
100
AcDbEntity
  8
10000_FRONT
370
    50
390
0
  6
CONTINUOUS
 62
     7
100
AcDbLine
 10
152.930206
 20
193.316787
 30
0.0
 11
152.695006
 21
193.236198
 31
0.0
  0
LINE
  5
114E
100
AcDbEntity
  8
10000_FRONT
370
    50
390
0
  6
CONTINUOUS
 62
     7
100
AcDbLine
 10
152.695006
 20
193.236198
 30
0.0
 11
152.141
 21
193.236198
 31
0.0
  0
LINE
  5
114F
100
AcDbEntity
  8
10000_FRONT
370
    50
390
0
  6
CONTINUOUS
 62
     7
100
AcDbLine
 10
152.141
 20
193.236198
 30
0.0
 11
152.141
 21
193.941799
 31
0.0
  0
LINE
  5
1150
100
AcDbEntity
  8
10000_FRONT
370
    50
390
0
  6
CONTINUOUS
 62
     7
100
AcDbLine
 10
152.0234
 20
193.118599
 30
0.0
 11
152.0234
 21
194.882599
 31
0.0
  0
LINE
  5
1151
100
AcDbEntity
  8
10000_FRONT
370
    50
390
0
  6
CONTINUOUS
 62
     7
100
AcDbLine
 10
152.0234
 20
194.882599
 30
0.0
 11
152.700519
 21
194.882599
 31
0.0
  0
LINE
  5
1152
100
AcDbEntity
  8
10000_FRONT
370
    50
390
0
  6
CONTINUOUS
 62
     7
100
AcDbLine
 10
152.700519
 20
194.882599
 30
0.0
 11
152.953175
 21
194.797813
 31
0.0
  0
LINE
  5
1153
100
AcDbEntity
  8
10000_FRONT
370
    50
390
0
  6
CONTINUOUS
 62
     7
100
AcDbLine
 10
152.953175
 20
194.797813
 30
0.0
 11
153.042523
 21
194.711712
 31
0.0
  0
LINE
  5
1154
100
AcDbEntity
  8
10000_FRONT
370
    50
390
0
  6
CONTINUOUS
 62
     7
100
AcDbLine
 10
153.042523
 20
194.711712
 30
0.0
 11
153.1259
 21
194.539776
 31
0.0
  0
LINE
  5
1155
100
AcDbEntity
  8
10000_FRONT
370
    50
390
0
  6
CONTINUOUS
 62
     7
100
AcDbLine
 10
153.1259
 20
194.539776
 30
0.0
 11
153.1259
 21
194.283836
 31
0.0
  0
LINE
  5
1156
100
AcDbEntity
  8
10000_FRONT
370
    50
390
0
  6
CONTINUOUS
 62
     7
100
AcDbLine
 10
153.1259
 20
194.283836
 30
0.0
 11
153.042064
 21
194.1119
 31
0.0
  0
LINE
  5
1157
100
AcDbEntity
  8
10000_FRONT
370
    50
390
0
  6
CONTINUOUS
 62
     7
100
AcDbLine
 10
153.042064
 20
194.1119
 30
0.0
 11
152.952486
 21
194.025799
 31
0.0
  0
LINE
  5
1158
100
AcDbEntity
  8
10000_FRONT
370
    50
390
0
  6
CONTINUOUS
 62
     7
100
AcDbLine
 10
152.952486
 20
194.025799
 30
0.0
 11
152.878986
 21
194.001648
 31
0.0
  0
LINE
  5
1159
100
AcDbEntity
  8
10000_FRONT
370
    50
390
0
  6
CONTINUOUS
 62
     7
100
AcDbLine
 10
152.878986
 20
194.001648
 30
0.0
 11
152.952486
 21
193.976448
 31
0.0
  0
LINE
  5
115A
100
AcDbEntity
  8
10000_FRONT
370
    50
390
0
  6
CONTINUOUS
 62
     7
100
AcDbLine
 10
152.952486
 20
193.976448
 30
0.0
 11
153.042064
 21
193.889297
 31
0.0
  0
LINE
  5
115B
100
AcDbEntity
  8
10000_FRONT
370
    50
390
0
  6
CONTINUOUS
 62
     7
100
AcDbLine
 10
153.042064
 20
193.889297
 30
0.0
 11
153.1259
 21
193.717361
 31
0.0
  0
LINE
  5
115C
100
AcDbEntity
  8
10000_FRONT
370
    50
390
0
  6
CONTINUOUS
 62
     7
100
AcDbLine
 10
153.1259
 20
193.717361
 30
0.0
 11
153.1259
 21
193.461426
 31
0.0
  0
LINE
  5
115D
100
AcDbEntity
  8
10000_FRONT
370
    50
390
0
  6
CONTINUOUS
 62
     7
100
AcDbLine
 10
153.1259
 20
193.461426
 30
0.0
 11
153.042523
 21
193.290539
 31
0.0
  0
LINE
  5
115E
100
AcDbEntity
  8
10000_FRONT
370
    50
390
0
  6
CONTINUOUS
 62
     7
100
AcDbLine
 10
153.042523
 20
193.290539
 30
0.0
 11
152.953175
 21
193.203388
 31
0.0
  0
LINE
  5
115F
100
AcDbEntity
  8
10000_FRONT
370
    50
390
0
  6
CONTINUOUS
 62
     7
100
AcDbLine
 10
152.953175
 20
193.203388
 30
0.0
 11
152.700519
 21
193.118599
 31
0.0
  0
LINE
  5
1160
100
AcDbEntity
  8
10000_FRONT
370
    50
390
0
  6
CONTINUOUS
 62
     7
100
AcDbLine
 10
152.700519
 20
193.118599
 30
0.0
 11
152.0234
 21
193.118599
 31
0.0
  0
LINE
  5
1161
100
AcDbEntity
  8
10000_FRONT
370
    50
390
0
  6
CONTINUOUS
 62
     7
100
AcDbLine
 10
129.299999
 20
192.075001
 30
0.0
 11
129.299999
 21
207.875
 31
0.0
  0
LINE
  5
1162
100
AcDbEntity
  8
10000_FRONT
370
    50
390
0
  6
CONTINUOUS
 62
     7
100
AcDbLine
 10
129.299999
 20
192.075001
 30
0.0
 11
172.700001
 21
192.075001
 31
0.0
  0
LINE
  5
1163
100
AcDbEntity
  8
10000_FRONT
370
    50
390
0
  6
CONTINUOUS
 62
     7
100
AcDbLine
 10
172.700001
 20
192.075001
 30
0.0
 11
172.700001
 21
207.875
 31
0.0
  0
LINE
  5
1164
100
AcDbEntity
  8
10000_FRONT
370
    50
390
0
  6
CONTINUOUS
 62
     7
100
AcDbLine
 10
155.15
 20
207.875
 30
0.0
 11
172.700001
 21
207.875
 31
0.0
  0
LINE
  5
1165
100
AcDbEntity
  8
10000_FRONT
370
    50
390
0
  6
CONTINUOUS
 62
     7
100
AcDbLine
 10
155.15
 20
207.875
 30
0.0
 11
155.15
 21
204.875
 31
0.0
  0
LINE
  5
1166
100
AcDbEntity
  8
10000_FRONT
370
    50
390
0
  6
CONTINUOUS
 62
     7
100
AcDbLine
 10
155.15
 20
204.875
 30
0.0
 11
139.45
 21
204.875
 31
0.0
  0
LINE
  5
1167
100
AcDbEntity
  8
10000_FRONT
370
    50
390
0
  6
CONTINUOUS
 62
     7
100
AcDbLine
 10
172.049999
 20
201.474998
 30
0.0
 11
169.049999
 21
201.474998
 31
0.0
  0
LINE
  5
1168
100
AcDbEntity
  8
10000_FRONT
370
    50
390
0
  6
CONTINUOUS
 62
     7
100
AcDbLine
 10
169.049999
 20
201.474998
 30
0.0
 11
169.049999
 21
204.274999
 31
0.0
  0
LINE
  5
1169
100
AcDbEntity
  8
10000_FRONT
370
    50
390
0
  6
CONTINUOUS
 62
     7
100
AcDbLine
 10
169.049999
 20
204.274999
 30
0.0
 11
172.049999
 21
204.274999
 31
0.0
  0
LINE
  5
116A
100
AcDbEntity
  8
10000_FRONT
370
    50
390
0
  6
CONTINUOUS
 62
     7
100
AcDbLine
 10
172.049999
 20
204.274999
 30
0.0
 11
172.049999
 21
201.474998
 31
0.0
  0
LINE
  5
116B
100
AcDbEntity
  8
10000_FRONT
370
    50
390
0
  6
CONTINUOUS
 62
     7
100
AcDbLine
 10
164.85
 20
201.474998
 30
0.0
 11
161.85
 21
201.474998
 31
0.0
  0
LINE
  5
116C
100
AcDbEntity
  8
10000_FRONT
370
    50
390
0
  6
CONTINUOUS
 62
     7
100
AcDbLine
 10
161.85
 20
201.474998
 30
0.0
 11
161.85
 21
204.274999
 31
0.0
  0
LINE
  5
116D
100
AcDbEntity
  8
10000_FRONT
370
    50
390
0
  6
CONTINUOUS
 62
     7
100
AcDbLine
 10
161.85
 20
204.274999
 30
0.0
 11
164.85
 21
204.274999
 31
0.0
  0
LINE
  5
116E
100
AcDbEntity
  8
10000_FRONT
370
    50
390
0
  6
CONTINUOUS
 62
     7
100
AcDbLine
 10
164.85
 20
204.274999
 30
0.0
 11
164.85
 21
201.474998
 31
0.0
  0
LINE
  5
116F
100
AcDbEntity
  8
10000_FRONT
370
    50
390
0
  6
CONTINUOUS
 62
     7
100
AcDbLine
 10
157.65
 20
201.474998
 30
0.0
 11
154.65
 21
201.474998
 31
0.0
  0
LINE
  5
1170
100
AcDbEntity
  8
10000_FRONT
370
    50
390
0
  6
CONTINUOUS
 62
     7
100
AcDbLine
 10
154.65
 20
201.474998
 30
0.0
 11
154.65
 21
204.274999
 31
0.0
  0
LINE
  5
1171
100
AcDbEntity
  8
10000_FRONT
370
    50
390
0
  6
CONTINUOUS
 62
     7
100
AcDbLine
 10
154.65
 20
204.274999
 30
0.0
 11
157.65
 21
204.274999
 31
0.0
  0
LINE
  5
1172
100
AcDbEntity
  8
10000_FRONT
370
    50
390
0
  6
CONTINUOUS
 62
     7
100
AcDbLine
 10
157.65
 20
204.274999
 30
0.0
 11
157.65
 21
201.474998
 31
0.0
  0
LINE
  5
1173
100
AcDbEntity
  8
10000_FRONT
370
    50
390
0
  6
CONTINUOUS
 62
     7
100
AcDbLine
 10
150.45
 20
201.474998
 30
0.0
 11
147.45
 21
201.474998
 31
0.0
  0
LINE
  5
1174
100
AcDbEntity
  8
10000_FRONT
370
    50
390
0
  6
CONTINUOUS
 62
     7
100
AcDbLine
 10
147.45
 20
201.474998
 30
0.0
 11
147.45
 21
204.274999
 31
0.0
  0
LINE
  5
1175
100
AcDbEntity
  8
10000_FRONT
370
    50
390
0
  6
CONTINUOUS
 62
     7
100
AcDbLine
 10
147.45
 20
204.274999
 30
0.0
 11
150.45
 21
204.274999
 31
0.0
  0
LINE
  5
1176
100
AcDbEntity
  8
10000_FRONT
370
    50
390
0
  6
CONTINUOUS
 62
     7
100
AcDbLine
 10
150.45
 20
204.274999
 30
0.0
 11
150.45
 21
201.474998
 31
0.0
  0
LINE
  5
1177
100
AcDbEntity
  8
10000_FRONT
370
    50
390
0
  6
CONTINUOUS
 62
     7
100
AcDbLine
 10
143.25
 20
201.474998
 30
0.0
 11
140.25
 21
201.474998
 31
0.0
  0
LINE
  5
1178
100
AcDbEntity
  8
10000_FRONT
370
    50
390
0
  6
CONTINUOUS
 62
     7
100
AcDbLine
 10
140.25
 20
201.474998
 30
0.0
 11
140.25
 21
204.274999
 31
0.0
  0
LINE
  5
1179
100
AcDbEntity
  8
10000_FRONT
370
    50
390
0
  6
CONTINUOUS
 62
     7
100
AcDbLine
 10
140.25
 20
204.274999
 30
0.0
 11
143.25
 21
204.274999
 31
0.0
  0
LINE
  5
117A
100
AcDbEntity
  8
10000_FRONT
370
    50
390
0
  6
CONTINUOUS
 62
     7
100
AcDbLine
 10
143.25
 20
204.274999
 30
0.0
 11
143.25
 21
201.474998
 31
0.0
  0
LINE
  5
117B
100
AcDbEntity
  8
10000_FRONT
370
    50
390
0
  6
CONTINUOUS
 62
     7
100
AcDbLine
 10
136.05
 20
201.474998
 30
0.0
 11
133.049999
 21
201.474998
 31
0.0
  0
LINE
  5
117C
100
AcDbEntity
  8
10000_FRONT
370
    50
390
0
  6
CONTINUOUS
 62
     7
100
AcDbLine
 10
133.049999
 20
201.474998
 30
0.0
 11
133.049999
 21
204.274999
 31
0.0
  0
LINE
  5
117D
100
AcDbEntity
  8
10000_FRONT
370
    50
390
0
  6
CONTINUOUS
 62
     7
100
AcDbLine
 10
133.049999
 20
204.274999
 30
0.0
 11
136.05
 21
204.274999
 31
0.0
  0
LINE
  5
117E
100
AcDbEntity
  8
10000_FRONT
370
    50
390
0
  6
CONTINUOUS
 62
     7
100
AcDbLine
 10
136.05
 20
204.274999
 30
0.0
 11
136.05
 21
201.474998
 31
0.0
  0
LINE
  5
117F
100
AcDbEntity
  8
10000_FRONT
370
    50
390
0
  6
CONTINUOUS
 62
     7
100
AcDbLine
 10
168.700001
 20
201.474998
 30
0.0
 11
165.7
 21
201.474998
 31
0.0
  0
LINE
  5
1180
100
AcDbEntity
  8
10000_FRONT
370
    50
390
0
  6
CONTINUOUS
 62
     7
100
AcDbLine
 10
165.7
 20
201.474998
 30
0.0
 11
165.7
 21
204.274999
 31
0.0
  0
LINE
  5
1181
100
AcDbEntity
  8
10000_FRONT
370
    50
390
0
  6
CONTINUOUS
 62
     7
100
AcDbLine
 10
165.7
 20
204.274999
 30
0.0
 11
168.700001
 21
204.274999
 31
0.0
  0
LINE
  5
1182
100
AcDbEntity
  8
10000_FRONT
370
    50
390
0
  6
CONTINUOUS
 62
     7
100
AcDbLine
 10
168.700001
 20
204.274999
 30
0.0
 11
168.700001
 21
201.474998
 31
0.0
  0
LINE
  5
1183
100
AcDbEntity
  8
10000_FRONT
370
    50
390
0
  6
CONTINUOUS
 62
     7
100
AcDbLine
 10
161.5
 20
201.474998
 30
0.0
 11
158.5
 21
201.474998
 31
0.0
  0
LINE
  5
1184
100
AcDbEntity
  8
10000_FRONT
370
    50
390
0
  6
CONTINUOUS
 62
     7
100
AcDbLine
 10
158.5
 20
201.474998
 30
0.0
 11
158.5
 21
204.274999
 31
0.0
  0
LINE
  5
1185
100
AcDbEntity
  8
10000_FRONT
370
    50
390
0
  6
CONTINUOUS
 62
     7
100
AcDbLine
 10
158.5
 20
204.274999
 30
0.0
 11
161.5
 21
204.274999
 31
0.0
  0
LINE
  5
1186
100
AcDbEntity
  8
10000_FRONT
370
    50
390
0
  6
CONTINUOUS
 62
     7
100
AcDbLine
 10
161.5
 20
204.274999
 30
0.0
 11
161.5
 21
201.474998
 31
0.0
  0
LINE
  5
1187
100
AcDbEntity
  8
10000_FRONT
370
    50
390
0
  6
CONTINUOUS
 62
     7
100
AcDbLine
 10
154.3
 20
201.474998
 30
0.0
 11
151.3
 21
201.474998
 31
0.0
  0
LINE
  5
1188
100
AcDbEntity
  8
10000_FRONT
370
    50
390
0
  6
CONTINUOUS
 62
     7
100
AcDbLine
 10
151.3
 20
201.474998
 30
0.0
 11
151.3
 21
204.274999
 31
0.0
  0
LINE
  5
1189
100
AcDbEntity
  8
10000_FRONT
370
    50
390
0
  6
CONTINUOUS
 62
     7
100
AcDbLine
 10
151.3
 20
204.274999
 30
0.0
 11
154.3
 21
204.274999
 31
0.0
  0
LINE
  5
118A
100
AcDbEntity
  8
10000_FRONT
370
    50
390
0
  6
CONTINUOUS
 62
     7
100
AcDbLine
 10
154.3
 20
204.274999
 30
0.0
 11
154.3
 21
201.474998
 31
0.0
  0
LINE
  5
118B
100
AcDbEntity
  8
10000_FRONT
370
    50
390
0
  6
CONTINUOUS
 62
     7
100
AcDbLine
 10
147.1
 20
201.474998
 30
0.0
 11
144.1
 21
201.474998
 31
0.0
  0
LINE
  5
118C
100
AcDbEntity
  8
10000_FRONT
370
    50
390
0
  6
CONTINUOUS
 62
     7
100
AcDbLine
 10
144.1
 20
201.474998
 30
0.0
 11
144.1
 21
204.274999
 31
0.0
  0
LINE
  5
118D
100
AcDbEntity
  8
10000_FRONT
370
    50
390
0
  6
CONTINUOUS
 62
     7
100
AcDbLine
 10
144.1
 20
204.274999
 30
0.0
 11
147.1
 21
204.274999
 31
0.0
  0
LINE
  5
118E
100
AcDbEntity
  8
10000_FRONT
370
    50
390
0
  6
CONTINUOUS
 62
     7
100
AcDbLine
 10
147.1
 20
204.274999
 30
0.0
 11
147.1
 21
201.474998
 31
0.0
  0
LINE
  5
118F
100
AcDbEntity
  8
10000_FRONT
370
    50
390
0
  6
CONTINUOUS
 62
     7
100
AcDbLine
 10
139.9
 20
201.474998
 30
0.0
 11
136.9
 21
201.474998
 31
0.0
  0
LINE
  5
1190
100
AcDbEntity
  8
10000_FRONT
370
    50
390
0
  6
CONTINUOUS
 62
     7
100
AcDbLine
 10
136.9
 20
201.474998
 30
0.0
 11
136.9
 21
204.274999
 31
0.0
  0
LINE
  5
1191
100
AcDbEntity
  8
10000_FRONT
370
    50
390
0
  6
CONTINUOUS
 62
     7
100
AcDbLine
 10
136.9
 20
204.274999
 30
0.0
 11
139.9
 21
204.274999
 31
0.0
  0
LINE
  5
1192
100
AcDbEntity
  8
10000_FRONT
370
    50
390
0
  6
CONTINUOUS
 62
     7
100
AcDbLine
 10
139.9
 20
204.274999
 30
0.0
 11
139.9
 21
201.474998
 31
0.0
  0
LINE
  5
1193
100
AcDbEntity
  8
10000_FRONT
370
    50
390
0
  6
CONTINUOUS
 62
     7
100
AcDbLine
 10
132.700001
 20
201.474998
 30
0.0
 11
129.700001
 21
201.474998
 31
0.0
  0
LINE
  5
1194
100
AcDbEntity
  8
10000_FRONT
370
    50
390
0
  6
CONTINUOUS
 62
     7
100
AcDbLine
 10
129.700001
 20
201.474998
 30
0.0
 11
129.700001
 21
204.274999
 31
0.0
  0
LINE
  5
1195
100
AcDbEntity
  8
10000_FRONT
370
    50
390
0
  6
CONTINUOUS
 62
     7
100
AcDbLine
 10
129.700001
 20
204.274999
 30
0.0
 11
132.700001
 21
204.274999
 31
0.0
  0
LINE
  5
1196
100
AcDbEntity
  8
10000_FRONT
370
    50
390
0
  6
CONTINUOUS
 62
     7
100
AcDbLine
 10
132.700001
 20
204.274999
 30
0.0
 11
132.700001
 21
201.474998
 31
0.0
  0
LINE
  5
1197
100
AcDbEntity
  8
10000_FRONT
370
    50
390
0
  6
CONTINUOUS
 62
     7
100
AcDbLine
 10
165.7
 20
197.523628
 30
0.0
 11
165.7
 21
197.873628
 31
0.0
  0
ARC
  5
1198
100
AcDbEntity
  8
10000_FRONT
370
    50
390
0
  6
CONTINUOUS
 62
     7
100
AcDbCircle
 10
167.5
 20
197.873628
 30
0.0
 40
1.8
100
AcDbArc
 50
38.942447
 51
180.0
  0
ARC
  5
1199
100
AcDbEntity
  8
10000_FRONT
370
    50
390
0
  6
CONTINUOUS
 62
     7
100
AcDbCircle
 10
170.3
 20
197.873628
 30
0.0
 40
1.8
100
AcDbArc
 50
0.0
 51
141.057568
  0
LINE
  5
119A
100
AcDbEntity
  8
10000_FRONT
370
    50
390
0
  6
CONTINUOUS
 62
     7
100
AcDbLine
 10
172.1
 20
197.873628
 30
0.0
 11
172.1
 21
197.523628
 31
0.0
  0
ARC
  5
119B
100
AcDbEntity
  8
10000_FRONT
370
    50
390
0
  6
CONTINUOUS
 62
     7
100
AcDbCircle
 10
170.3
 20
197.523628
 30
0.0
 40
1.8
100
AcDbArc
 50
218.94243
 51
0.0
  0
ARC
  5
119C
100
AcDbEntity
  8
10000_FRONT
370
    50
390
0
  6
CONTINUOUS
 62
     7
100
AcDbCircle
 10
167.5
 20
197.523628
 30
0.0
 40
1.8
100
AcDbArc
 50
180.0
 51
321.057555
  0
LINE
  5
119D
100
AcDbEntity
  8
10000_FRONT
370
    50
390
0
  6
CONTINUOUS
 62
     7
100
AcDbLine
 10
158.5
 20
197.523628
 30
0.0
 11
158.5
 21
197.873628
 31
0.0
  0
ARC
  5
119E
100
AcDbEntity
  8
10000_FRONT
370
    50
390
0
  6
CONTINUOUS
 62
     7
100
AcDbCircle
 10
160.3
 20
197.873628
 30
0.0
 40
1.8
100
AcDbArc
 50
38.942443
 51
180.0
  0
ARC
  5
119F
100
AcDbEntity
  8
10000_FRONT
370
    50
390
0
  6
CONTINUOUS
 62
     7
100
AcDbCircle
 10
163.1
 20
197.873628
 30
0.0
 40
1.8
100
AcDbArc
 50
0.0
 51
141.057565
  0
LINE
  5
11A0
100
AcDbEntity
  8
10000_FRONT
370
    50
390
0
  6
CONTINUOUS
 62
     7
100
AcDbLine
 10
164.9
 20
197.873628
 30
0.0
 11
164.9
 21
197.523628
 31
0.0
  0
ARC
  5
11A1
100
AcDbEntity
  8
10000_FRONT
370
    50
390
0
  6
CONTINUOUS
 62
     7
100
AcDbCircle
 10
163.1
 20
197.523628
 30
0.0
 40
1.8
100
AcDbArc
 50
218.942434
 51
0.0
  0
ARC
  5
11A2
100
AcDbEntity
  8
10000_FRONT
370
    50
390
0
  6
CONTINUOUS
 62
     7
100
AcDbCircle
 10
160.3
 20
197.523628
 30
0.0
 40
1.8
100
AcDbArc
 50
180.0
 51
321.057558
  0
LINE
  5
11A3
100
AcDbEntity
  8
10000_FRONT
370
    50
390
0
  6
CONTINUOUS
 62
     7
100
AcDbLine
 10
151.3
 20
197.523628
 30
0.0
 11
151.3
 21
197.873628
 31
0.0
  0
ARC
  5
11A4
100
AcDbEntity
  8
10000_FRONT
370
    50
390
0
  6
CONTINUOUS
 62
     7
100
AcDbCircle
 10
153.1
 20
197.873628
 30
0.0
 40
1.8
100
AcDbArc
 50
38.942439
 51
180.0
  0
ARC
  5
11A5
100
AcDbEntity
  8
10000_FRONT
370
    50
390
0
  6
CONTINUOUS
 62
     7
100
AcDbCircle
 10
155.9
 20
197.873628
 30
0.0
 40
1.8
100
AcDbArc
 50
0.0
 51
141.057561
  0
LINE
  5
11A6
100
AcDbEntity
  8
10000_FRONT
370
    50
390
0
  6
CONTINUOUS
 62
     7
100
AcDbLine
 10
157.7
 20
197.873628
 30
0.0
 11
157.7
 21
197.523628
 31
0.0
  0
ARC
  5
11A7
100
AcDbEntity
  8
10000_FRONT
370
    50
390
0
  6
CONTINUOUS
 62
     7
100
AcDbCircle
 10
155.9
 20
197.523628
 30
0.0
 40
1.8
100
AcDbArc
 50
218.942438
 51
0.0
  0
ARC
  5
11A8
100
AcDbEntity
  8
10000_FRONT
370
    50
390
0
  6
CONTINUOUS
 62
     7
100
AcDbCircle
 10
153.1
 20
197.523628
 30
0.0
 40
1.8
100
AcDbArc
 50
180.0
 51
321.057562
  0
LINE
  5
11A9
100
AcDbEntity
  8
10000_FRONT
370
    50
390
0
  6
CONTINUOUS
 62
     7
100
AcDbLine
 10
144.1
 20
197.523628
 30
0.0
 11
144.1
 21
197.873628
 31
0.0
  0
ARC
  5
11AA
100
AcDbEntity
  8
10000_FRONT
370
    50
390
0
  6
CONTINUOUS
 62
     7
100
AcDbCircle
 10
145.9
 20
197.873628
 30
0.0
 40
1.8
100
AcDbArc
 50
38.94244
 51
180.0
  0
ARC
  5
11AB
100
AcDbEntity
  8
10000_FRONT
370
    50
390
0
  6
CONTINUOUS
 62
     7
100
AcDbCircle
 10
148.7
 20
197.873628
 30
0.0
 40
1.8
100
AcDbArc
 50
0.0
 51
141.057562
  0
LINE
  5
11AC
100
AcDbEntity
  8
10000_FRONT
370
    50
390
0
  6
CONTINUOUS
 62
     7
100
AcDbLine
 10
150.5
 20
197.873628
 30
0.0
 11
150.5
 21
197.523628
 31
0.0
  0
ARC
  5
11AD
100
AcDbEntity
  8
10000_FRONT
370
    50
390
0
  6
CONTINUOUS
 62
     7
100
AcDbCircle
 10
148.7
 20
197.523628
 30
0.0
 40
1.8
100
AcDbArc
 50
218.942437
 51
0.0
  0
ARC
  5
11AE
100
AcDbEntity
  8
10000_FRONT
370
    50
390
0
  6
CONTINUOUS
 62
     7
100
AcDbCircle
 10
145.9
 20
197.523628
 30
0.0
 40
1.8
100
AcDbArc
 50
180.0
 51
321.057561
  0
LINE
  5
11AF
100
AcDbEntity
  8
10000_FRONT
370
    50
390
0
  6
CONTINUOUS
 62
     7
100
AcDbLine
 10
136.9
 20
197.523628
 30
0.0
 11
136.9
 21
197.873628
 31
0.0
  0
ARC
  5
11B0
100
AcDbEntity
  8
10000_FRONT
370
    50
390
0
  6
CONTINUOUS
 62
     7
100
AcDbCircle
 10
138.7
 20
197.873628
 30
0.0
 40
1.8
100
AcDbArc
 50
38.942432
 51
180.0
  0
ARC
  5
11B1
100
AcDbEntity
  8
10000_FRONT
370
    50
390
0
  6
CONTINUOUS
 62
     7
100
AcDbCircle
 10
141.5
 20
197.873628
 30
0.0
 40
1.8
100
AcDbArc
 50
0.0
 51
141.057553
  0
LINE
  5
11B2
100
AcDbEntity
  8
10000_FRONT
370
    50
390
0
  6
CONTINUOUS
 62
     7
100
AcDbLine
 10
143.3
 20
197.873628
 30
0.0
 11
143.3
 21
197.523628
 31
0.0
  0
ARC
  5
11B3
100
AcDbEntity
  8
10000_FRONT
370
    50
390
0
  6
CONTINUOUS
 62
     7
100
AcDbCircle
 10
141.5
 20
197.523628
 30
0.0
 40
1.8
100
AcDbArc
 50
218.942445
 51
0.0
  0
ARC
  5
11B4
100
AcDbEntity
  8
10000_FRONT
370
    50
390
0
  6
CONTINUOUS
 62
     7
100
AcDbCircle
 10
138.7
 20
197.523628
 30
0.0
 40
1.8
100
AcDbArc
 50
180.0
 51
321.05757
  0
LINE
  5
11B5
100
AcDbEntity
  8
10000_FRONT
370
    50
390
0
  6
CONTINUOUS
 62
     7
100
AcDbLine
 10
129.700001
 20
197.523628
 30
0.0
 11
129.700001
 21
197.873628
 31
0.0
  0
ARC
  5
11B6
100
AcDbEntity
  8
10000_FRONT
370
    50
390
0
  6
CONTINUOUS
 62
     7
100
AcDbCircle
 10
131.5
 20
197.873628
 30
0.0
 40
1.8
100
AcDbArc
 50
38.942447
 51
180.0
  0
ARC
  5
11B7
100
AcDbEntity
  8
10000_FRONT
370
    50
390
0
  6
CONTINUOUS
 62
     7
100
AcDbCircle
 10
134.3
 20
197.873628
 30
0.0
 40
1.8
100
AcDbArc
 50
0.0
 51
141.057568
  0
LINE
  5
11B8
100
AcDbEntity
  8
10000_FRONT
370
    50
390
0
  6
CONTINUOUS
 62
     7
100
AcDbLine
 10
136.1
 20
197.873628
 30
0.0
 11
136.1
 21
197.523628
 31
0.0
  0
ARC
  5
11B9
100
AcDbEntity
  8
10000_FRONT
370
    50
390
0
  6
CONTINUOUS
 62
     7
100
AcDbCircle
 10
134.3
 20
197.523628
 30
0.0
 40
1.8
100
AcDbArc
 50
218.94243
 51
0.0
  0
ARC
  5
11BA
100
AcDbEntity
  8
10000_FRONT
370
    50
390
0
  6
CONTINUOUS
 62
     7
100
AcDbCircle
 10
131.5
 20
197.523628
 30
0.0
 40
1.8
100
AcDbArc
 50
180.0
 51
321.057555
  0
LINE
  5
11BB
100
AcDbEntity
  8
10000_FRONT
370
    50
390
0
  6
CONTINUOUS
 62
     7
100
AcDbLine
 10
128.5
 20
192.492855
 30
0.0
 11
128.5
 21
207.875
 31
0.0
  0
LINE
  5
11BC
100
AcDbEntity
  8
10000_FRONT
370
    50
390
0
  6
CONTINUOUS
 62
     7
100
AcDbLine
 10
128.5
 20
192.492855
 30
0.0
 11
128.514188
 21
192.075
 31
0.0
  0
LINE
  5
11BD
100
AcDbEntity
  8
10000_FRONT
370
    50
390
0
  6
CONTINUOUS
 62
     7
100
AcDbLine
 10
128.514189
 20
192.075001
 30
0.0
 11
129.299999
 21
192.075001
 31
0.0
  0
LINE
  5
11BE
100
AcDbEntity
  8
10000_FRONT
370
    50
390
0
  6
CONTINUOUS
 62
     7
100
AcDbLine
 10
172.700001
 20
192.075001
 30
0.0
 11
173.485811
 21
192.075001
 31
0.0
  0
LINE
  5
11BF
100
AcDbEntity
  8
10000_FRONT
370
    50
390
0
  6
CONTINUOUS
 62
     7
100
AcDbLine
 10
173.485812
 20
192.075
 30
0.0
 11
173.5
 21
192.492855
 31
0.0
  0
LINE
  5
11C0
100
AcDbEntity
  8
10000_FRONT
370
    50
390
0
  6
CONTINUOUS
 62
     7
100
AcDbLine
 10
173.5
 20
207.875
 30
0.0
 11
173.5
 21
192.492855
 31
0.0
  0
LINE
  5
11C1
100
AcDbEntity
  8
10000_FRONT
370
    50
390
0
  6
CONTINUOUS
 62
     7
100
AcDbLine
 10
172.700001
 20
207.875
 30
0.0
 11
173.5
 21
207.875
 31
0.0
  0
LINE
  5
11C2
100
AcDbEntity
  8
10000_FRONT
370
    50
390
0
  6
CONTINUOUS
 62
     7
100
AcDbLine
 10
173.5
 20
207.875
 30
0.0
 11
173.5
 21
208.461763
 31
0.0
  0
LINE
  5
11C3
100
AcDbEntity
  8
10000_FRONT
370
    50
390
0
  6
CONTINUOUS
 62
     7
100
AcDbLine
 10
150.2
 20
207.865005
 30
0.0
 11
150.2
 21
204.875
 31
0.0
  0
LINE
  5
11C4
100
AcDbEntity
  8
10000_FRONT
370
    50
390
0
  6
CONTINUOUS
 62
     7
100
AcDbLine
 10
144.4
 20
207.865005
 30
0.0
 11
144.4
 21
204.875
 31
0.0
  0
LINE
  5
11C5
100
AcDbEntity
  8
10000_FRONT
370
    50
390
0
  6
CONTINUOUS
 62
     7
100
AcDbLine
 10
155.15
 20
207.865
 30
0.0
 11
143.05
 21
207.865
 31
0.0
  0
LINE
  5
11C6
100
AcDbEntity
  8
10000_FRONT
370
    50
390
0
  6
CONTINUOUS
 62
     7
100
AcDbLine
 10
158.95
 20
207.875
 30
0.0
 11
158.95
 21
208.465
 31
0.0
  0
LINE
  5
11C7
100
AcDbEntity
  8
10000_FRONT
370
    50
390
0
  6
CONTINUOUS
 62
     7
100
AcDbLine
 10
158.95
 20
212.264999
 30
0.0
 11
158.95
 21
208.465
 31
0.0
  0
ARC
  5
11C8
100
AcDbEntity
  8
10000_FRONT
370
    50
390
0
  6
CONTINUOUS
 62
     7
100
AcDbCircle
 10
172.9
 20
208.464999
 30
0.0
 40
0.6
100
AcDbArc
 50
280.475279
 51
0.000087
  0
LINE
  5
11C9
100
AcDbEntity
  8
10000_FRONT
370
    50
390
0
  6
CONTINUOUS
 62
     7
100
AcDbLine
 10
173.5
 20
208.465
 30
0.0
 11
158.95
 21
208.465
 31
0.0
  0
LINE
  5
11CA
100
AcDbEntity
  8
10000_FRONT
370
    50
390
0
  6
CONTINUOUS
 62
     7
100
AcDbLine
 10
129.110001
 20
230.924999
 30
0.0
 11
128.5
 21
230.924999
 31
0.0
  0
LINE
  5
11CB
100
AcDbEntity
  8
10000_FRONT
370
    50
390
0
  6
CONTINUOUS
 62
     7
100
AcDbLine
 10
128.5
 20
230.924999
 30
0.0
 11
128.5
 21
230.315038
 31
0.0
  0
LINE
  5
11CC
100
AcDbEntity
  8
10000_FRONT
370
    50
390
0
  6
CONTINUOUS
 62
     7
100
AcDbLine
 10
173.5
 20
230.321926
 30
0.0
 11
173.5
 21
230.924999
 31
0.0
  0
LINE
  5
11CD
100
AcDbEntity
  8
10000_FRONT
370
    50
390
0
  6
CONTINUOUS
 62
     7
100
AcDbLine
 10
173.5
 20
230.924999
 30
0.0
 11
172.889999
 21
230.924999
 31
0.0
  0
LINE
  5
11CE
100
AcDbEntity
  8
10000_FRONT
370
    50
390
0
  6
CONTINUOUS
 62
     7
100
AcDbLine
 10
144.938263
 20
217.966239
 30
0.0
 11
144.845814
 21
217.920622
 31
0.0
  0
LINE
  5
11CF
100
AcDbEntity
  8
10000_FRONT
370
    50
390
0
  6
CONTINUOUS
 62
     7
100
AcDbLine
 10
145.124501
 20
217.966239
 30
0.0
 11
144.938263
 21
217.966239
 31
0.0
  0
LINE
  5
11D0
100
AcDbEntity
  8
10000_FRONT
370
    50
390
0
  6
CONTINUOUS
 62
     7
100
AcDbLine
 10
145.21628
 20
217.919397
 30
0.0
 11
145.124501
 21
217.966239
 31
0.0
  0
LINE
  5
11D1
100
AcDbEntity
  8
10000_FRONT
370
    50
390
0
  6
CONTINUOUS
 62
     7
100
AcDbLine
 10
145.261835
 20
217.873781
 30
0.0
 11
145.21628
 21
217.919397
 31
0.0
  0
LINE
  5
11D2
100
AcDbEntity
  8
10000_FRONT
370
    50
390
0
  6
CONTINUOUS
 62
     7
100
AcDbLine
 10
145.312749
 20
217.773977
 30
0.0
 11
145.261835
 21
217.873781
 31
0.0
  0
LINE
  5
11D3
100
AcDbEntity
  8
10000_FRONT
370
    50
390
0
  6
CONTINUOUS
 62
     7
100
AcDbLine
 10
145.385101
 20
217.774044
 30
0.0
 11
145.385101
 21
217.773977
 31
0.0
  0
LINE
  5
11D4
100
AcDbEntity
  8
10000_FRONT
370
    50
390
0
  6
CONTINUOUS
 62
     7
100
AcDbLine
 10
145.385101
 20
217.773977
 30
0.0
 11
145.312749
 21
217.773977
 31
0.0
  0
LINE
  5
11D5
100
AcDbEntity
  8
10000_FRONT
370
    50
390
0
  6
CONTINUOUS
 62
     7
100
AcDbLine
 10
145.328827
 20
217.887911
 30
0.0
 11
145.385101
 21
217.774044
 31
0.0
  0
LINE
  5
11D6
100
AcDbEntity
  8
10000_FRONT
370
    50
390
0
  6
CONTINUOUS
 62
     7
100
AcDbLine
 10
145.328827
 20
217.887912
 30
0.0
 11
145.328827
 21
217.887864
 31
0.0
  0
LINE
  5
11D7
100
AcDbEntity
  8
10000_FRONT
370
    50
390
0
  6
CONTINUOUS
 62
     7
100
AcDbLine
 10
145.328827
 20
217.887864
 30
0.0
 11
145.385101
 21
217.773977
 31
0.0
  0
LINE
  5
11D8
100
AcDbEntity
  8
10000_FRONT
370
    50
390
0
  6
CONTINUOUS
 62
     7
100
AcDbLine
 10
145.230349
 20
217.986016
 30
0.0
 11
145.328827
 21
217.887911
 31
0.0
  0
LINE
  5
11D9
100
AcDbEntity
  8
10000_FRONT
370
    50
390
0
  6
CONTINUOUS
 62
     7
100
AcDbLine
 10
145.230349
 20
217.986017
 30
0.0
 11
145.230349
 21
217.985985
 31
0.0
  0
LINE
  5
11DA
100
AcDbEntity
  8
10000_FRONT
370
    50
390
0
  6
CONTINUOUS
 62
     7
100
AcDbLine
 10
145.230349
 20
217.985985
 30
0.0
 11
145.328827
 21
217.887864
 31
0.0
  0
LINE
  5
11DB
100
AcDbEntity
  8
10000_FRONT
370
    50
390
0
  6
CONTINUOUS
 62
     7
100
AcDbLine
 10
145.129861
 20
218.034841
 30
0.0
 11
145.230349
 21
217.986016
 31
0.0
  0
LINE
  5
11DC
100
AcDbEntity
  8
10000_FRONT
370
    50
390
0
  6
CONTINUOUS
 62
     7
100
AcDbLine
 10
145.129861
 20
218.034841
 30
0.0
 11
145.129861
 21
218.034816
 31
0.0
  0
LINE
  5
11DD
100
AcDbEntity
  8
10000_FRONT
370
    50
390
0
  6
CONTINUOUS
 62
     7
100
AcDbLine
 10
145.129861
 20
218.034816
 30
0.0
 11
145.230349
 21
217.985985
 31
0.0
  0
LINE
  5
11DE
100
AcDbEntity
  8
10000_FRONT
370
    50
390
0
  6
CONTINUOUS
 62
     7
100
AcDbLine
 10
144.932233
 20
218.034841
 30
0.0
 11
145.129861
 21
218.034841
 31
0.0
  0
LINE
  5
11DF
100
AcDbEntity
  8
10000_FRONT
370
    50
390
0
  6
CONTINUOUS
 62
     7
100
AcDbLine
 10
144.932233
 20
218.034841
 30
0.0
 11
144.932233
 21
218.034816
 31
0.0
  0
LINE
  5
11E0
100
AcDbEntity
  8
10000_FRONT
370
    50
390
0
  6
CONTINUOUS
 62
     7
100
AcDbLine
 10
144.932233
 20
218.034816
 30
0.0
 11
145.129861
 21
218.034816
 31
0.0
  0
LINE
  5
11E1
100
AcDbEntity
  8
10000_FRONT
370
    50
390
0
  6
CONTINUOUS
 62
     7
100
AcDbLine
 10
144.832415
 20
217.985405
 30
0.0
 11
144.932233
 21
218.034841
 31
0.0
  0
LINE
  5
11E2
100
AcDbEntity
  8
10000_FRONT
370
    50
390
0
  6
CONTINUOUS
 62
     7
100
AcDbLine
 10
144.832415
 20
217.985405
 30
0.0
 11
144.832415
 21
217.985373
 31
0.0
  0
LINE
  5
11E3
100
AcDbEntity
  8
10000_FRONT
370
    50
390
0
  6
CONTINUOUS
 62
     7
100
AcDbLine
 10
144.832415
 20
217.985373
 30
0.0
 11
144.932233
 21
218.034816
 31
0.0
  0
LINE
  5
11E4
100
AcDbEntity
  8
10000_FRONT
370
    50
390
0
  6
CONTINUOUS
 62
     7
100
AcDbLine
 10
144.733267
 20
217.886993
 30
0.0
 11
144.832415
 21
217.985405
 31
0.0
  0
LINE
  5
11E5
100
AcDbEntity
  8
10000_FRONT
370
    50
390
0
  6
CONTINUOUS
 62
     7
100
AcDbLine
 10
144.733267
 20
217.886993
 30
0.0
 11
144.733267
 21
217.886945
 31
0.0
  0
LINE
  5
11E6
100
AcDbEntity
  8
10000_FRONT
370
    50
390
0
  6
CONTINUOUS
 62
     7
100
AcDbLine
 10
144.733267
 20
217.886945
 30
0.0
 11
144.832415
 21
217.985373
 31
0.0
  0
LINE
  5
11E7
100
AcDbEntity
  8
10000_FRONT
370
    50
390
0
  6
CONTINUOUS
 62
     7
100
AcDbLine
 10
144.68597
 20
217.788124
 30
0.0
 11
144.733267
 21
217.886993
 31
0.0
  0
LINE
  5
11E8
100
AcDbEntity
  8
10000_FRONT
370
    50
390
0
  6
CONTINUOUS
 62
     7
100
AcDbLine
 10
144.68597
 20
217.788124
 30
0.0
 11
144.68597
 21
217.788059
 31
0.0
  0
LINE
  5
11E9
100
AcDbEntity
  8
10000_FRONT
370
    50
390
0
  6
CONTINUOUS
 62
     7
100
AcDbLine
 10
144.68597
 20
217.788059
 30
0.0
 11
144.733267
 21
217.886945
 31
0.0
  0
LINE
  5
11EA
100
AcDbEntity
  8
10000_FRONT
370
    50
390
0
  6
CONTINUOUS
 62
     7
100
AcDbLine
 10
144.6372
 20
217.641661
 30
0.0
 11
144.68597
 21
217.788124
 31
0.0
  0
LINE
  5
11EB
100
AcDbEntity
  8
10000_FRONT
370
    50
390
0
  6
CONTINUOUS
 62
     7
100
AcDbLine
 10
144.6372
 20
217.641661
 30
0.0
 11
144.6372
 21
217.641567
 31
0.0
  0
LINE
  5
11EC
100
AcDbEntity
  8
10000_FRONT
370
    50
390
0
  6
CONTINUOUS
 62
     7
100
AcDbLine
 10
144.6372
 20
217.641567
 30
0.0
 11
144.68597
 21
217.788059
 31
0.0
  0
LINE
  5
11ED
100
AcDbEntity
  8
10000_FRONT
370
    50
390
0
  6
CONTINUOUS
 62
     7
100
AcDbLine
 10
144.6372
 20
217.399403
 30
0.0
 11
144.6372
 21
217.641567
 31
0.0
  0
LINE
  5
11EE
100
AcDbEntity
  8
10000_FRONT
370
    50
390
0
  6
CONTINUOUS
 62
     7
100
AcDbLine
 10
144.68597
 20
217.25291
 30
0.0
 11
144.6372
 21
217.399403
 31
0.0
  0
LINE
  5
11EF
100
AcDbEntity
  8
10000_FRONT
370
    50
390
0
  6
CONTINUOUS
 62
     7
100
AcDbLine
 10
144.733267
 20
217.154025
 30
0.0
 11
144.68597
 21
217.25291
 31
0.0
  0
LINE
  5
11F0
100
AcDbEntity
  8
10000_FRONT
370
    50
390
0
  6
CONTINUOUS
 62
     7
100
AcDbLine
 10
144.845814
 20
217.920622
 30
0.0
 11
144.752695
 21
217.779181
 31
0.0
  0
LINE
  5
11F1
100
AcDbEntity
  8
10000_FRONT
370
    50
390
0
  6
CONTINUOUS
 62
     7
100
AcDbLine
 10
144.752695
 20
217.779181
 30
0.0
 11
144.7058
 21
217.639118
 31
0.0
  0
LINE
  5
11F2
100
AcDbEntity
  8
10000_FRONT
370
    50
390
0
  6
CONTINUOUS
 62
     7
100
AcDbLine
 10
144.7058
 20
217.639118
 30
0.0
 11
144.7058
 21
217.401852
 31
0.0
  0
LINE
  5
11F3
100
AcDbEntity
  8
10000_FRONT
370
    50
390
0
  6
CONTINUOUS
 62
     7
100
AcDbLine
 10
144.752695
 20
217.261982
 30
0.0
 11
144.752695
 21
217.261789
 31
0.0
  0
LINE
  5
11F4
100
AcDbEntity
  8
10000_FRONT
370
    50
390
0
  6
CONTINUOUS
 62
     7
100
AcDbLine
 10
144.7058
 20
217.402005
 30
0.0
 11
144.752695
 21
217.261981
 31
0.0
  0
LINE
  5
11F5
100
AcDbEntity
  8
10000_FRONT
370
    50
390
0
  6
CONTINUOUS
 62
     7
100
AcDbLine
 10
144.7058
 20
217.401852
 30
0.0
 11
144.752695
 21
217.261789
 31
0.0
  0
LINE
  5
11F6
100
AcDbEntity
  8
10000_FRONT
370
    50
390
0
  6
CONTINUOUS
 62
     7
100
AcDbLine
 10
144.845814
 20
217.120585
 30
0.0
 11
144.845814
 21
217.120348
 31
0.0
  0
LINE
  5
11F7
100
AcDbEntity
  8
10000_FRONT
370
    50
390
0
  6
CONTINUOUS
 62
     7
100
AcDbLine
 10
144.752695
 20
217.261981
 30
0.0
 11
144.845814
 21
217.120585
 31
0.0
  0
LINE
  5
11F8
100
AcDbEntity
  8
10000_FRONT
370
    50
390
0
  6
CONTINUOUS
 62
     7
100
AcDbLine
 10
144.752695
 20
217.261789
 30
0.0
 11
144.845814
 21
217.120348
 31
0.0
  0
LINE
  5
11F9
100
AcDbEntity
  8
10000_FRONT
370
    50
390
0
  6
CONTINUOUS
 62
     7
100
AcDbLine
 10
144.938263
 20
217.074984
 30
0.0
 11
144.938263
 21
217.074732
 31
0.0
  0
LINE
  5
11FA
100
AcDbEntity
  8
10000_FRONT
370
    50
390
0
  6
CONTINUOUS
 62
     7
100
AcDbLine
 10
144.845814
 20
217.120585
 30
0.0
 11
144.938263
 21
217.074984
 31
0.0
  0
LINE
  5
11FB
100
AcDbEntity
  8
10000_FRONT
370
    50
390
0
  6
CONTINUOUS
 62
     7
100
AcDbLine
 10
144.845814
 20
217.120348
 30
0.0
 11
144.938263
 21
217.074732
 31
0.0
  0
LINE
  5
11FC
100
AcDbEntity
  8
10000_FRONT
370
    50
390
0
  6
CONTINUOUS
 62
     7
100
AcDbLine
 10
145.124501
 20
217.074984
 30
0.0
 11
145.124501
 21
217.074732
 31
0.0
  0
LINE
  5
11FD
100
AcDbEntity
  8
10000_FRONT
370
    50
390
0
  6
CONTINUOUS
 62
     7
100
AcDbLine
 10
144.938263
 20
217.074984
 30
0.0
 11
145.124501
 21
217.074984
 31
0.0
  0
LINE
  5
11FE
100
AcDbEntity
  8
10000_FRONT
370
    50
390
0
  6
CONTINUOUS
 62
     7
100
AcDbLine
 10
144.938263
 20
217.074732
 30
0.0
 11
145.124501
 21
217.074732
 31
0.0
  0
LINE
  5
11FF
100
AcDbEntity
  8
10000_FRONT
370
    50
390
0
  6
CONTINUOUS
 62
     7
100
AcDbLine
 10
145.21628
 20
217.12181
 30
0.0
 11
145.21628
 21
217.121572
 31
0.0
  0
LINE
  5
1200
100
AcDbEntity
  8
10000_FRONT
370
    50
390
0
  6
CONTINUOUS
 62
     7
100
AcDbLine
 10
145.124501
 20
217.074984
 30
0.0
 11
145.21628
 21
217.121809
 31
0.0
  0
LINE
  5
1201
100
AcDbEntity
  8
10000_FRONT
370
    50
390
0
  6
CONTINUOUS
 62
     7
100
AcDbLine
 10
145.124501
 20
217.074732
 30
0.0
 11
145.21628
 21
217.121572
 31
0.0
  0
LINE
  5
1202
100
AcDbEntity
  8
10000_FRONT
370
    50
390
0
  6
CONTINUOUS
 62
     7
100
AcDbLine
 10
145.261835
 20
217.167411
 30
0.0
 11
145.261835
 21
217.167188
 31
0.0
  0
LINE
  5
1203
100
AcDbEntity
  8
10000_FRONT
370
    50
390
0
  6
CONTINUOUS
 62
     7
100
AcDbLine
 10
145.21628
 20
217.121809
 30
0.0
 11
145.261835
 21
217.167411
 31
0.0
  0
LINE
  5
1204
100
AcDbEntity
  8
10000_FRONT
370
    50
390
0
  6
CONTINUOUS
 62
     7
100
AcDbLine
 10
145.21628
 20
217.121572
 30
0.0
 11
145.261835
 21
217.167188
 31
0.0
  0
LINE
  5
1205
100
AcDbEntity
  8
10000_FRONT
370
    50
390
0
  6
CONTINUOUS
 62
     7
100
AcDbLine
 10
145.312749
 20
217.267185
 30
0.0
 11
145.312749
 21
217.266993
 31
0.0
  0
LINE
  5
1206
100
AcDbEntity
  8
10000_FRONT
370
    50
390
0
  6
CONTINUOUS
 62
     7
100
AcDbLine
 10
145.261835
 20
217.167411
 30
0.0
 11
145.312749
 21
217.267185
 31
0.0
  0
LINE
  5
1207
100
AcDbEntity
  8
10000_FRONT
370
    50
390
0
  6
CONTINUOUS
 62
     7
100
AcDbLine
 10
145.261835
 20
217.167188
 30
0.0
 11
145.312749
 21
217.266993
 31
0.0
  0
LINE
  5
1208
100
AcDbEntity
  8
10000_FRONT
370
    50
390
0
  6
CONTINUOUS
 62
     7
100
AcDbLine
 10
145.385101
 20
217.267185
 30
0.0
 11
145.385101
 21
217.266993
 31
0.0
  0
LINE
  5
1209
100
AcDbEntity
  8
10000_FRONT
370
    50
390
0
  6
CONTINUOUS
 62
     7
100
AcDbLine
 10
145.312749
 20
217.267185
 30
0.0
 11
145.385101
 21
217.267185
 31
0.0
  0
LINE
  5
120A
100
AcDbEntity
  8
10000_FRONT
370
    50
390
0
  6
CONTINUOUS
 62
     7
100
AcDbLine
 10
145.312749
 20
217.266993
 30
0.0
 11
145.385101
 21
217.266993
 31
0.0
  0
LINE
  5
120B
100
AcDbEntity
  8
10000_FRONT
370
    50
390
0
  6
CONTINUOUS
 62
     7
100
AcDbLine
 10
145.385101
 20
217.266993
 30
0.0
 11
145.328827
 21
217.153106
 31
0.0
  0
LINE
  5
120C
100
AcDbEntity
  8
10000_FRONT
370
    50
390
0
  6
CONTINUOUS
 62
     7
100
AcDbLine
 10
145.328827
 20
217.153106
 30
0.0
 11
145.230349
 21
217.054985
 31
0.0
  0
LINE
  5
120D
100
AcDbEntity
  8
10000_FRONT
370
    50
390
0
  6
CONTINUOUS
 62
     7
100
AcDbLine
 10
145.230349
 20
217.054985
 30
0.0
 11
145.129861
 21
217.006155
 31
0.0
  0
LINE
  5
120E
100
AcDbEntity
  8
10000_FRONT
370
    50
390
0
  6
CONTINUOUS
 62
     7
100
AcDbLine
 10
145.129861
 20
217.006155
 30
0.0
 11
144.932233
 21
217.006155
 31
0.0
  0
LINE
  5
120F
100
AcDbEntity
  8
10000_FRONT
370
    50
390
0
  6
CONTINUOUS
 62
     7
100
AcDbLine
 10
144.932233
 20
217.006155
 30
0.0
 11
144.832415
 21
217.055598
 31
0.0
  0
LINE
  5
1210
100
AcDbEntity
  8
10000_FRONT
370
    50
390
0
  6
CONTINUOUS
 62
     7
100
AcDbLine
 10
144.832415
 20
217.055598
 30
0.0
 11
144.733267
 21
217.154025
 31
0.0
  0
LINE
  5
1211
100
AcDbEntity
  8
10000_FRONT
370
    50
390
0
  6
CONTINUOUS
 62
     7
100
AcDbLine
 10
146.976362
 20
217.194935
 30
0.0
 11
146.976362
 21
217.193824
 31
0.0
  0
LINE
  5
1212
100
AcDbEntity
  8
10000_FRONT
370
    50
390
0
  6
CONTINUOUS
 62
     7
100
AcDbLine
 10
146.897782
 20
217.117035
 30
0.0
 11
146.976362
 21
217.194935
 31
0.0
  0
LINE
  5
1213
100
AcDbEntity
  8
10000_FRONT
370
    50
390
0
  6
CONTINUOUS
 62
     7
100
AcDbLine
 10
146.897782
 20
217.117035
 30
0.0
 11
146.897782
 21
217.115899
 31
0.0
  0
LINE
  5
1214
100
AcDbEntity
  8
10000_FRONT
370
    50
390
0
  6
CONTINUOUS
 62
     7
100
AcDbLine
 10
146.976362
 20
217.193824
 30
0.0
 11
146.897782
 21
217.115899
 31
0.0
  0
LINE
  5
1215
100
AcDbEntity
  8
10000_FRONT
370
    50
390
0
  6
CONTINUOUS
 62
     7
100
AcDbLine
 10
146.775904
 20
217.076383
 30
0.0
 11
146.897782
 21
217.117035
 31
0.0
  0
LINE
  5
1216
100
AcDbEntity
  8
10000_FRONT
370
    50
390
0
  6
CONTINUOUS
 62
     7
100
AcDbLine
 10
146.775904
 20
217.076383
 30
0.0
 11
146.775904
 21
217.075233
 31
0.0
  0
LINE
  5
1217
100
AcDbEntity
  8
10000_FRONT
370
    50
390
0
  6
CONTINUOUS
 62
     7
100
AcDbLine
 10
146.897782
 20
217.115899
 30
0.0
 11
146.775904
 21
217.075233
 31
0.0
  0
LINE
  5
1218
100
AcDbEntity
  8
10000_FRONT
370
    50
390
0
  6
CONTINUOUS
 62
     7
100
AcDbLine
 10
146.50865
 20
217.076383
 30
0.0
 11
146.775904
 21
217.076383
 31
0.0
  0
LINE
  5
1219
100
AcDbEntity
  8
10000_FRONT
370
    50
390
0
  6
CONTINUOUS
 62
     7
100
AcDbLine
 10
146.775904
 20
217.075233
 30
0.0
 11
146.50865
 21
217.075233
 31
0.0
  0
LINE
  5
121A
100
AcDbEntity
  8
10000_FRONT
370
    50
390
0
  6
CONTINUOUS
 62
     7
100
AcDbLine
 10
146.50865
 20
217.075233
 30
0.0
 11
146.50865
 21
217.963941
 31
0.0
  0
LINE
  5
121B
100
AcDbEntity
  8
10000_FRONT
370
    50
390
0
  6
CONTINUOUS
 62
     7
100
AcDbLine
 10
146.50865
 20
217.963941
 30
0.0
 11
146.775904
 21
217.963941
 31
0.0
  0
LINE
  5
121C
100
AcDbEntity
  8
10000_FRONT
370
    50
390
0
  6
CONTINUOUS
 62
     7
100
AcDbLine
 10
147.133225
 20
217.643039
 30
0.0
 11
147.133225
 21
217.642047
 31
0.0
  0
LINE
  5
121D
100
AcDbEntity
  8
10000_FRONT
370
    50
390
0
  6
CONTINUOUS
 62
     7
100
AcDbLine
 10
147.035952
 20
217.885768
 30
0.0
 11
147.133225
 21
217.643039
 31
0.0
  0
LINE
  5
121E
100
AcDbEntity
  8
10000_FRONT
370
    50
390
0
  6
CONTINUOUS
 62
     7
100
AcDbLine
 10
147.035952
 20
217.885769
 30
0.0
 11
147.035952
 21
217.884824
 31
0.0
  0
LINE
  5
121F
100
AcDbEntity
  8
10000_FRONT
370
    50
390
0
  6
CONTINUOUS
 62
     7
100
AcDbLine
 10
147.035952
 20
217.884824
 30
0.0
 11
147.133225
 21
217.642047
 31
0.0
  0
LINE
  5
1220
100
AcDbEntity
  8
10000_FRONT
370
    50
390
0
  6
CONTINUOUS
 62
     7
100
AcDbLine
 10
146.935464
 20
217.985405
 30
0.0
 11
147.035952
 21
217.885768
 31
0.0
  0
LINE
  5
1221
100
AcDbEntity
  8
10000_FRONT
370
    50
390
0
  6
CONTINUOUS
 62
     7
100
AcDbLine
 10
146.935464
 20
217.985405
 30
0.0
 11
146.935464
 21
217.984475
 31
0.0
  0
LINE
  5
1222
100
AcDbEntity
  8
10000_FRONT
370
    50
390
0
  6
CONTINUOUS
 62
     7
100
AcDbLine
 10
146.935464
 20
217.984475
 30
0.0
 11
147.035952
 21
217.884824
 31
0.0
  0
LINE
  5
1223
100
AcDbEntity
  8
10000_FRONT
370
    50
390
0
  6
CONTINUOUS
 62
     7
100
AcDbLine
 10
146.787277
 20
218.034841
 30
0.0
 11
146.935464
 21
217.985405
 31
0.0
  0
LINE
  5
1224
100
AcDbEntity
  8
10000_FRONT
370
    50
390
0
  6
CONTINUOUS
 62
     7
100
AcDbLine
 10
146.787277
 20
218.034841
 30
0.0
 11
146.787277
 21
218.033918
 31
0.0
  0
LINE
  5
1225
100
AcDbEntity
  8
10000_FRONT
370
    50
390
0
  6
CONTINUOUS
 62
     7
100
AcDbLine
 10
146.787277
 20
218.033918
 30
0.0
 11
146.935464
 21
217.984475
 31
0.0
  0
LINE
  5
1226
100
AcDbEntity
  8
10000_FRONT
370
    50
390
0
  6
CONTINUOUS
 62
     7
100
AcDbLine
 10
146.43865
 20
218.034841
 30
0.0
 11
146.787277
 21
218.034841
 31
0.0
  0
LINE
  5
1227
100
AcDbEntity
  8
10000_FRONT
370
    50
390
0
  6
CONTINUOUS
 62
     7
100
AcDbLine
 10
146.43865
 20
218.034841
 30
0.0
 11
146.43865
 21
218.033918
 31
0.0
  0
LINE
  5
1228
100
AcDbEntity
  8
10000_FRONT
370
    50
390
0
  6
CONTINUOUS
 62
     7
100
AcDbLine
 10
146.43865
 20
218.033918
 30
0.0
 11
146.787277
 21
218.033918
 31
0.0
  0
LINE
  5
1229
100
AcDbEntity
  8
10000_FRONT
370
    50
390
0
  6
CONTINUOUS
 62
     7
100
AcDbLine
 10
146.43865
 20
217.005256
 30
0.0
 11
146.43865
 21
218.033918
 31
0.0
  0
LINE
  5
122A
100
AcDbEntity
  8
10000_FRONT
370
    50
390
0
  6
CONTINUOUS
 62
     7
100
AcDbLine
 10
146.775904
 20
217.963941
 30
0.0
 11
146.897782
 21
217.923276
 31
0.0
  0
LINE
  5
122B
100
AcDbEntity
  8
10000_FRONT
370
    50
390
0
  6
CONTINUOUS
 62
     7
100
AcDbLine
 10
146.897782
 20
217.923276
 30
0.0
 11
146.976362
 21
217.845351
 31
0.0
  0
LINE
  5
122C
100
AcDbEntity
  8
10000_FRONT
370
    50
390
0
  6
CONTINUOUS
 62
     7
100
AcDbLine
 10
146.976362
 20
217.845351
 30
0.0
 11
147.063225
 21
217.628554
 31
0.0
  0
LINE
  5
122D
100
AcDbEntity
  8
10000_FRONT
370
    50
390
0
  6
CONTINUOUS
 62
     7
100
AcDbLine
 10
147.063225
 20
217.628554
 30
0.0
 11
147.063225
 21
217.41062
 31
0.0
  0
LINE
  5
122E
100
AcDbEntity
  8
10000_FRONT
370
    50
390
0
  6
CONTINUOUS
 62
     7
100
AcDbLine
 10
146.976362
 20
217.194935
 30
0.0
 11
147.063225
 21
217.411669
 31
0.0
  0
LINE
  5
122F
100
AcDbEntity
  8
10000_FRONT
370
    50
390
0
  6
CONTINUOUS
 62
     7
100
AcDbLine
 10
147.063225
 20
217.41062
 30
0.0
 11
146.976362
 21
217.193824
 31
0.0
  0
LINE
  5
1230
100
AcDbEntity
  8
10000_FRONT
370
    50
390
0
  6
CONTINUOUS
 62
     7
100
AcDbLine
 10
147.133225
 20
217.642047
 30
0.0
 11
147.133225
 21
217.397128
 31
0.0
  0
LINE
  5
1231
100
AcDbEntity
  8
10000_FRONT
370
    50
390
0
  6
CONTINUOUS
 62
     7
100
AcDbLine
 10
147.133225
 20
217.397128
 30
0.0
 11
147.035952
 21
217.154351
 31
0.0
  0
LINE
  5
1232
100
AcDbEntity
  8
10000_FRONT
370
    50
390
0
  6
CONTINUOUS
 62
     7
100
AcDbLine
 10
147.035952
 20
217.154351
 30
0.0
 11
146.935464
 21
217.0547
 31
0.0
  0
LINE
  5
1233
100
AcDbEntity
  8
10000_FRONT
370
    50
390
0
  6
CONTINUOUS
 62
     7
100
AcDbLine
 10
146.935464
 20
217.0547
 30
0.0
 11
146.787277
 21
217.005256
 31
0.0
  0
LINE
  5
1234
100
AcDbEntity
  8
10000_FRONT
370
    50
390
0
  6
CONTINUOUS
 62
     7
100
AcDbLine
 10
146.787277
 20
217.005256
 30
0.0
 11
146.43865
 21
217.005256
 31
0.0
  0
LINE
  5
1235
100
AcDbEntity
  8
10000_FRONT
370
    50
390
0
  6
CONTINUOUS
 62
     7
100
AcDbLine
 10
149.234473
 20
217.936122
 30
0.0
 11
149.234473
 21
217.936083
 31
0.0
  0
LINE
  5
1236
100
AcDbEntity
  8
10000_FRONT
370
    50
390
0
  6
CONTINUOUS
 62
     7
100
AcDbLine
 10
149.185568
 20
217.835722
 30
0.0
 11
149.234473
 21
217.936122
 31
0.0
  0
LINE
  5
1237
100
AcDbEntity
  8
10000_FRONT
370
    50
390
0
  6
CONTINUOUS
 62
     7
100
AcDbLine
 10
149.185568
 20
217.835722
 30
0.0
 11
149.185568
 21
217.835665
 31
0.0
  0
LINE
  5
1238
100
AcDbEntity
  8
10000_FRONT
370
    50
390
0
  6
CONTINUOUS
 62
     7
100
AcDbLine
 10
149.185568
 20
217.835665
 30
0.0
 11
149.234473
 21
217.936083
 31
0.0
  0
LINE
  5
1239
100
AcDbEntity
  8
10000_FRONT
370
    50
390
0
  6
CONTINUOUS
 62
     7
100
AcDbLine
 10
149.185568
 20
217.773977
 30
0.0
 11
149.185568
 21
217.835665
 31
0.0
  0
LINE
  5
123A
100
AcDbEntity
  8
10000_FRONT
370
    50
390
0
  6
CONTINUOUS
 62
     7
100
AcDbLine
 10
149.25524
 20
217.773977
 30
0.0
 11
149.185568
 21
217.773977
 31
0.0
  0
LINE
  5
123B
100
AcDbEntity
  8
10000_FRONT
370
    50
390
0
  6
CONTINUOUS
 62
     7
100
AcDbLine
 10
149.25524
 20
217.830308
 30
0.0
 11
149.25524
 21
217.773977
 31
0.0
  0
LINE
  5
123C
100
AcDbEntity
  8
10000_FRONT
370
    50
390
0
  6
CONTINUOUS
 62
     7
100
AcDbLine
 10
149.300795
 20
217.920622
 30
0.0
 11
149.25524
 21
217.830308
 31
0.0
  0
LINE
  5
123D
100
AcDbEntity
  8
10000_FRONT
370
    50
390
0
  6
CONTINUOUS
 62
     7
100
AcDbLine
 10
149.391235
 20
217.966239
 30
0.0
 11
149.300795
 21
217.920622
 31
0.0
  0
LINE
  5
123E
100
AcDbEntity
  8
10000_FRONT
370
    50
390
0
  6
CONTINUOUS
 62
     7
100
AcDbLine
 10
149.577473
 20
217.966239
 30
0.0
 11
149.391235
 21
217.966239
 31
0.0
  0
LINE
  5
123F
100
AcDbEntity
  8
10000_FRONT
370
    50
390
0
  6
CONTINUOUS
 62
     7
100
AcDbLine
 10
149.668582
 20
217.920775
 30
0.0
 11
149.577473
 21
217.966239
 31
0.0
  0
LINE
  5
1240
100
AcDbEntity
  8
10000_FRONT
370
    50
390
0
  6
CONTINUOUS
 62
     7
100
AcDbLine
 10
149.713467
 20
217.830308
 30
0.0
 11
149.668582
 21
217.920775
 31
0.0
  0
LINE
  5
1241
100
AcDbEntity
  8
10000_FRONT
370
    50
390
0
  6
CONTINUOUS
 62
     7
100
AcDbLine
 10
149.713467
 20
217.739994
 30
0.0
 11
149.713467
 21
217.830308
 31
0.0
  0
LINE
  5
1242
100
AcDbEntity
  8
10000_FRONT
370
    50
390
0
  6
CONTINUOUS
 62
     7
100
AcDbLine
 10
149.667242
 20
217.646253
 30
0.0
 11
149.713467
 21
217.740068
 31
0.0
  0
LINE
  5
1243
100
AcDbEntity
  8
10000_FRONT
370
    50
390
0
  6
CONTINUOUS
 62
     7
100
AcDbLine
 10
149.667242
 20
217.646252
 30
0.0
 11
149.667242
 21
217.64616
 31
0.0
  0
LINE
  5
1244
100
AcDbEntity
  8
10000_FRONT
370
    50
390
0
  6
CONTINUOUS
 62
     7
100
AcDbLine
 10
149.667242
 20
217.64616
 30
0.0
 11
149.713467
 21
217.739994
 31
0.0
  0
LINE
  5
1245
100
AcDbEntity
  8
10000_FRONT
370
    50
390
0
  6
CONTINUOUS
 62
     7
100
AcDbLine
 10
149.524549
 20
217.456179
 30
0.0
 11
149.667242
 21
217.646253
 31
0.0
  0
LINE
  5
1246
100
AcDbEntity
  8
10000_FRONT
370
    50
390
0
  6
CONTINUOUS
 62
     7
100
AcDbLine
 10
149.524549
 20
217.456179
 30
0.0
 11
149.524549
 21
217.456041
 31
0.0
  0
LINE
  5
1247
100
AcDbEntity
  8
10000_FRONT
370
    50
390
0
  6
CONTINUOUS
 62
     7
100
AcDbLine
 10
149.524549
 20
217.456041
 30
0.0
 11
149.667242
 21
217.64616
 31
0.0
  0
LINE
  5
1248
100
AcDbEntity
  8
10000_FRONT
370
    50
390
0
  6
CONTINUOUS
 62
     7
100
AcDbLine
 10
149.123936
 20
217.006431
 30
0.0
 11
149.524549
 21
217.456179
 31
0.0
  0
LINE
  5
1249
100
AcDbEntity
  8
10000_FRONT
370
    50
390
0
  6
CONTINUOUS
 62
     7
100
AcDbLine
 10
149.123936
 20
217.00643
 30
0.0
 11
149.123936
 21
217.006155
 31
0.0
  0
LINE
  5
124A
100
AcDbEntity
  8
10000_FRONT
370
    50
390
0
  6
CONTINUOUS
 62
     7
100
AcDbLine
 10
149.123936
 20
217.006155
 30
0.0
 11
149.524549
 21
217.456041
 31
0.0
  0
LINE
  5
124B
100
AcDbEntity
  8
10000_FRONT
370
    50
390
0
  6
CONTINUOUS
 62
     7
100
AcDbLine
 10
149.285387
 20
217.986017
 30
0.0
 11
149.285387
 21
217.985986
 31
0.0
  0
LINE
  5
124C
100
AcDbEntity
  8
10000_FRONT
370
    50
390
0
  6
CONTINUOUS
 62
     7
100
AcDbLine
 10
149.234473
 20
217.936122
 30
0.0
 11
149.285387
 21
217.986017
 31
0.0
  0
LINE
  5
124D
100
AcDbEntity
  8
10000_FRONT
370
    50
390
0
  6
CONTINUOUS
 62
     7
100
AcDbLine
 10
149.234473
 20
217.936083
 30
0.0
 11
149.285387
 21
217.985986
 31
0.0
  0
LINE
  5
124E
100
AcDbEntity
  8
10000_FRONT
370
    50
390
0
  6
CONTINUOUS
 62
     7
100
AcDbLine
 10
149.385875
 20
218.034841
 30
0.0
 11
149.385875
 21
218.034816
 31
0.0
  0
LINE
  5
124F
100
AcDbEntity
  8
10000_FRONT
370
    50
390
0
  6
CONTINUOUS
 62
     7
100
AcDbLine
 10
149.285387
 20
217.986017
 30
0.0
 11
149.385875
 21
218.034841
 31
0.0
  0
LINE
  5
1250
100
AcDbEntity
  8
10000_FRONT
370
    50
390
0
  6
CONTINUOUS
 62
     7
100
AcDbLine
 10
149.285387
 20
217.985986
 30
0.0
 11
149.385875
 21
218.034816
 31
0.0
  0
LINE
  5
1251
100
AcDbEntity
  8
10000_FRONT
370
    50
390
0
  6
CONTINUOUS
 62
     7
100
AcDbLine
 10
149.583502
 20
218.034841
 30
0.0
 11
149.583502
 21
218.034816
 31
0.0
  0
LINE
  5
1252
100
AcDbEntity
  8
10000_FRONT
370
    50
390
0
  6
CONTINUOUS
 62
     7
100
AcDbLine
 10
149.385875
 20
218.034841
 30
0.0
 11
149.583502
 21
218.034841
 31
0.0
  0
LINE
  5
1253
100
AcDbEntity
  8
10000_FRONT
370
    50
390
0
  6
CONTINUOUS
 62
     7
100
AcDbLine
 10
149.385875
 20
218.034816
 30
0.0
 11
149.583502
 21
218.034816
 31
0.0
  0
LINE
  5
1254
100
AcDbEntity
  8
10000_FRONT
370
    50
390
0
  6
CONTINUOUS
 62
     7
100
AcDbLine
 10
149.68332
 20
217.985251
 30
0.0
 11
149.68332
 21
217.98522
 31
0.0
  0
LINE
  5
1255
100
AcDbEntity
  8
10000_FRONT
370
    50
390
0
  6
CONTINUOUS
 62
     7
100
AcDbLine
 10
149.583502
 20
218.034841
 30
0.0
 11
149.68332
 21
217.985252
 31
0.0
  0
LINE
  5
1256
100
AcDbEntity
  8
10000_FRONT
370
    50
390
0
  6
CONTINUOUS
 62
     7
100
AcDbLine
 10
149.583502
 20
218.034816
 30
0.0
 11
149.68332
 21
217.98522
 31
0.0
  0
LINE
  5
1257
100
AcDbEntity
  8
10000_FRONT
370
    50
390
0
  6
CONTINUOUS
 62
     7
100
AcDbLine
 10
149.734235
 20
217.935051
 30
0.0
 11
149.734235
 21
217.935011
 31
0.0
  0
LINE
  5
1258
100
AcDbEntity
  8
10000_FRONT
370
    50
390
0
  6
CONTINUOUS
 62
     7
100
AcDbLine
 10
149.68332
 20
217.985252
 30
0.0
 11
149.734235
 21
217.935051
 31
0.0
  0
LINE
  5
1259
100
AcDbEntity
  8
10000_FRONT
370
    50
390
0
  6
CONTINUOUS
 62
     7
100
AcDbLine
 10
149.68332
 20
217.98522
 30
0.0
 11
149.734235
 21
217.935011
 31
0.0
  0
LINE
  5
125A
100
AcDbEntity
  8
10000_FRONT
370
    50
390
0
  6
CONTINUOUS
 62
     7
100
AcDbLine
 10
149.783809
 20
217.834651
 30
0.0
 11
149.783809
 21
217.834594
 31
0.0
  0
LINE
  5
125B
100
AcDbEntity
  8
10000_FRONT
370
    50
390
0
  6
CONTINUOUS
 62
     7
100
AcDbLine
 10
149.734235
 20
217.935051
 30
0.0
 11
149.783809
 21
217.83465
 31
0.0
  0
LINE
  5
125C
100
AcDbEntity
  8
10000_FRONT
370
    50
390
0
  6
CONTINUOUS
 62
     7
100
AcDbLine
 10
149.734235
 20
217.935011
 30
0.0
 11
149.783809
 21
217.834594
 31
0.0
  0
LINE
  5
125D
100
AcDbEntity
  8
10000_FRONT
370
    50
390
0
  6
CONTINUOUS
 62
     7
100
AcDbLine
 10
149.783809
 20
217.834594
 30
0.0
 11
149.783809
 21
217.732799
 31
0.0
  0
LINE
  5
125E
100
AcDbEntity
  8
10000_FRONT
370
    50
390
0
  6
CONTINUOUS
 62
     7
100
AcDbLine
 10
149.783809
 20
217.732799
 30
0.0
 11
149.734235
 21
217.634372
 31
0.0
  0
LINE
  5
125F
100
AcDbEntity
  8
10000_FRONT
370
    50
390
0
  6
CONTINUOUS
 62
     7
100
AcDbLine
 10
149.734235
 20
217.634372
 30
0.0
 11
149.588861
 21
217.440886
 31
0.0
  0
LINE
  5
1260
100
AcDbEntity
  8
10000_FRONT
370
    50
390
0
  6
CONTINUOUS
 62
     7
100
AcDbLine
 10
149.588861
 20
217.440886
 30
0.0
 11
149.269309
 21
217.074732
 31
0.0
  0
LINE
  5
1261
100
AcDbEntity
  8
10000_FRONT
370
    50
390
0
  6
CONTINUOUS
 62
     7
100
AcDbLine
 10
149.831373
 20
217.074984
 30
0.0
 11
149.831373
 21
217.074732
 31
0.0
  0
LINE
  5
1262
100
AcDbEntity
  8
10000_FRONT
370
    50
390
0
  6
CONTINUOUS
 62
     7
100
AcDbLine
 10
149.269529
 20
217.074984
 30
0.0
 11
149.831373
 21
217.074984
 31
0.0
  0
LINE
  5
1263
100
AcDbEntity
  8
10000_FRONT
370
    50
390
0
  6
CONTINUOUS
 62
     7
100
AcDbLine
 10
149.269309
 20
217.074732
 30
0.0
 11
149.831373
 21
217.074732
 31
0.0
  0
LINE
  5
1264
100
AcDbEntity
  8
10000_FRONT
370
    50
390
0
  6
CONTINUOUS
 62
     7
100
AcDbLine
 10
149.831373
 20
217.074732
 30
0.0
 11
149.831373
 21
217.006155
 31
0.0
  0
LINE
  5
1265
100
AcDbEntity
  8
10000_FRONT
370
    50
390
0
  6
CONTINUOUS
 62
     7
100
AcDbLine
 10
149.831373
 20
217.006155
 30
0.0
 11
149.123936
 21
217.006155
 31
0.0
  0
LINE
  5
1266
100
AcDbEntity
  8
10000_FRONT
370
    50
390
0
  6
CONTINUOUS
 62
     7
100
AcDbLine
 10
151.871875
 20
217.505915
 30
0.0
 11
151.871875
 21
217.50579
 31
0.0
  0
LINE
  5
1267
100
AcDbEntity
  8
10000_FRONT
370
    50
390
0
  6
CONTINUOUS
 62
     7
100
AcDbLine
 10
150.985568
 20
217.505915
 30
0.0
 11
151.871875
 21
217.505915
 31
0.0
  0
LINE
  5
1268
100
AcDbEntity
  8
10000_FRONT
370
    50
390
0
  6
CONTINUOUS
 62
     7
100
AcDbLine
 10
150.985568
 20
217.505915
 30
0.0
 11
150.985568
 21
217.50579
 31
0.0
  0
LINE
  5
1269
100
AcDbEntity
  8
10000_FRONT
370
    50
390
0
  6
CONTINUOUS
 62
     7
100
AcDbLine
 10
150.985568
 20
217.50579
 30
0.0
 11
151.871875
 21
217.50579
 31
0.0
  0
LINE
  5
126A
100
AcDbEntity
  8
10000_FRONT
370
    50
390
0
  6
CONTINUOUS
 62
     7
100
AcDbLine
 10
150.985568
 20
217.437213
 30
0.0
 11
150.985568
 21
217.50579
 31
0.0
  0
LINE
  5
126B
100
AcDbEntity
  8
10000_FRONT
370
    50
390
0
  6
CONTINUOUS
 62
     7
100
AcDbLine
 10
151.871875
 20
217.50579
 30
0.0
 11
151.871875
 21
217.437213
 31
0.0
  0
LINE
  5
126C
100
AcDbEntity
  8
10000_FRONT
370
    50
390
0
  6
CONTINUOUS
 62
     7
100
AcDbLine
 10
151.871875
 20
217.437213
 30
0.0
 11
150.985568
 21
217.437213
 31
0.0
  0
LINE
  5
126D
100
AcDbEntity
  8
10000_FRONT
370
    50
390
0
  6
CONTINUOUS
 62
     7
100
AcDbLine
 10
152.999613
 20
217.318753
 30
0.0
 11
153.3674
 21
217.847779
 31
0.0
  0
LINE
  5
126E
100
AcDbEntity
  8
10000_FRONT
370
    50
390
0
  6
CONTINUOUS
 62
     7
100
AcDbLine
 10
153.3674
 20
217.847779
 30
0.0
 11
153.3674
 21
217.318753
 31
0.0
  0
LINE
  5
126F
100
AcDbEntity
  8
10000_FRONT
370
    50
390
0
  6
CONTINUOUS
 62
     7
100
AcDbLine
 10
153.628268
 20
217.319827
 30
0.0
 11
153.628268
 21
217.318753
 31
0.0
  0
LINE
  5
1270
100
AcDbEntity
  8
10000_FRONT
370
    50
390
0
  6
CONTINUOUS
 62
     7
100
AcDbLine
 10
153.628268
 20
217.318753
 30
0.0
 11
153.628268
 21
217.250176
 31
0.0
  0
LINE
  5
1271
100
AcDbEntity
  8
10000_FRONT
370
    50
390
0
  6
CONTINUOUS
 62
     7
100
AcDbLine
 10
153.436
 20
217.319827
 30
0.0
 11
153.628268
 21
217.319827
 31
0.0
  0
LINE
  5
1272
100
AcDbEntity
  8
10000_FRONT
370
    50
390
0
  6
CONTINUOUS
 62
     7
100
AcDbLine
 10
153.436
 20
217.318753
 30
0.0
 11
153.628268
 21
217.318753
 31
0.0
  0
LINE
  5
1273
100
AcDbEntity
  8
10000_FRONT
370
    50
390
0
  6
CONTINUOUS
 62
     7
100
AcDbLine
 10
153.436
 20
218.034841
 30
0.0
 11
153.436
 21
218.033918
 31
0.0
  0
LINE
  5
1274
100
AcDbEntity
  8
10000_FRONT
370
    50
390
0
  6
CONTINUOUS
 62
     7
100
AcDbLine
 10
153.436
 20
218.033918
 30
0.0
 11
153.436
 21
217.318753
 31
0.0
  0
LINE
  5
1275
100
AcDbEntity
  8
10000_FRONT
370
    50
390
0
  6
CONTINUOUS
 62
     7
100
AcDbLine
 10
153.41952
 20
218.034841
 30
0.0
 11
153.436
 21
218.034841
 31
0.0
  0
LINE
  5
1276
100
AcDbEntity
  8
10000_FRONT
370
    50
390
0
  6
CONTINUOUS
 62
     7
100
AcDbLine
 10
153.41952
 20
218.034841
 30
0.0
 11
153.41952
 21
218.033918
 31
0.0
  0
LINE
  5
1277
100
AcDbEntity
  8
10000_FRONT
370
    50
390
0
  6
CONTINUOUS
 62
     7
100
AcDbLine
 10
153.41952
 20
218.033918
 30
0.0
 11
153.436
 21
218.033918
 31
0.0
  0
LINE
  5
1278
100
AcDbEntity
  8
10000_FRONT
370
    50
390
0
  6
CONTINUOUS
 62
     7
100
AcDbLine
 10
152.875007
 20
217.251269
 30
0.0
 11
153.41952
 21
218.034841
 31
0.0
  0
LINE
  5
1279
100
AcDbEntity
  8
10000_FRONT
370
    50
390
0
  6
CONTINUOUS
 62
     7
100
AcDbLine
 10
152.875007
 20
217.25127
 30
0.0
 11
152.875007
 21
217.250176
 31
0.0
  0
LINE
  5
127A
100
AcDbEntity
  8
10000_FRONT
370
    50
390
0
  6
CONTINUOUS
 62
     7
100
AcDbLine
 10
152.875007
 20
217.250176
 30
0.0
 11
153.41952
 21
218.033918
 31
0.0
  0
LINE
  5
127B
100
AcDbEntity
  8
10000_FRONT
370
    50
390
0
  6
CONTINUOUS
 62
     7
100
AcDbLine
 10
153.000359
 20
217.319827
 30
0.0
 11
153.3674
 21
217.319827
 31
0.0
  0
LINE
  5
127C
100
AcDbEntity
  8
10000_FRONT
370
    50
390
0
  6
CONTINUOUS
 62
     7
100
AcDbLine
 10
153.3674
 20
217.318753
 30
0.0
 11
152.999613
 21
217.318753
 31
0.0
  0
LINE
  5
127D
100
AcDbEntity
  8
10000_FRONT
370
    50
390
0
  6
CONTINUOUS
 62
     7
100
AcDbLine
 10
153.628268
 20
217.250176
 30
0.0
 11
153.436
 21
217.250176
 31
0.0
  0
LINE
  5
127E
100
AcDbEntity
  8
10000_FRONT
370
    50
390
0
  6
CONTINUOUS
 62
     7
100
AcDbLine
 10
153.436
 20
217.250176
 30
0.0
 11
153.436
 21
217.005256
 31
0.0
  0
LINE
  5
127F
100
AcDbEntity
  8
10000_FRONT
370
    50
390
0
  6
CONTINUOUS
 62
     7
100
AcDbLine
 10
153.436
 20
217.005256
 30
0.0
 11
153.3674
 21
217.005256
 31
0.0
  0
LINE
  5
1280
100
AcDbEntity
  8
10000_FRONT
370
    50
390
0
  6
CONTINUOUS
 62
     7
100
AcDbLine
 10
153.3674
 20
217.005256
 30
0.0
 11
153.3674
 21
217.250176
 31
0.0
  0
LINE
  5
1281
100
AcDbEntity
  8
10000_FRONT
370
    50
390
0
  6
CONTINUOUS
 62
     7
100
AcDbLine
 10
153.3674
 20
217.250176
 30
0.0
 11
152.875007
 21
217.250176
 31
0.0
  0
LINE
  5
1282
100
AcDbEntity
  8
10000_FRONT
370
    50
390
0
  6
CONTINUOUS
 62
     7
100
AcDbLine
 10
155.563955
 20
218.034841
 30
0.0
 11
155.563955
 21
218.033918
 31
0.0
  0
LINE
  5
1283
100
AcDbEntity
  8
10000_FRONT
370
    50
390
0
  6
CONTINUOUS
 62
     7
100
AcDbLine
 10
155.234354
 20
217.189906
 30
0.0
 11
155.563955
 21
218.034841
 31
0.0
  0
LINE
  5
1284
100
AcDbEntity
  8
10000_FRONT
370
    50
390
0
  6
CONTINUOUS
 62
     7
100
AcDbLine
 10
155.234354
 20
217.189906
 30
0.0
 11
155.234354
 21
217.188793
 31
0.0
  0
LINE
  5
1285
100
AcDbEntity
  8
10000_FRONT
370
    50
390
0
  6
CONTINUOUS
 62
     7
100
AcDbLine
 10
155.234354
 20
217.188793
 30
0.0
 11
155.563955
 21
218.033918
 31
0.0
  0
LINE
  5
1286
100
AcDbEntity
  8
10000_FRONT
370
    50
390
0
  6
CONTINUOUS
 62
     7
100
AcDbLine
 10
154.905422
 20
218.034841
 30
0.0
 11
155.234354
 21
217.189905
 31
0.0
  0
LINE
  5
1287
100
AcDbEntity
  8
10000_FRONT
370
    50
390
0
  6
CONTINUOUS
 62
     7
100
AcDbLine
 10
154.905422
 20
218.034841
 30
0.0
 11
154.905422
 21
218.033918
 31
0.0
  0
LINE
  5
1288
100
AcDbEntity
  8
10000_FRONT
370
    50
390
0
  6
CONTINUOUS
 62
     7
100
AcDbLine
 10
154.905422
 20
218.033918
 30
0.0
 11
155.234354
 21
217.188793
 31
0.0
  0
LINE
  5
1289
100
AcDbEntity
  8
10000_FRONT
370
    50
390
0
  6
CONTINUOUS
 62
     7
100
AcDbLine
 10
154.83374
 20
218.034841
 30
0.0
 11
154.905422
 21
218.034841
 31
0.0
  0
LINE
  5
128A
100
AcDbEntity
  8
10000_FRONT
370
    50
390
0
  6
CONTINUOUS
 62
     7
100
AcDbLine
 10
154.83374
 20
218.034841
 30
0.0
 11
154.83374
 21
218.033918
 31
0.0
  0
LINE
  5
128B
100
AcDbEntity
  8
10000_FRONT
370
    50
390
0
  6
CONTINUOUS
 62
     7
100
AcDbLine
 10
154.83374
 20
218.033918
 30
0.0
 11
154.905422
 21
218.033918
 31
0.0
  0
LINE
  5
128C
100
AcDbEntity
  8
10000_FRONT
370
    50
390
0
  6
CONTINUOUS
 62
     7
100
AcDbLine
 10
155.226985
 20
217.005256
 30
0.0
 11
154.83374
 21
218.033918
 31
0.0
  0
LINE
  5
128D
100
AcDbEntity
  8
10000_FRONT
370
    50
390
0
  6
CONTINUOUS
 62
     7
100
AcDbLine
 10
155.634967
 20
218.034841
 30
0.0
 11
155.634967
 21
218.033918
 31
0.0
  0
LINE
  5
128E
100
AcDbEntity
  8
10000_FRONT
370
    50
390
0
  6
CONTINUOUS
 62
     7
100
AcDbLine
 10
155.563955
 20
218.034841
 30
0.0
 11
155.634967
 21
218.034841
 31
0.0
  0
LINE
  5
128F
100
AcDbEntity
  8
10000_FRONT
370
    50
390
0
  6
CONTINUOUS
 62
     7
100
AcDbLine
 10
155.563955
 20
218.033918
 30
0.0
 11
155.634967
 21
218.033918
 31
0.0
  0
LINE
  5
1290
100
AcDbEntity
  8
10000_FRONT
370
    50
390
0
  6
CONTINUOUS
 62
     7
100
AcDbLine
 10
155.634967
 20
218.033918
 30
0.0
 11
155.241723
 21
217.005256
 31
0.0
  0
LINE
  5
1291
100
AcDbEntity
  8
10000_FRONT
370
    50
390
0
  6
CONTINUOUS
 62
     7
100
AcDbLine
 10
155.241723
 20
217.005256
 30
0.0
 11
155.226985
 21
217.005256
 31
0.0
  0
LINE
  5
1292
100
AcDbEntity
  8
10000_FRONT
370
    50
390
0
  6
CONTINUOUS
 62
     7
100
AcDbLine
 10
154.513175
 20
217.590614
 30
0.0
 11
154.513175
 21
217.449939
 31
0.0
  0
LINE
  5
1293
100
AcDbEntity
  8
10000_FRONT
370
    50
390
0
  6
CONTINUOUS
 62
     7
100
AcDbLine
 10
154.464673
 20
217.21332
 30
0.0
 11
154.513175
 21
217.450976
 31
0.0
  0
LINE
  5
1294
100
AcDbEntity
  8
10000_FRONT
370
    50
390
0
  6
CONTINUOUS
 62
     7
100
AcDbLine
 10
154.464673
 20
217.213319
 30
0.0
 11
154.464673
 21
217.212213
 31
0.0
  0
LINE
  5
1295
100
AcDbEntity
  8
10000_FRONT
370
    50
390
0
  6
CONTINUOUS
 62
     7
100
AcDbLine
 10
154.513175
 20
217.449939
 30
0.0
 11
154.464673
 21
217.212213
 31
0.0
  0
LINE
  5
1296
100
AcDbEntity
  8
10000_FRONT
370
    50
390
0
  6
CONTINUOUS
 62
     7
100
AcDbLine
 10
154.400092
 20
217.116301
 30
0.0
 11
154.464673
 21
217.213319
 31
0.0
  0
LINE
  5
1297
100
AcDbEntity
  8
10000_FRONT
370
    50
390
0
  6
CONTINUOUS
 62
     7
100
AcDbLine
 10
154.400092
 20
217.1163
 30
0.0
 11
154.400092
 21
217.115165
 31
0.0
  0
LINE
  5
1298
100
AcDbEntity
  8
10000_FRONT
370
    50
390
0
  6
CONTINUOUS
 62
     7
100
AcDbLine
 10
154.464673
 20
217.212213
 30
0.0
 11
154.400092
 21
217.115165
 31
0.0
  0
LINE
  5
1299
100
AcDbEntity
  8
10000_FRONT
370
    50
390
0
  6
CONTINUOUS
 62
     7
100
AcDbLine
 10
154.281651
 20
217.076056
 30
0.0
 11
154.400092
 21
217.116301
 31
0.0
  0
LINE
  5
129A
100
AcDbEntity
  8
10000_FRONT
370
    50
390
0
  6
CONTINUOUS
 62
     7
100
AcDbLine
 10
154.28165
 20
217.076055
 30
0.0
 11
154.28165
 21
217.074905
 31
0.0
  0
LINE
  5
129B
100
AcDbEntity
  8
10000_FRONT
370
    50
390
0
  6
CONTINUOUS
 62
     7
100
AcDbLine
 10
154.400092
 20
217.115165
 30
0.0
 11
154.28165
 21
217.074905
 31
0.0
  0
LINE
  5
129C
100
AcDbEntity
  8
10000_FRONT
370
    50
390
0
  6
CONTINUOUS
 62
     7
100
AcDbLine
 10
154.187995
 20
217.076055
 30
0.0
 11
154.28165
 21
217.076055
 31
0.0
  0
LINE
  5
129D
100
AcDbEntity
  8
10000_FRONT
370
    50
390
0
  6
CONTINUOUS
 62
     7
100
AcDbLine
 10
154.187995
 20
217.076055
 30
0.0
 11
154.187995
 21
217.074905
 31
0.0
  0
LINE
  5
129E
100
AcDbEntity
  8
10000_FRONT
370
    50
390
0
  6
CONTINUOUS
 62
     7
100
AcDbLine
 10
154.28165
 20
217.074905
 30
0.0
 11
154.187995
 21
217.074905
 31
0.0
  0
LINE
  5
129F
100
AcDbEntity
  8
10000_FRONT
370
    50
390
0
  6
CONTINUOUS
 62
     7
100
AcDbLine
 10
154.068883
 20
217.116301
 30
0.0
 11
154.187995
 21
217.076056
 31
0.0
  0
LINE
  5
12A0
100
AcDbEntity
  8
10000_FRONT
370
    50
390
0
  6
CONTINUOUS
 62
     7
100
AcDbLine
 10
154.068883
 20
217.1163
 30
0.0
 11
154.068883
 21
217.115165
 31
0.0
  0
LINE
  5
12A1
100
AcDbEntity
  8
10000_FRONT
370
    50
390
0
  6
CONTINUOUS
 62
     7
100
AcDbLine
 10
154.187995
 20
217.074905
 30
0.0
 11
154.068883
 21
217.115165
 31
0.0
  0
LINE
  5
12A2
100
AcDbEntity
  8
10000_FRONT
370
    50
390
0
  6
CONTINUOUS
 62
     7
100
AcDbLine
 10
154.004302
 20
217.213319
 30
0.0
 11
154.068883
 21
217.116301
 31
0.0
  0
LINE
  5
12A3
100
AcDbEntity
  8
10000_FRONT
370
    50
390
0
  6
CONTINUOUS
 62
     7
100
AcDbLine
 10
154.004302
 20
217.213319
 30
0.0
 11
154.004302
 21
217.212213
 31
0.0
  0
LINE
  5
12A4
100
AcDbEntity
  8
10000_FRONT
370
    50
390
0
  6
CONTINUOUS
 62
     7
100
AcDbLine
 10
154.068883
 20
217.115165
 30
0.0
 11
154.004302
 21
217.212213
 31
0.0
  0
LINE
  5
12A5
100
AcDbEntity
  8
10000_FRONT
370
    50
390
0
  6
CONTINUOUS
 62
     7
100
AcDbLine
 10
153.9558
 20
217.450976
 30
0.0
 11
154.004302
 21
217.213319
 31
0.0
  0
LINE
  5
12A6
100
AcDbEntity
  8
10000_FRONT
370
    50
390
0
  6
CONTINUOUS
 62
     7
100
AcDbLine
 10
154.004302
 20
217.212213
 30
0.0
 11
153.9558
 21
217.449939
 31
0.0
  0
LINE
  5
12A7
100
AcDbEntity
  8
10000_FRONT
370
    50
390
0
  6
CONTINUOUS
 62
     7
100
AcDbLine
 10
154.433588
 20
217.985405
 30
0.0
 11
154.433588
 21
217.984475
 31
0.0
  0
LINE
  5
12A8
100
AcDbEntity
  8
10000_FRONT
370
    50
390
0
  6
CONTINUOUS
 62
     7
100
AcDbLine
 10
154.284062
 20
218.034841
 30
0.0
 11
154.433588
 21
217.985405
 31
0.0
  0
LINE
  5
12A9
100
AcDbEntity
  8
10000_FRONT
370
    50
390
0
  6
CONTINUOUS
 62
     7
100
AcDbLine
 10
154.284062
 20
218.034841
 30
0.0
 11
154.284062
 21
218.033918
 31
0.0
  0
LINE
  5
12AA
100
AcDbEntity
  8
10000_FRONT
370
    50
390
0
  6
CONTINUOUS
 62
     7
100
AcDbLine
 10
154.284062
 20
218.033918
 30
0.0
 11
154.433588
 21
217.984475
 31
0.0
  0
LINE
  5
12AB
100
AcDbEntity
  8
10000_FRONT
370
    50
390
0
  6
CONTINUOUS
 62
     7
100
AcDbLine
 10
154.184913
 20
218.034841
 30
0.0
 11
154.284062
 21
218.034841
 31
0.0
  0
LINE
  5
12AC
100
AcDbEntity
  8
10000_FRONT
370
    50
390
0
  6
CONTINUOUS
 62
     7
100
AcDbLine
 10
154.184913
 20
218.034841
 30
0.0
 11
154.184913
 21
218.033918
 31
0.0
  0
LINE
  5
12AD
100
AcDbEntity
  8
10000_FRONT
370
    50
390
0
  6
CONTINUOUS
 62
     7
100
AcDbLine
 10
154.184913
 20
218.033918
 30
0.0
 11
154.284062
 21
218.033918
 31
0.0
  0
LINE
  5
12AE
100
AcDbEntity
  8
10000_FRONT
370
    50
390
0
  6
CONTINUOUS
 62
     7
100
AcDbLine
 10
154.035387
 20
217.985405
 30
0.0
 11
154.184913
 21
218.034841
 31
0.0
  0
LINE
  5
12AF
100
AcDbEntity
  8
10000_FRONT
370
    50
390
0
  6
CONTINUOUS
 62
     7
100
AcDbLine
 10
154.035387
 20
217.985405
 30
0.0
 11
154.035387
 21
217.984475
 31
0.0
  0
LINE
  5
12B0
100
AcDbEntity
  8
10000_FRONT
370
    50
390
0
  6
CONTINUOUS
 62
     7
100
AcDbLine
 10
154.035387
 20
217.984475
 30
0.0
 11
154.184913
 21
218.033918
 31
0.0
  0
LINE
  5
12B1
100
AcDbEntity
  8
10000_FRONT
370
    50
390
0
  6
CONTINUOUS
 62
     7
100
AcDbLine
 10
153.935435
 20
217.836181
 30
0.0
 11
154.035387
 21
217.985405
 31
0.0
  0
LINE
  5
12B2
100
AcDbEntity
  8
10000_FRONT
370
    50
390
0
  6
CONTINUOUS
 62
     7
100
AcDbLine
 10
153.935435
 20
217.83618
 30
0.0
 11
153.935435
 21
217.835227
 31
0.0
  0
LINE
  5
12B3
100
AcDbEntity
  8
10000_FRONT
370
    50
390
0
  6
CONTINUOUS
 62
     7
100
AcDbLine
 10
153.935435
 20
217.835227
 30
0.0
 11
154.035387
 21
217.984475
 31
0.0
  0
LINE
  5
12B4
100
AcDbEntity
  8
10000_FRONT
370
    50
390
0
  6
CONTINUOUS
 62
     7
100
AcDbLine
 10
153.8872
 20
217.59422
 30
0.0
 11
153.935435
 21
217.836181
 31
0.0
  0
LINE
  5
12B5
100
AcDbEntity
  8
10000_FRONT
370
    50
390
0
  6
CONTINUOUS
 62
     7
100
AcDbLine
 10
153.8872
 20
217.594219
 30
0.0
 11
153.8872
 21
217.593217
 31
0.0
  0
LINE
  5
12B6
100
AcDbEntity
  8
10000_FRONT
370
    50
390
0
  6
CONTINUOUS
 62
     7
100
AcDbLine
 10
153.8872
 20
217.593217
 30
0.0
 11
153.935435
 21
217.835227
 31
0.0
  0
LINE
  5
12B7
100
AcDbEntity
  8
10000_FRONT
370
    50
390
0
  6
CONTINUOUS
 62
     7
100
AcDbLine
 10
153.8872
 20
217.445959
 30
0.0
 11
153.8872
 21
217.593217
 31
0.0
  0
LINE
  5
12B8
100
AcDbEntity
  8
10000_FRONT
370
    50
390
0
  6
CONTINUOUS
 62
     7
100
AcDbLine
 10
153.935435
 20
217.203948
 30
0.0
 11
153.8872
 21
217.445959
 31
0.0
  0
LINE
  5
12B9
100
AcDbEntity
  8
10000_FRONT
370
    50
390
0
  6
CONTINUOUS
 62
     7
100
AcDbLine
 10
154.035387
 20
217.0547
 30
0.0
 11
153.935435
 21
217.203948
 31
0.0
  0
LINE
  5
12BA
100
AcDbEntity
  8
10000_FRONT
370
    50
390
0
  6
CONTINUOUS
 62
     7
100
AcDbLine
 10
153.9558
 20
217.449939
 30
0.0
 11
153.9558
 21
217.590614
 31
0.0
  0
LINE
  5
12BB
100
AcDbEntity
  8
10000_FRONT
370
    50
390
0
  6
CONTINUOUS
 62
     7
100
AcDbLine
 10
153.9558
 20
217.590614
 30
0.0
 11
154.004302
 21
217.828338
 31
0.0
  0
LINE
  5
12BC
100
AcDbEntity
  8
10000_FRONT
370
    50
390
0
  6
CONTINUOUS
 62
     7
100
AcDbLine
 10
154.004302
 20
217.828338
 30
0.0
 11
154.068883
 21
217.925388
 31
0.0
  0
LINE
  5
12BD
100
AcDbEntity
  8
10000_FRONT
370
    50
390
0
  6
CONTINUOUS
 62
     7
100
AcDbLine
 10
154.068883
 20
217.925388
 30
0.0
 11
154.187995
 21
217.965647
 31
0.0
  0
LINE
  5
12BE
100
AcDbEntity
  8
10000_FRONT
370
    50
390
0
  6
CONTINUOUS
 62
     7
100
AcDbLine
 10
154.187995
 20
217.965647
 30
0.0
 11
154.28165
 21
217.965647
 31
0.0
  0
LINE
  5
12BF
100
AcDbEntity
  8
10000_FRONT
370
    50
390
0
  6
CONTINUOUS
 62
     7
100
AcDbLine
 10
154.28165
 20
217.965647
 30
0.0
 11
154.400092
 21
217.925388
 31
0.0
  0
LINE
  5
12C0
100
AcDbEntity
  8
10000_FRONT
370
    50
390
0
  6
CONTINUOUS
 62
     7
100
AcDbLine
 10
154.400092
 20
217.925388
 30
0.0
 11
154.464673
 21
217.828338
 31
0.0
  0
LINE
  5
12C1
100
AcDbEntity
  8
10000_FRONT
370
    50
390
0
  6
CONTINUOUS
 62
     7
100
AcDbLine
 10
154.464673
 20
217.828338
 30
0.0
 11
154.513175
 21
217.590614
 31
0.0
  0
LINE
  5
12C2
100
AcDbEntity
  8
10000_FRONT
370
    50
390
0
  6
CONTINUOUS
 62
     7
100
AcDbLine
 10
154.534211
 20
217.83618
 30
0.0
 11
154.534211
 21
217.835227
 31
0.0
  0
LINE
  5
12C3
100
AcDbEntity
  8
10000_FRONT
370
    50
390
0
  6
CONTINUOUS
 62
     7
100
AcDbLine
 10
154.433588
 20
217.985405
 30
0.0
 11
154.534211
 21
217.836181
 31
0.0
  0
LINE
  5
12C4
100
AcDbEntity
  8
10000_FRONT
370
    50
390
0
  6
CONTINUOUS
 62
     7
100
AcDbLine
 10
154.433588
 20
217.984475
 30
0.0
 11
154.534211
 21
217.835227
 31
0.0
  0
LINE
  5
12C5
100
AcDbEntity
  8
10000_FRONT
370
    50
390
0
  6
CONTINUOUS
 62
     7
100
AcDbLine
 10
154.581775
 20
217.594219
 30
0.0
 11
154.581775
 21
217.593217
 31
0.0
  0
LINE
  5
12C6
100
AcDbEntity
  8
10000_FRONT
370
    50
390
0
  6
CONTINUOUS
 62
     7
100
AcDbLine
 10
154.534211
 20
217.836181
 30
0.0
 11
154.581775
 21
217.594219
 31
0.0
  0
LINE
  5
12C7
100
AcDbEntity
  8
10000_FRONT
370
    50
390
0
  6
CONTINUOUS
 62
     7
100
AcDbLine
 10
154.534211
 20
217.835227
 30
0.0
 11
154.581775
 21
217.593217
 31
0.0
  0
LINE
  5
12C8
100
AcDbEntity
  8
10000_FRONT
370
    50
390
0
  6
CONTINUOUS
 62
     7
100
AcDbLine
 10
154.581775
 20
217.593217
 30
0.0
 11
154.581775
 21
217.445959
 31
0.0
  0
LINE
  5
12C9
100
AcDbEntity
  8
10000_FRONT
370
    50
390
0
  6
CONTINUOUS
 62
     7
100
AcDbLine
 10
154.581775
 20
217.445959
 30
0.0
 11
154.534211
 21
217.203948
 31
0.0
  0
LINE
  5
12CA
100
AcDbEntity
  8
10000_FRONT
370
    50
390
0
  6
CONTINUOUS
 62
     7
100
AcDbLine
 10
154.534211
 20
217.203948
 30
0.0
 11
154.433588
 21
217.0547
 31
0.0
  0
LINE
  5
12CB
100
AcDbEntity
  8
10000_FRONT
370
    50
390
0
  6
CONTINUOUS
 62
     7
100
AcDbLine
 10
154.433588
 20
217.0547
 30
0.0
 11
154.284062
 21
217.005256
 31
0.0
  0
LINE
  5
12CC
100
AcDbEntity
  8
10000_FRONT
370
    50
390
0
  6
CONTINUOUS
 62
     7
100
AcDbLine
 10
154.284062
 20
217.005256
 30
0.0
 11
154.184913
 21
217.005256
 31
0.0
  0
LINE
  5
12CD
100
AcDbEntity
  8
10000_FRONT
370
    50
390
0
  6
CONTINUOUS
 62
     7
100
AcDbLine
 10
154.184913
 20
217.005256
 30
0.0
 11
154.035387
 21
217.0547
 31
0.0
  0
LINE
  5
12CE
100
AcDbEntity
  8
10000_FRONT
370
    50
390
0
  6
CONTINUOUS
 62
     7
100
AcDbLine
 10
151.984473
 20
217.936122
 30
0.0
 11
151.984473
 21
217.936083
 31
0.0
  0
LINE
  5
12CF
100
AcDbEntity
  8
10000_FRONT
370
    50
390
0
  6
CONTINUOUS
 62
     7
100
AcDbLine
 10
151.935568
 20
217.835722
 30
0.0
 11
151.984473
 21
217.936122
 31
0.0
  0
LINE
  5
12D0
100
AcDbEntity
  8
10000_FRONT
370
    50
390
0
  6
CONTINUOUS
 62
     7
100
AcDbLine
 10
151.935568
 20
217.835722
 30
0.0
 11
151.935568
 21
217.835665
 31
0.0
  0
LINE
  5
12D1
100
AcDbEntity
  8
10000_FRONT
370
    50
390
0
  6
CONTINUOUS
 62
     7
100
AcDbLine
 10
151.935568
 20
217.835665
 30
0.0
 11
151.984473
 21
217.936083
 31
0.0
  0
LINE
  5
12D2
100
AcDbEntity
  8
10000_FRONT
370
    50
390
0
  6
CONTINUOUS
 62
     7
100
AcDbLine
 10
151.935568
 20
217.773977
 30
0.0
 11
151.935568
 21
217.835665
 31
0.0
  0
LINE
  5
12D3
100
AcDbEntity
  8
10000_FRONT
370
    50
390
0
  6
CONTINUOUS
 62
     7
100
AcDbLine
 10
152.00524
 20
217.773977
 30
0.0
 11
151.935568
 21
217.773977
 31
0.0
  0
LINE
  5
12D4
100
AcDbEntity
  8
10000_FRONT
370
    50
390
0
  6
CONTINUOUS
 62
     7
100
AcDbLine
 10
152.00524
 20
217.830308
 30
0.0
 11
152.00524
 21
217.773977
 31
0.0
  0
LINE
  5
12D5
100
AcDbEntity
  8
10000_FRONT
370
    50
390
0
  6
CONTINUOUS
 62
     7
100
AcDbLine
 10
152.050795
 20
217.920622
 30
0.0
 11
152.00524
 21
217.830308
 31
0.0
  0
LINE
  5
12D6
100
AcDbEntity
  8
10000_FRONT
370
    50
390
0
  6
CONTINUOUS
 62
     7
100
AcDbLine
 10
152.141235
 20
217.966239
 30
0.0
 11
152.050795
 21
217.920622
 31
0.0
  0
LINE
  5
12D7
100
AcDbEntity
  8
10000_FRONT
370
    50
390
0
  6
CONTINUOUS
 62
     7
100
AcDbLine
 10
152.327473
 20
217.966239
 30
0.0
 11
152.141235
 21
217.966239
 31
0.0
  0
LINE
  5
12D8
100
AcDbEntity
  8
10000_FRONT
370
    50
390
0
  6
CONTINUOUS
 62
     7
100
AcDbLine
 10
152.418582
 20
217.920775
 30
0.0
 11
152.327473
 21
217.966239
 31
0.0
  0
LINE
  5
12D9
100
AcDbEntity
  8
10000_FRONT
370
    50
390
0
  6
CONTINUOUS
 62
     7
100
AcDbLine
 10
152.463467
 20
217.830308
 30
0.0
 11
152.418582
 21
217.920775
 31
0.0
  0
LINE
  5
12DA
100
AcDbEntity
  8
10000_FRONT
370
    50
390
0
  6
CONTINUOUS
 62
     7
100
AcDbLine
 10
152.463467
 20
217.739994
 30
0.0
 11
152.463467
 21
217.830308
 31
0.0
  0
LINE
  5
12DB
100
AcDbEntity
  8
10000_FRONT
370
    50
390
0
  6
CONTINUOUS
 62
     7
100
AcDbLine
 10
152.417242
 20
217.646253
 30
0.0
 11
152.463467
 21
217.740068
 31
0.0
  0
LINE
  5
12DC
100
AcDbEntity
  8
10000_FRONT
370
    50
390
0
  6
CONTINUOUS
 62
     7
100
AcDbLine
 10
152.417242
 20
217.646252
 30
0.0
 11
152.417242
 21
217.64616
 31
0.0
  0
LINE
  5
12DD
100
AcDbEntity
  8
10000_FRONT
370
    50
390
0
  6
CONTINUOUS
 62
     7
100
AcDbLine
 10
152.417242
 20
217.64616
 30
0.0
 11
152.463467
 21
217.739994
 31
0.0
  0
LINE
  5
12DE
100
AcDbEntity
  8
10000_FRONT
370
    50
390
0
  6
CONTINUOUS
 62
     7
100
AcDbLine
 10
152.274549
 20
217.456179
 30
0.0
 11
152.417242
 21
217.646253
 31
0.0
  0
LINE
  5
12DF
100
AcDbEntity
  8
10000_FRONT
370
    50
390
0
  6
CONTINUOUS
 62
     7
100
AcDbLine
 10
152.274549
 20
217.456179
 30
0.0
 11
152.274549
 21
217.456041
 31
0.0
  0
LINE
  5
12E0
100
AcDbEntity
  8
10000_FRONT
370
    50
390
0
  6
CONTINUOUS
 62
     7
100
AcDbLine
 10
152.274549
 20
217.456041
 30
0.0
 11
152.417242
 21
217.64616
 31
0.0
  0
LINE
  5
12E1
100
AcDbEntity
  8
10000_FRONT
370
    50
390
0
  6
CONTINUOUS
 62
     7
100
AcDbLine
 10
151.873936
 20
217.006431
 30
0.0
 11
152.274549
 21
217.456179
 31
0.0
  0
LINE
  5
12E2
100
AcDbEntity
  8
10000_FRONT
370
    50
390
0
  6
CONTINUOUS
 62
     7
100
AcDbLine
 10
151.873936
 20
217.00643
 30
0.0
 11
151.873936
 21
217.006155
 31
0.0
  0
LINE
  5
12E3
100
AcDbEntity
  8
10000_FRONT
370
    50
390
0
  6
CONTINUOUS
 62
     7
100
AcDbLine
 10
151.873936
 20
217.006155
 30
0.0
 11
152.274549
 21
217.456041
 31
0.0
  0
LINE
  5
12E4
100
AcDbEntity
  8
10000_FRONT
370
    50
390
0
  6
CONTINUOUS
 62
     7
100
AcDbLine
 10
152.035387
 20
217.986017
 30
0.0
 11
152.035387
 21
217.985986
 31
0.0
  0
LINE
  5
12E5
100
AcDbEntity
  8
10000_FRONT
370
    50
390
0
  6
CONTINUOUS
 62
     7
100
AcDbLine
 10
151.984473
 20
217.936122
 30
0.0
 11
152.035387
 21
217.986017
 31
0.0
  0
LINE
  5
12E6
100
AcDbEntity
  8
10000_FRONT
370
    50
390
0
  6
CONTINUOUS
 62
     7
100
AcDbLine
 10
151.984473
 20
217.936083
 30
0.0
 11
152.035387
 21
217.985986
 31
0.0
  0
LINE
  5
12E7
100
AcDbEntity
  8
10000_FRONT
370
    50
390
0
  6
CONTINUOUS
 62
     7
100
AcDbLine
 10
152.135875
 20
218.034841
 30
0.0
 11
152.135875
 21
218.034816
 31
0.0
  0
LINE
  5
12E8
100
AcDbEntity
  8
10000_FRONT
370
    50
390
0
  6
CONTINUOUS
 62
     7
100
AcDbLine
 10
152.035387
 20
217.986017
 30
0.0
 11
152.135875
 21
218.034841
 31
0.0
  0
LINE
  5
12E9
100
AcDbEntity
  8
10000_FRONT
370
    50
390
0
  6
CONTINUOUS
 62
     7
100
AcDbLine
 10
152.035387
 20
217.985986
 30
0.0
 11
152.135875
 21
218.034816
 31
0.0
  0
LINE
  5
12EA
100
AcDbEntity
  8
10000_FRONT
370
    50
390
0
  6
CONTINUOUS
 62
     7
100
AcDbLine
 10
152.333502
 20
218.034841
 30
0.0
 11
152.333502
 21
218.034816
 31
0.0
  0
LINE
  5
12EB
100
AcDbEntity
  8
10000_FRONT
370
    50
390
0
  6
CONTINUOUS
 62
     7
100
AcDbLine
 10
152.135875
 20
218.034841
 30
0.0
 11
152.333502
 21
218.034841
 31
0.0
  0
LINE
  5
12EC
100
AcDbEntity
  8
10000_FRONT
370
    50
390
0
  6
CONTINUOUS
 62
     7
100
AcDbLine
 10
152.135875
 20
218.034816
 30
0.0
 11
152.333502
 21
218.034816
 31
0.0
  0
LINE
  5
12ED
100
AcDbEntity
  8
10000_FRONT
370
    50
390
0
  6
CONTINUOUS
 62
     7
100
AcDbLine
 10
152.43332
 20
217.985251
 30
0.0
 11
152.43332
 21
217.98522
 31
0.0
  0
LINE
  5
12EE
100
AcDbEntity
  8
10000_FRONT
370
    50
390
0
  6
CONTINUOUS
 62
     7
100
AcDbLine
 10
152.333502
 20
218.034841
 30
0.0
 11
152.43332
 21
217.985252
 31
0.0
  0
LINE
  5
12EF
100
AcDbEntity
  8
10000_FRONT
370
    50
390
0
  6
CONTINUOUS
 62
     7
100
AcDbLine
 10
152.333502
 20
218.034816
 30
0.0
 11
152.43332
 21
217.98522
 31
0.0
  0
LINE
  5
12F0
100
AcDbEntity
  8
10000_FRONT
370
    50
390
0
  6
CONTINUOUS
 62
     7
100
AcDbLine
 10
152.484235
 20
217.935051
 30
0.0
 11
152.484235
 21
217.935011
 31
0.0
  0
LINE
  5
12F1
100
AcDbEntity
  8
10000_FRONT
370
    50
390
0
  6
CONTINUOUS
 62
     7
100
AcDbLine
 10
152.43332
 20
217.985252
 30
0.0
 11
152.484235
 21
217.935051
 31
0.0
  0
LINE
  5
12F2
100
AcDbEntity
  8
10000_FRONT
370
    50
390
0
  6
CONTINUOUS
 62
     7
100
AcDbLine
 10
152.43332
 20
217.98522
 30
0.0
 11
152.484235
 21
217.935011
 31
0.0
  0
LINE
  5
12F3
100
AcDbEntity
  8
10000_FRONT
370
    50
390
0
  6
CONTINUOUS
 62
     7
100
AcDbLine
 10
152.533809
 20
217.834651
 30
0.0
 11
152.533809
 21
217.834594
 31
0.0
  0
LINE
  5
12F4
100
AcDbEntity
  8
10000_FRONT
370
    50
390
0
  6
CONTINUOUS
 62
     7
100
AcDbLine
 10
152.484235
 20
217.935051
 30
0.0
 11
152.533809
 21
217.83465
 31
0.0
  0
LINE
  5
12F5
100
AcDbEntity
  8
10000_FRONT
370
    50
390
0
  6
CONTINUOUS
 62
     7
100
AcDbLine
 10
152.484235
 20
217.935011
 30
0.0
 11
152.533809
 21
217.834594
 31
0.0
  0
LINE
  5
12F6
100
AcDbEntity
  8
10000_FRONT
370
    50
390
0
  6
CONTINUOUS
 62
     7
100
AcDbLine
 10
152.533809
 20
217.834594
 30
0.0
 11
152.533809
 21
217.732799
 31
0.0
  0
LINE
  5
12F7
100
AcDbEntity
  8
10000_FRONT
370
    50
390
0
  6
CONTINUOUS
 62
     7
100
AcDbLine
 10
152.533809
 20
217.732799
 30
0.0
 11
152.484235
 21
217.634372
 31
0.0
  0
LINE
  5
12F8
100
AcDbEntity
  8
10000_FRONT
370
    50
390
0
  6
CONTINUOUS
 62
     7
100
AcDbLine
 10
152.484235
 20
217.634372
 30
0.0
 11
152.338861
 21
217.440886
 31
0.0
  0
LINE
  5
12F9
100
AcDbEntity
  8
10000_FRONT
370
    50
390
0
  6
CONTINUOUS
 62
     7
100
AcDbLine
 10
152.338861
 20
217.440886
 30
0.0
 11
152.019309
 21
217.074732
 31
0.0
  0
LINE
  5
12FA
100
AcDbEntity
  8
10000_FRONT
370
    50
390
0
  6
CONTINUOUS
 62
     7
100
AcDbLine
 10
152.581373
 20
217.074984
 30
0.0
 11
152.581373
 21
217.074732
 31
0.0
  0
LINE
  5
12FB
100
AcDbEntity
  8
10000_FRONT
370
    50
390
0
  6
CONTINUOUS
 62
     7
100
AcDbLine
 10
152.019529
 20
217.074984
 30
0.0
 11
152.581373
 21
217.074984
 31
0.0
  0
LINE
  5
12FC
100
AcDbEntity
  8
10000_FRONT
370
    50
390
0
  6
CONTINUOUS
 62
     7
100
AcDbLine
 10
152.019309
 20
217.074732
 30
0.0
 11
152.581373
 21
217.074732
 31
0.0
  0
LINE
  5
12FD
100
AcDbEntity
  8
10000_FRONT
370
    50
390
0
  6
CONTINUOUS
 62
     7
100
AcDbLine
 10
152.581373
 20
217.074732
 30
0.0
 11
152.581373
 21
217.006155
 31
0.0
  0
LINE
  5
12FE
100
AcDbEntity
  8
10000_FRONT
370
    50
390
0
  6
CONTINUOUS
 62
     7
100
AcDbLine
 10
152.581373
 20
217.006155
 30
0.0
 11
151.873936
 21
217.006155
 31
0.0
  0
LINE
  5
12FF
100
AcDbEntity
  8
10000_FRONT
370
    50
390
0
  6
CONTINUOUS
 62
     7
100
AcDbLine
 10
150.249613
 20
217.318753
 30
0.0
 11
150.6174
 21
217.847779
 31
0.0
  0
LINE
  5
1300
100
AcDbEntity
  8
10000_FRONT
370
    50
390
0
  6
CONTINUOUS
 62
     7
100
AcDbLine
 10
150.6174
 20
217.847779
 30
0.0
 11
150.6174
 21
217.318753
 31
0.0
  0
LINE
  5
1301
100
AcDbEntity
  8
10000_FRONT
370
    50
390
0
  6
CONTINUOUS
 62
     7
100
AcDbLine
 10
150.878268
 20
217.319827
 30
0.0
 11
150.878268
 21
217.318753
 31
0.0
  0
LINE
  5
1302
100
AcDbEntity
  8
10000_FRONT
370
    50
390
0
  6
CONTINUOUS
 62
     7
100
AcDbLine
 10
150.878268
 20
217.318753
 30
0.0
 11
150.878268
 21
217.250176
 31
0.0
  0
LINE
  5
1303
100
AcDbEntity
  8
10000_FRONT
370
    50
390
0
  6
CONTINUOUS
 62
     7
100
AcDbLine
 10
150.686
 20
217.319827
 30
0.0
 11
150.878268
 21
217.319827
 31
0.0
  0
LINE
  5
1304
100
AcDbEntity
  8
10000_FRONT
370
    50
390
0
  6
CONTINUOUS
 62
     7
100
AcDbLine
 10
150.686
 20
217.318753
 30
0.0
 11
150.878268
 21
217.318753
 31
0.0
  0
LINE
  5
1305
100
AcDbEntity
  8
10000_FRONT
370
    50
390
0
  6
CONTINUOUS
 62
     7
100
AcDbLine
 10
150.686
 20
218.034841
 30
0.0
 11
150.686
 21
218.033918
 31
0.0
  0
LINE
  5
1306
100
AcDbEntity
  8
10000_FRONT
370
    50
390
0
  6
CONTINUOUS
 62
     7
100
AcDbLine
 10
150.686
 20
218.033918
 30
0.0
 11
150.686
 21
217.318753
 31
0.0
  0
LINE
  5
1307
100
AcDbEntity
  8
10000_FRONT
370
    50
390
0
  6
CONTINUOUS
 62
     7
100
AcDbLine
 10
150.66952
 20
218.034841
 30
0.0
 11
150.686
 21
218.034841
 31
0.0
  0
LINE
  5
1308
100
AcDbEntity
  8
10000_FRONT
370
    50
390
0
  6
CONTINUOUS
 62
     7
100
AcDbLine
 10
150.66952
 20
218.034841
 30
0.0
 11
150.66952
 21
218.033918
 31
0.0
  0
LINE
  5
1309
100
AcDbEntity
  8
10000_FRONT
370
    50
390
0
  6
CONTINUOUS
 62
     7
100
AcDbLine
 10
150.66952
 20
218.033918
 30
0.0
 11
150.686
 21
218.033918
 31
0.0
  0
LINE
  5
130A
100
AcDbEntity
  8
10000_FRONT
370
    50
390
0
  6
CONTINUOUS
 62
     7
100
AcDbLine
 10
150.125007
 20
217.251269
 30
0.0
 11
150.66952
 21
218.034841
 31
0.0
  0
LINE
  5
130B
100
AcDbEntity
  8
10000_FRONT
370
    50
390
0
  6
CONTINUOUS
 62
     7
100
AcDbLine
 10
150.125007
 20
217.25127
 30
0.0
 11
150.125007
 21
217.250176
 31
0.0
  0
LINE
  5
130C
100
AcDbEntity
  8
10000_FRONT
370
    50
390
0
  6
CONTINUOUS
 62
     7
100
AcDbLine
 10
150.125007
 20
217.250176
 30
0.0
 11
150.66952
 21
218.033918
 31
0.0
  0
LINE
  5
130D
100
AcDbEntity
  8
10000_FRONT
370
    50
390
0
  6
CONTINUOUS
 62
     7
100
AcDbLine
 10
150.250359
 20
217.319827
 30
0.0
 11
150.6174
 21
217.319827
 31
0.0
  0
LINE
  5
130E
100
AcDbEntity
  8
10000_FRONT
370
    50
390
0
  6
CONTINUOUS
 62
     7
100
AcDbLine
 10
150.6174
 20
217.318753
 30
0.0
 11
150.249613
 21
217.318753
 31
0.0
  0
LINE
  5
130F
100
AcDbEntity
  8
10000_FRONT
370
    50
390
0
  6
CONTINUOUS
 62
     7
100
AcDbLine
 10
150.878268
 20
217.250176
 30
0.0
 11
150.686
 21
217.250176
 31
0.0
  0
LINE
  5
1310
100
AcDbEntity
  8
10000_FRONT
370
    50
390
0
  6
CONTINUOUS
 62
     7
100
AcDbLine
 10
150.686
 20
217.250176
 30
0.0
 11
150.686
 21
217.005256
 31
0.0
  0
LINE
  5
1311
100
AcDbEntity
  8
10000_FRONT
370
    50
390
0
  6
CONTINUOUS
 62
     7
100
AcDbLine
 10
150.686
 20
217.005256
 30
0.0
 11
150.6174
 21
217.005256
 31
0.0
  0
LINE
  5
1312
100
AcDbEntity
  8
10000_FRONT
370
    50
390
0
  6
CONTINUOUS
 62
     7
100
AcDbLine
 10
150.6174
 20
217.005256
 30
0.0
 11
150.6174
 21
217.250176
 31
0.0
  0
LINE
  5
1313
100
AcDbEntity
  8
10000_FRONT
370
    50
390
0
  6
CONTINUOUS
 62
     7
100
AcDbLine
 10
150.6174
 20
217.250176
 30
0.0
 11
150.125007
 21
217.250176
 31
0.0
  0
LINE
  5
1314
100
AcDbEntity
  8
10000_FRONT
370
    50
390
0
  6
CONTINUOUS
 62
     7
100
AcDbLine
 10
147.588263
 20
217.966239
 30
0.0
 11
147.495814
 21
217.920622
 31
0.0
  0
LINE
  5
1315
100
AcDbEntity
  8
10000_FRONT
370
    50
390
0
  6
CONTINUOUS
 62
     7
100
AcDbLine
 10
147.774501
 20
217.966239
 30
0.0
 11
147.588263
 21
217.966239
 31
0.0
  0
LINE
  5
1316
100
AcDbEntity
  8
10000_FRONT
370
    50
390
0
  6
CONTINUOUS
 62
     7
100
AcDbLine
 10
147.866281
 20
217.919397
 30
0.0
 11
147.774501
 21
217.966239
 31
0.0
  0
LINE
  5
1317
100
AcDbEntity
  8
10000_FRONT
370
    50
390
0
  6
CONTINUOUS
 62
     7
100
AcDbLine
 10
147.911835
 20
217.873781
 30
0.0
 11
147.866281
 21
217.919397
 31
0.0
  0
LINE
  5
1318
100
AcDbEntity
  8
10000_FRONT
370
    50
390
0
  6
CONTINUOUS
 62
     7
100
AcDbLine
 10
147.962749
 20
217.773977
 30
0.0
 11
147.911835
 21
217.873781
 31
0.0
  0
LINE
  5
1319
100
AcDbEntity
  8
10000_FRONT
370
    50
390
0
  6
CONTINUOUS
 62
     7
100
AcDbLine
 10
148.035101
 20
217.774044
 30
0.0
 11
148.035101
 21
217.773977
 31
0.0
  0
LINE
  5
131A
100
AcDbEntity
  8
10000_FRONT
370
    50
390
0
  6
CONTINUOUS
 62
     7
100
AcDbLine
 10
148.035101
 20
217.773977
 30
0.0
 11
147.962749
 21
217.773977
 31
0.0
  0
LINE
  5
131B
100
AcDbEntity
  8
10000_FRONT
370
    50
390
0
  6
CONTINUOUS
 62
     7
100
AcDbLine
 10
147.978827
 20
217.887911
 30
0.0
 11
148.035101
 21
217.774044
 31
0.0
  0
LINE
  5
131C
100
AcDbEntity
  8
10000_FRONT
370
    50
390
0
  6
CONTINUOUS
 62
     7
100
AcDbLine
 10
147.978827
 20
217.887912
 30
0.0
 11
147.978827
 21
217.887864
 31
0.0
  0
LINE
  5
131D
100
AcDbEntity
  8
10000_FRONT
370
    50
390
0
  6
CONTINUOUS
 62
     7
100
AcDbLine
 10
147.978827
 20
217.887864
 30
0.0
 11
148.035101
 21
217.773977
 31
0.0
  0
LINE
  5
131E
100
AcDbEntity
  8
10000_FRONT
370
    50
390
0
  6
CONTINUOUS
 62
     7
100
AcDbLine
 10
147.880349
 20
217.986017
 30
0.0
 11
147.978827
 21
217.887911
 31
0.0
  0
LINE
  5
131F
100
AcDbEntity
  8
10000_FRONT
370
    50
390
0
  6
CONTINUOUS
 62
     7
100
AcDbLine
 10
147.880349
 20
217.986017
 30
0.0
 11
147.880349
 21
217.985985
 31
0.0
  0
LINE
  5
1320
100
AcDbEntity
  8
10000_FRONT
370
    50
390
0
  6
CONTINUOUS
 62
     7
100
AcDbLine
 10
147.880349
 20
217.985985
 30
0.0
 11
147.978827
 21
217.887864
 31
0.0
  0
LINE
  5
1321
100
AcDbEntity
  8
10000_FRONT
370
    50
390
0
  6
CONTINUOUS
 62
     7
100
AcDbLine
 10
147.779861
 20
218.034841
 30
0.0
 11
147.880349
 21
217.986017
 31
0.0
  0
LINE
  5
1322
100
AcDbEntity
  8
10000_FRONT
370
    50
390
0
  6
CONTINUOUS
 62
     7
100
AcDbLine
 10
147.779861
 20
218.034841
 30
0.0
 11
147.779861
 21
218.034816
 31
0.0
  0
LINE
  5
1323
100
AcDbEntity
  8
10000_FRONT
370
    50
390
0
  6
CONTINUOUS
 62
     7
100
AcDbLine
 10
147.779861
 20
218.034816
 30
0.0
 11
147.880349
 21
217.985985
 31
0.0
  0
LINE
  5
1324
100
AcDbEntity
  8
10000_FRONT
370
    50
390
0
  6
CONTINUOUS
 62
     7
100
AcDbLine
 10
147.582234
 20
218.034841
 30
0.0
 11
147.779861
 21
218.034841
 31
0.0
  0
LINE
  5
1325
100
AcDbEntity
  8
10000_FRONT
370
    50
390
0
  6
CONTINUOUS
 62
     7
100
AcDbLine
 10
147.582234
 20
218.034841
 30
0.0
 11
147.582234
 21
218.034816
 31
0.0
  0
LINE
  5
1326
100
AcDbEntity
  8
10000_FRONT
370
    50
390
0
  6
CONTINUOUS
 62
     7
100
AcDbLine
 10
147.582234
 20
218.034816
 30
0.0
 11
147.779861
 21
218.034816
 31
0.0
  0
LINE
  5
1327
100
AcDbEntity
  8
10000_FRONT
370
    50
390
0
  6
CONTINUOUS
 62
     7
100
AcDbLine
 10
147.482415
 20
217.985405
 30
0.0
 11
147.582234
 21
218.034841
 31
0.0
  0
LINE
  5
1328
100
AcDbEntity
  8
10000_FRONT
370
    50
390
0
  6
CONTINUOUS
 62
     7
100
AcDbLine
 10
147.482415
 20
217.985405
 30
0.0
 11
147.482415
 21
217.985373
 31
0.0
  0
LINE
  5
1329
100
AcDbEntity
  8
10000_FRONT
370
    50
390
0
  6
CONTINUOUS
 62
     7
100
AcDbLine
 10
147.482415
 20
217.985373
 30
0.0
 11
147.582234
 21
218.034816
 31
0.0
  0
LINE
  5
132A
100
AcDbEntity
  8
10000_FRONT
370
    50
390
0
  6
CONTINUOUS
 62
     7
100
AcDbLine
 10
147.383267
 20
217.886993
 30
0.0
 11
147.482415
 21
217.985405
 31
0.0
  0
LINE
  5
132B
100
AcDbEntity
  8
10000_FRONT
370
    50
390
0
  6
CONTINUOUS
 62
     7
100
AcDbLine
 10
147.383267
 20
217.886993
 30
0.0
 11
147.383267
 21
217.886945
 31
0.0
  0
LINE
  5
132C
100
AcDbEntity
  8
10000_FRONT
370
    50
390
0
  6
CONTINUOUS
 62
     7
100
AcDbLine
 10
147.383267
 20
217.886945
 30
0.0
 11
147.482415
 21
217.985373
 31
0.0
  0
LINE
  5
132D
100
AcDbEntity
  8
10000_FRONT
370
    50
390
0
  6
CONTINUOUS
 62
     7
100
AcDbLine
 10
147.33597
 20
217.788124
 30
0.0
 11
147.383267
 21
217.886993
 31
0.0
  0
LINE
  5
132E
100
AcDbEntity
  8
10000_FRONT
370
    50
390
0
  6
CONTINUOUS
 62
     7
100
AcDbLine
 10
147.33597
 20
217.788124
 30
0.0
 11
147.33597
 21
217.788059
 31
0.0
  0
LINE
  5
132F
100
AcDbEntity
  8
10000_FRONT
370
    50
390
0
  6
CONTINUOUS
 62
     7
100
AcDbLine
 10
147.33597
 20
217.788059
 30
0.0
 11
147.383267
 21
217.886945
 31
0.0
  0
LINE
  5
1330
100
AcDbEntity
  8
10000_FRONT
370
    50
390
0
  6
CONTINUOUS
 62
     7
100
AcDbLine
 10
147.2872
 20
217.641661
 30
0.0
 11
147.33597
 21
217.788124
 31
0.0
  0
LINE
  5
1331
100
AcDbEntity
  8
10000_FRONT
370
    50
390
0
  6
CONTINUOUS
 62
     7
100
AcDbLine
 10
147.2872
 20
217.641661
 30
0.0
 11
147.2872
 21
217.641567
 31
0.0
  0
LINE
  5
1332
100
AcDbEntity
  8
10000_FRONT
370
    50
390
0
  6
CONTINUOUS
 62
     7
100
AcDbLine
 10
147.2872
 20
217.641567
 30
0.0
 11
147.33597
 21
217.788059
 31
0.0
  0
LINE
  5
1333
100
AcDbEntity
  8
10000_FRONT
370
    50
390
0
  6
CONTINUOUS
 62
     7
100
AcDbLine
 10
147.2872
 20
217.399403
 30
0.0
 11
147.2872
 21
217.641567
 31
0.0
  0
LINE
  5
1334
100
AcDbEntity
  8
10000_FRONT
370
    50
390
0
  6
CONTINUOUS
 62
     7
100
AcDbLine
 10
147.33597
 20
217.25291
 30
0.0
 11
147.2872
 21
217.399403
 31
0.0
  0
LINE
  5
1335
100
AcDbEntity
  8
10000_FRONT
370
    50
390
0
  6
CONTINUOUS
 62
     7
100
AcDbLine
 10
147.383267
 20
217.154025
 30
0.0
 11
147.33597
 21
217.25291
 31
0.0
  0
LINE
  5
1336
100
AcDbEntity
  8
10000_FRONT
370
    50
390
0
  6
CONTINUOUS
 62
     7
100
AcDbLine
 10
147.495814
 20
217.920622
 30
0.0
 11
147.402694
 21
217.779181
 31
0.0
  0
LINE
  5
1337
100
AcDbEntity
  8
10000_FRONT
370
    50
390
0
  6
CONTINUOUS
 62
     7
100
AcDbLine
 10
147.402694
 20
217.779181
 30
0.0
 11
147.3558
 21
217.639118
 31
0.0
  0
LINE
  5
1338
100
AcDbEntity
  8
10000_FRONT
370
    50
390
0
  6
CONTINUOUS
 62
     7
100
AcDbLine
 10
147.3558
 20
217.639118
 30
0.0
 11
147.3558
 21
217.401852
 31
0.0
  0
LINE
  5
1339
100
AcDbEntity
  8
10000_FRONT
370
    50
390
0
  6
CONTINUOUS
 62
     7
100
AcDbLine
 10
147.402694
 20
217.261982
 30
0.0
 11
147.402694
 21
217.261789
 31
0.0
  0
LINE
  5
133A
100
AcDbEntity
  8
10000_FRONT
370
    50
390
0
  6
CONTINUOUS
 62
     7
100
AcDbLine
 10
147.3558
 20
217.402006
 30
0.0
 11
147.402695
 21
217.261981
 31
0.0
  0
LINE
  5
133B
100
AcDbEntity
  8
10000_FRONT
370
    50
390
0
  6
CONTINUOUS
 62
     7
100
AcDbLine
 10
147.3558
 20
217.401852
 30
0.0
 11
147.402694
 21
217.261789
 31
0.0
  0
LINE
  5
133C
100
AcDbEntity
  8
10000_FRONT
370
    50
390
0
  6
CONTINUOUS
 62
     7
100
AcDbLine
 10
147.495814
 20
217.120585
 30
0.0
 11
147.495814
 21
217.120348
 31
0.0
  0
LINE
  5
133D
100
AcDbEntity
  8
10000_FRONT
370
    50
390
0
  6
CONTINUOUS
 62
     7
100
AcDbLine
 10
147.402695
 20
217.261981
 30
0.0
 11
147.495814
 21
217.120585
 31
0.0
  0
LINE
  5
133E
100
AcDbEntity
  8
10000_FRONT
370
    50
390
0
  6
CONTINUOUS
 62
     7
100
AcDbLine
 10
147.402694
 20
217.261789
 30
0.0
 11
147.495814
 21
217.120348
 31
0.0
  0
LINE
  5
133F
100
AcDbEntity
  8
10000_FRONT
370
    50
390
0
  6
CONTINUOUS
 62
     7
100
AcDbLine
 10
147.588263
 20
217.074984
 30
0.0
 11
147.588263
 21
217.074732
 31
0.0
  0
LINE
  5
1340
100
AcDbEntity
  8
10000_FRONT
370
    50
390
0
  6
CONTINUOUS
 62
     7
100
AcDbLine
 10
147.495814
 20
217.120585
 30
0.0
 11
147.588263
 21
217.074984
 31
0.0
  0
LINE
  5
1341
100
AcDbEntity
  8
10000_FRONT
370
    50
390
0
  6
CONTINUOUS
 62
     7
100
AcDbLine
 10
147.495814
 20
217.120348
 30
0.0
 11
147.588263
 21
217.074732
 31
0.0
  0
LINE
  5
1342
100
AcDbEntity
  8
10000_FRONT
370
    50
390
0
  6
CONTINUOUS
 62
     7
100
AcDbLine
 10
147.774501
 20
217.074984
 30
0.0
 11
147.774501
 21
217.074732
 31
0.0
  0
LINE
  5
1343
100
AcDbEntity
  8
10000_FRONT
370
    50
390
0
  6
CONTINUOUS
 62
     7
100
AcDbLine
 10
147.588263
 20
217.074984
 30
0.0
 11
147.774501
 21
217.074984
 31
0.0
  0
LINE
  5
1344
100
AcDbEntity
  8
10000_FRONT
370
    50
390
0
  6
CONTINUOUS
 62
     7
100
AcDbLine
 10
147.588263
 20
217.074732
 30
0.0
 11
147.774501
 21
217.074732
 31
0.0
  0
LINE
  5
1345
100
AcDbEntity
  8
10000_FRONT
370
    50
390
0
  6
CONTINUOUS
 62
     7
100
AcDbLine
 10
147.866281
 20
217.12181
 30
0.0
 11
147.866281
 21
217.121572
 31
0.0
  0
LINE
  5
1346
100
AcDbEntity
  8
10000_FRONT
370
    50
390
0
  6
CONTINUOUS
 62
     7
100
AcDbLine
 10
147.774501
 20
217.074984
 30
0.0
 11
147.86628
 21
217.121809
 31
0.0
  0
LINE
  5
1347
100
AcDbEntity
  8
10000_FRONT
370
    50
390
0
  6
CONTINUOUS
 62
     7
100
AcDbLine
 10
147.774501
 20
217.074732
 30
0.0
 11
147.866281
 21
217.121572
 31
0.0
  0
LINE
  5
1348
100
AcDbEntity
  8
10000_FRONT
370
    50
390
0
  6
CONTINUOUS
 62
     7
100
AcDbLine
 10
147.911835
 20
217.167411
 30
0.0
 11
147.911835
 21
217.167188
 31
0.0
  0
LINE
  5
1349
100
AcDbEntity
  8
10000_FRONT
370
    50
390
0
  6
CONTINUOUS
 62
     7
100
AcDbLine
 10
147.86628
 20
217.121809
 30
0.0
 11
147.911835
 21
217.167411
 31
0.0
  0
LINE
  5
134A
100
AcDbEntity
  8
10000_FRONT
370
    50
390
0
  6
CONTINUOUS
 62
     7
100
AcDbLine
 10
147.866281
 20
217.121572
 30
0.0
 11
147.911835
 21
217.167188
 31
0.0
  0
LINE
  5
134B
100
AcDbEntity
  8
10000_FRONT
370
    50
390
0
  6
CONTINUOUS
 62
     7
100
AcDbLine
 10
147.962749
 20
217.267185
 30
0.0
 11
147.962749
 21
217.266993
 31
0.0
  0
LINE
  5
134C
100
AcDbEntity
  8
10000_FRONT
370
    50
390
0
  6
CONTINUOUS
 62
     7
100
AcDbLine
 10
147.911835
 20
217.167411
 30
0.0
 11
147.962749
 21
217.267184
 31
0.0
  0
LINE
  5
134D
100
AcDbEntity
  8
10000_FRONT
370
    50
390
0
  6
CONTINUOUS
 62
     7
100
AcDbLine
 10
147.911835
 20
217.167188
 30
0.0
 11
147.962749
 21
217.266993
 31
0.0
  0
LINE
  5
134E
100
AcDbEntity
  8
10000_FRONT
370
    50
390
0
  6
CONTINUOUS
 62
     7
100
AcDbLine
 10
148.035101
 20
217.267185
 30
0.0
 11
148.035101
 21
217.266993
 31
0.0
  0
LINE
  5
134F
100
AcDbEntity
  8
10000_FRONT
370
    50
390
0
  6
CONTINUOUS
 62
     7
100
AcDbLine
 10
147.962749
 20
217.267185
 30
0.0
 11
148.035101
 21
217.267185
 31
0.0
  0
LINE
  5
1350
100
AcDbEntity
  8
10000_FRONT
370
    50
390
0
  6
CONTINUOUS
 62
     7
100
AcDbLine
 10
147.962749
 20
217.266993
 30
0.0
 11
148.035101
 21
217.266993
 31
0.0
  0
LINE
  5
1351
100
AcDbEntity
  8
10000_FRONT
370
    50
390
0
  6
CONTINUOUS
 62
     7
100
AcDbLine
 10
148.035101
 20
217.266993
 30
0.0
 11
147.978827
 21
217.153106
 31
0.0
  0
LINE
  5
1352
100
AcDbEntity
  8
10000_FRONT
370
    50
390
0
  6
CONTINUOUS
 62
     7
100
AcDbLine
 10
147.978827
 20
217.153106
 30
0.0
 11
147.880349
 21
217.054985
 31
0.0
  0
LINE
  5
1353
100
AcDbEntity
  8
10000_FRONT
370
    50
390
0
  6
CONTINUOUS
 62
     7
100
AcDbLine
 10
147.880349
 20
217.054985
 30
0.0
 11
147.779861
 21
217.006155
 31
0.0
  0
LINE
  5
1354
100
AcDbEntity
  8
10000_FRONT
370
    50
390
0
  6
CONTINUOUS
 62
     7
100
AcDbLine
 10
147.779861
 20
217.006155
 30
0.0
 11
147.582234
 21
217.006155
 31
0.0
  0
LINE
  5
1355
100
AcDbEntity
  8
10000_FRONT
370
    50
390
0
  6
CONTINUOUS
 62
     7
100
AcDbLine
 10
147.582234
 20
217.006155
 30
0.0
 11
147.482415
 21
217.055598
 31
0.0
  0
LINE
  5
1356
100
AcDbEntity
  8
10000_FRONT
370
    50
390
0
  6
CONTINUOUS
 62
     7
100
AcDbLine
 10
147.482415
 20
217.055598
 30
0.0
 11
147.383267
 21
217.154025
 31
0.0
  0
LINE
  5
1357
100
AcDbEntity
  8
10000_FRONT
370
    50
390
0
  6
CONTINUOUS
 62
     7
100
AcDbLine
 10
146.28168
 20
218.230755
 30
0.0
 11
146.28168
 21
218.229853
 31
0.0
  0
LINE
  5
1358
100
AcDbEntity
  8
10000_FRONT
370
    50
390
0
  6
CONTINUOUS
 62
     7
100
AcDbLine
 10
146.207988
 20
218.230755
 30
0.0
 11
146.28168
 21
218.230755
 31
0.0
  0
LINE
  5
1359
100
AcDbEntity
  8
10000_FRONT
370
    50
390
0
  6
CONTINUOUS
 62
     7
100
AcDbLine
 10
146.207988
 20
218.230755
 30
0.0
 11
146.207988
 21
218.229853
 31
0.0
  0
LINE
  5
135A
100
AcDbEntity
  8
10000_FRONT
370
    50
390
0
  6
CONTINUOUS
 62
     7
100
AcDbLine
 10
146.207988
 20
218.229853
 30
0.0
 11
146.28168
 21
218.229853
 31
0.0
  0
LINE
  5
135B
100
AcDbEntity
  8
10000_FRONT
370
    50
390
0
  6
CONTINUOUS
 62
     7
100
AcDbLine
 10
145.331061
 20
216.673471
 30
0.0
 11
146.207988
 21
218.230754
 31
0.0
  0
LINE
  5
135C
100
AcDbEntity
  8
10000_FRONT
370
    50
390
0
  6
CONTINUOUS
 62
     7
100
AcDbLine
 10
145.331061
 20
216.67347
 30
0.0
 11
145.331061
 21
216.672167
 31
0.0
  0
LINE
  5
135D
100
AcDbEntity
  8
10000_FRONT
370
    50
390
0
  6
CONTINUOUS
 62
     7
100
AcDbLine
 10
145.331061
 20
216.672167
 30
0.0
 11
146.207988
 21
218.229853
 31
0.0
  0
LINE
  5
135E
100
AcDbEntity
  8
10000_FRONT
370
    50
390
0
  6
CONTINUOUS
 62
     7
100
AcDbLine
 10
146.28168
 20
218.229853
 30
0.0
 11
145.405422
 21
216.672167
 31
0.0
  0
LINE
  5
135F
100
AcDbEntity
  8
10000_FRONT
370
    50
390
0
  6
CONTINUOUS
 62
     7
100
AcDbLine
 10
145.405422
 20
216.672167
 30
0.0
 11
145.331061
 21
216.672167
 31
0.0
  0
LINE
  5
1360
100
AcDbEntity
  8
10000_FRONT
370
    50
390
0
  6
CONTINUOUS
 62
     7
100
AcDbLine
 10
143.776008
 20
217.319651
 30
0.0
 11
143.984354
 21
217.854647
 31
0.0
  0
LINE
  5
1361
100
AcDbEntity
  8
10000_FRONT
370
    50
390
0
  6
CONTINUOUS
 62
     7
100
AcDbLine
 10
143.984354
 20
217.854647
 30
0.0
 11
144.192699
 21
217.319651
 31
0.0
  0
LINE
  5
1362
100
AcDbEntity
  8
10000_FRONT
370
    50
390
0
  6
CONTINUOUS
 62
     7
100
AcDbLine
 10
144.384967
 20
217.00643
 30
0.0
 11
144.384967
 21
217.006155
 31
0.0
  0
LINE
  5
1363
100
AcDbEntity
  8
10000_FRONT
370
    50
390
0
  6
CONTINUOUS
 62
     7
100
AcDbLine
 10
144.384967
 20
217.006155
 30
0.0
 11
144.313955
 21
217.006155
 31
0.0
  0
LINE
  5
1364
100
AcDbEntity
  8
10000_FRONT
370
    50
390
0
  6
CONTINUOUS
 62
     7
100
AcDbLine
 10
143.991723
 20
218.034841
 30
0.0
 11
144.384967
 21
217.006431
 31
0.0
  0
LINE
  5
1365
100
AcDbEntity
  8
10000_FRONT
370
    50
390
0
  6
CONTINUOUS
 62
     7
100
AcDbLine
 10
143.991723
 20
218.034841
 30
0.0
 11
143.991723
 21
218.034816
 31
0.0
  0
LINE
  5
1366
100
AcDbEntity
  8
10000_FRONT
370
    50
390
0
  6
CONTINUOUS
 62
     7
100
AcDbLine
 10
143.991723
 20
218.034816
 30
0.0
 11
144.384967
 21
217.006155
 31
0.0
  0
LINE
  5
1367
100
AcDbEntity
  8
10000_FRONT
370
    50
390
0
  6
CONTINUOUS
 62
     7
100
AcDbLine
 10
143.976985
 20
218.034841
 30
0.0
 11
143.991723
 21
218.034841
 31
0.0
  0
LINE
  5
1368
100
AcDbEntity
  8
10000_FRONT
370
    50
390
0
  6
CONTINUOUS
 62
     7
100
AcDbLine
 10
143.976985
 20
218.034841
 30
0.0
 11
143.976985
 21
218.034816
 31
0.0
  0
LINE
  5
1369
100
AcDbEntity
  8
10000_FRONT
370
    50
390
0
  6
CONTINUOUS
 62
     7
100
AcDbLine
 10
143.976985
 20
218.034816
 30
0.0
 11
143.991723
 21
218.034816
 31
0.0
  0
LINE
  5
136A
100
AcDbEntity
  8
10000_FRONT
370
    50
390
0
  6
CONTINUOUS
 62
     7
100
AcDbLine
 10
143.58374
 20
217.00643
 30
0.0
 11
143.976984
 21
218.034841
 31
0.0
  0
LINE
  5
136B
100
AcDbEntity
  8
10000_FRONT
370
    50
390
0
  6
CONTINUOUS
 62
     7
100
AcDbLine
 10
143.58374
 20
217.00643
 30
0.0
 11
143.58374
 21
217.006155
 31
0.0
  0
LINE
  5
136C
100
AcDbEntity
  8
10000_FRONT
370
    50
390
0
  6
CONTINUOUS
 62
     7
100
AcDbLine
 10
143.58374
 20
217.006155
 30
0.0
 11
143.976985
 21
218.034816
 31
0.0
  0
LINE
  5
136D
100
AcDbEntity
  8
10000_FRONT
370
    50
390
0
  6
CONTINUOUS
 62
     7
100
AcDbLine
 10
143.776008
 20
217.319827
 30
0.0
 11
144.192699
 21
217.319827
 31
0.0
  0
LINE
  5
136E
100
AcDbEntity
  8
10000_FRONT
370
    50
390
0
  6
CONTINUOUS
 62
     7
100
AcDbLine
 10
144.192699
 20
217.319651
 30
0.0
 11
143.776008
 21
217.319651
 31
0.0
  0
LINE
  5
136F
100
AcDbEntity
  8
10000_FRONT
370
    50
390
0
  6
CONTINUOUS
 62
     7
100
AcDbLine
 10
144.313955
 20
217.006155
 30
0.0
 11
144.218826
 21
217.251074
 31
0.0
  0
LINE
  5
1370
100
AcDbEntity
  8
10000_FRONT
370
    50
390
0
  6
CONTINUOUS
 62
     7
100
AcDbLine
 10
144.218826
 20
217.251074
 30
0.0
 11
143.749881
 21
217.251074
 31
0.0
  0
LINE
  5
1371
100
AcDbEntity
  8
10000_FRONT
370
    50
390
0
  6
CONTINUOUS
 62
     7
100
AcDbLine
 10
143.749881
 20
217.251074
 30
0.0
 11
143.655422
 21
217.006155
 31
0.0
  0
LINE
  5
1372
100
AcDbEntity
  8
10000_FRONT
370
    50
390
0
  6
CONTINUOUS
 62
     7
100
AcDbLine
 10
143.655422
 20
217.006155
 30
0.0
 11
143.58374
 21
217.006155
 31
0.0
  0
LINE
  5
1373
100
AcDbEntity
  8
10000_FRONT
370
    50
390
0
  6
CONTINUOUS
 62
     7
100
AcDbLine
 10
173.498451
 20
230.358089
 30
0.0
 11
128.501549
 21
230.358089
 31
0.0
  0
LINE
  5
1374
100
AcDbEntity
  8
10000_FRONT
370
    50
390
0
  6
CONTINUOUS
 62
     7
100
AcDbLine
 10
128.501549
 20
230.358089
 30
0.0
 11
128.501183
 21
230.351882
 31
0.0
  0
LINE
  5
1375
100
AcDbEntity
  8
10000_FRONT
370
    50
390
0
  6
CONTINUOUS
 62
     7
100
AcDbLine
 10
128.501183
 20
230.351882
 30
0.0
 11
128.50082
 21
230.345692
 31
0.0
  0
LINE
  5
1376
100
AcDbEntity
  8
10000_FRONT
370
    50
390
0
  6
CONTINUOUS
 62
     7
100
AcDbLine
 10
128.50082
 20
230.345692
 30
0.0
 11
128.500525
 21
230.339518
 31
0.0
  0
LINE
  5
1377
100
AcDbEntity
  8
10000_FRONT
370
    50
390
0
  6
CONTINUOUS
 62
     7
100
AcDbLine
 10
128.500525
 20
230.339518
 30
0.0
 11
128.500296
 21
230.33336
 31
0.0
  0
LINE
  5
1378
100
AcDbEntity
  8
10000_FRONT
370
    50
390
0
  6
CONTINUOUS
 62
     7
100
AcDbLine
 10
128.500296
 20
230.33336
 30
0.0
 11
128.500132
 21
230.32722
 31
0.0
  0
LINE
  5
1379
100
AcDbEntity
  8
10000_FRONT
370
    50
390
0
  6
CONTINUOUS
 62
     7
100
AcDbLine
 10
128.500132
 20
230.32722
 30
0.0
 11
128.500032
 21
230.321099
 31
0.0
  0
LINE
  5
137A
100
AcDbEntity
  8
10000_FRONT
370
    50
390
0
  6
CONTINUOUS
 62
     7
100
AcDbLine
 10
128.500032
 20
230.321099
 30
0.0
 11
128.5
 21
230.314999
 31
0.0
  0
LINE
  5
137B
100
AcDbEntity
  8
10000_FRONT
370
    50
390
0
  6
CONTINUOUS
 62
     7
100
AcDbLine
 10
128.5
 20
212.564999
 30
0.0
 11
128.5
 21
230.314999
 31
0.0
  0
LINE
  5
137C
100
AcDbEntity
  8
10000_FRONT
370
    50
390
0
  6
CONTINUOUS
 62
     7
100
AcDbLine
 10
129.9
 20
212.564999
 30
0.0
 11
128.5
 21
212.564999
 31
0.0
  0
LINE
  5
137D
100
AcDbEntity
  8
10000_FRONT
370
    50
390
0
  6
CONTINUOUS
 62
     7
100
AcDbLine
 10
131.200001
 20
212.564999
 30
0.0
 11
129.9
 21
212.564999
 31
0.0
  0
LINE
  5
137E
100
AcDbEntity
  8
10000_FRONT
370
    50
390
0
  6
CONTINUOUS
 62
     7
100
AcDbLine
 10
170.799999
 20
212.564999
 30
0.0
 11
131.200001
 21
212.564999
 31
0.0
  0
LINE
  5
137F
100
AcDbEntity
  8
10000_FRONT
370
    50
390
0
  6
CONTINUOUS
 62
     7
100
AcDbLine
 10
172.1
 20
212.564999
 30
0.0
 11
170.799999
 21
212.564999
 31
0.0
  0
LINE
  5
1380
100
AcDbEntity
  8
10000_FRONT
370
    50
390
0
  6
CONTINUOUS
 62
     7
100
AcDbLine
 10
173.5
 20
212.564999
 30
0.0
 11
172.1
 21
212.564999
 31
0.0
  0
LINE
  5
1381
100
AcDbEntity
  8
10000_FRONT
370
    50
390
0
  6
CONTINUOUS
 62
     7
100
AcDbLine
 10
173.5
 20
212.564999
 30
0.0
 11
173.5
 21
230.314999
 31
0.0
  0
LINE
  5
1382
100
AcDbEntity
  8
10000_FRONT
370
    50
390
0
  6
CONTINUOUS
 62
     7
100
AcDbLine
 10
173.5
 20
230.314999
 30
0.0
 11
173.499968
 21
230.321099
 31
0.0
  0
LINE
  5
1383
100
AcDbEntity
  8
10000_FRONT
370
    50
390
0
  6
CONTINUOUS
 62
     7
100
AcDbLine
 10
173.499968
 20
230.321099
 30
0.0
 11
173.499868
 21
230.32722
 31
0.0
  0
LINE
  5
1384
100
AcDbEntity
  8
10000_FRONT
370
    50
390
0
  6
CONTINUOUS
 62
     7
100
AcDbLine
 10
173.499868
 20
230.32722
 30
0.0
 11
173.499704
 21
230.33336
 31
0.0
  0
LINE
  5
1385
100
AcDbEntity
  8
10000_FRONT
370
    50
390
0
  6
CONTINUOUS
 62
     7
100
AcDbLine
 10
173.499704
 20
230.33336
 30
0.0
 11
173.499475
 21
230.339518
 31
0.0
  0
LINE
  5
1386
100
AcDbEntity
  8
10000_FRONT
370
    50
390
0
  6
CONTINUOUS
 62
     7
100
AcDbLine
 10
173.499475
 20
230.339518
 30
0.0
 11
173.49918
 21
230.345692
 31
0.0
  0
LINE
  5
1387
100
AcDbEntity
  8
10000_FRONT
370
    50
390
0
  6
CONTINUOUS
 62
     7
100
AcDbLine
 10
173.49918
 20
230.345692
 30
0.0
 11
173.498817
 21
230.351882
 31
0.0
  0
LINE
  5
1388
100
AcDbEntity
  8
10000_FRONT
370
    50
390
0
  6
CONTINUOUS
 62
     7
100
AcDbLine
 10
173.498817
 20
230.351882
 30
0.0
 11
173.498451
 21
230.358089
 31
0.0
  0
LINE
  5
1389
100
AcDbEntity
  8
10000_FRONT
370
    50
390
0
  6
CONTINUOUS
 62
     7
100
AcDbLine
 10
147.75
 20
220.764999
 30
0.0
 11
151.75
 21
220.764999
 31
0.0
  0
LINE
  5
138A
100
AcDbEntity
  8
10000_FRONT
370
    50
390
0
  6
CONTINUOUS
 62
     7
100
AcDbLine
 10
151.75
 20
218.564999
 30
0.0
 11
151.75
 21
220.764999
 31
0.0
  0
LINE
  5
138B
100
AcDbEntity
  8
10000_FRONT
370
    50
390
0
  6
CONTINUOUS
 62
     7
100
AcDbLine
 10
151.75
 20
218.564999
 30
0.0
 11
147.75
 21
218.564999
 31
0.0
  0
LINE
  5
138C
100
AcDbEntity
  8
10000_FRONT
370
    50
390
0
  6
CONTINUOUS
 62
     7
100
AcDbLine
 10
147.75
 20
218.564999
 30
0.0
 11
147.75
 21
220.764999
 31
0.0
  0
LINE
  5
138D
100
AcDbEntity
  8
10000_FRONT
370
    50
390
0
  6
CONTINUOUS
 62
     7
100
AcDbLine
 10
150.25
 20
228.014999
 30
0.0
 11
150.25
 21
229.114999
 31
0.0
  0
LINE
  5
138E
100
AcDbEntity
  8
10000_FRONT
370
    50
390
0
  6
CONTINUOUS
 62
     7
100
AcDbLine
 10
150.25
 20
228.014999
 30
0.0
 11
151.611696
 21
228.014999
 31
0.0
  0
LINE
  5
138F
100
AcDbEntity
  8
10000_FRONT
370
    50
390
0
  6
CONTINUOUS
 62
     7
100
AcDbLine
 10
151.705803
 20
222.014999
 30
0.0
 11
151.611696
 21
228.014999
 31
0.0
  0
LINE
  5
1390
100
AcDbEntity
  8
10000_FRONT
370
    50
390
0
  6
CONTINUOUS
 62
     7
100
AcDbLine
 10
151.705803
 20
222.014999
 30
0.0
 11
130.049999
 21
222.014999
 31
0.0
  0
LINE
  5
1391
100
AcDbEntity
  8
10000_FRONT
370
    50
390
0
  6
CONTINUOUS
 62
     7
100
AcDbLine
 10
130.049999
 20
222.014999
 30
0.0
 11
130.049999
 21
229.114999
 31
0.0
  0
LINE
  5
1392
100
AcDbEntity
  8
10000_FRONT
370
    50
390
0
  6
CONTINUOUS
 62
     7
100
AcDbLine
 10
130.049999
 20
229.114999
 30
0.0
 11
150.25
 21
229.114999
 31
0.0
  0
LINE
  5
1393
100
AcDbEntity
  8
10000_FRONT
370
    50
390
0
  6
CONTINUOUS
 62
     7
100
AcDbLine
 10
165.0
 20
228.064999
 30
0.0
 11
169.799999
 21
228.064999
 31
0.0
  0
LINE
  5
1394
100
AcDbEntity
  8
10000_FRONT
370
    50
390
0
  6
CONTINUOUS
 62
     7
100
AcDbLine
 10
169.799999
 20
226.464999
 30
0.0
 11
169.799999
 21
228.064999
 31
0.0
  0
LINE
  5
1395
100
AcDbEntity
  8
10000_FRONT
370
    50
390
0
  6
CONTINUOUS
 62
     7
100
AcDbLine
 10
169.799999
 20
226.464999
 30
0.0
 11
165.0
 21
226.464999
 31
0.0
  0
LINE
  5
1396
100
AcDbEntity
  8
10000_FRONT
370
    50
390
0
  6
CONTINUOUS
 62
     7
100
AcDbLine
 10
165.0
 20
226.464999
 30
0.0
 11
165.0
 21
228.064999
 31
0.0
  0
LINE
  5
1397
100
AcDbEntity
  8
10000_FRONT
370
    50
390
0
  6
CONTINUOUS
 62
     7
100
AcDbLine
 10
161.015028
 20
221.188626
 30
0.0
 11
160.988665
 21
221.169295
 31
0.0
  0
LINE
  5
1398
100
AcDbEntity
  8
10000_FRONT
370
    50
390
0
  6
CONTINUOUS
 62
     7
100
AcDbLine
 10
160.988665
 20
221.169295
 30
0.0
 11
160.946269
 21
221.125584
 31
0.0
  0
LINE
  5
1399
100
AcDbEntity
  8
10000_FRONT
370
    50
390
0
  6
CONTINUOUS
 62
     7
100
AcDbLine
 10
160.946269
 20
221.125584
 30
0.0
 11
160.887044
 21
221.061522
 31
0.0
  0
LINE
  5
139A
100
AcDbEntity
  8
10000_FRONT
370
    50
390
0
  6
CONTINUOUS
 62
     7
100
AcDbLine
 10
160.887044
 20
221.061522
 30
0.0
 11
160.811229
 21
220.98055
 31
0.0
  0
LINE
  5
139B
100
AcDbEntity
  8
10000_FRONT
370
    50
390
0
  6
CONTINUOUS
 62
     7
100
AcDbLine
 10
160.811229
 20
220.98055
 30
0.0
 11
160.718894
 21
220.885945
 31
0.0
  0
LINE
  5
139C
100
AcDbEntity
  8
10000_FRONT
370
    50
390
0
  6
CONTINUOUS
 62
     7
100
AcDbLine
 10
160.718894
 20
220.885945
 30
0.0
 11
160.606476
 21
220.777629
 31
0.0
  0
LINE
  5
139D
100
AcDbEntity
  8
10000_FRONT
370
    50
390
0
  6
CONTINUOUS
 62
     7
100
AcDbLine
 10
160.606476
 20
220.777629
 30
0.0
 11
160.472209
 21
220.657997
 31
0.0
  0
LINE
  5
139E
100
AcDbEntity
  8
10000_FRONT
370
    50
390
0
  6
CONTINUOUS
 62
     7
100
AcDbLine
 10
160.472209
 20
220.657997
 30
0.0
 11
160.315708
 21
220.530918
 31
0.0
  0
LINE
  5
139F
100
AcDbEntity
  8
10000_FRONT
370
    50
390
0
  6
CONTINUOUS
 62
     7
100
AcDbLine
 10
160.315708
 20
220.530918
 30
0.0
 11
160.136588
 21
220.400263
 31
0.0
  0
LINE
  5
13A0
100
AcDbEntity
  8
10000_FRONT
370
    50
390
0
  6
CONTINUOUS
 62
     7
100
AcDbLine
 10
160.136588
 20
220.400263
 30
0.0
 11
159.934465
 21
220.269899
 31
0.0
  0
LINE
  5
13A1
100
AcDbEntity
  8
10000_FRONT
370
    50
390
0
  6
CONTINUOUS
 62
     7
100
AcDbLine
 10
159.934465
 20
220.269899
 30
0.0
 11
159.708955
 21
220.143699
 31
0.0
  0
LINE
  5
13A2
100
AcDbEntity
  8
10000_FRONT
370
    50
390
0
  6
CONTINUOUS
 62
     7
100
AcDbLine
 10
159.708955
 20
220.143699
 30
0.0
 11
159.459672
 21
220.025531
 31
0.0
  0
LINE
  5
13A3
100
AcDbEntity
  8
10000_FRONT
370
    50
390
0
  6
CONTINUOUS
 62
     7
100
AcDbLine
 10
159.459672
 20
220.025531
 30
0.0
 11
159.193878
 21
219.921953
 31
0.0
  0
LINE
  5
13A4
100
AcDbEntity
  8
10000_FRONT
370
    50
390
0
  6
CONTINUOUS
 62
     7
100
AcDbLine
 10
159.193878
 20
219.921953
 30
0.0
 11
158.921848
 21
219.838018
 31
0.0
  0
LINE
  5
13A5
100
AcDbEntity
  8
10000_FRONT
370
    50
390
0
  6
CONTINUOUS
 62
     7
100
AcDbLine
 10
158.921848
 20
219.838018
 30
0.0
 11
158.644663
 21
219.774009
 31
0.0
  0
LINE
  5
13A6
100
AcDbEntity
  8
10000_FRONT
370
    50
390
0
  6
CONTINUOUS
 62
     7
100
AcDbLine
 10
158.644663
 20
219.774009
 30
0.0
 11
158.363371
 21
219.730192
 31
0.0
  0
LINE
  5
13A7
100
AcDbEntity
  8
10000_FRONT
370
    50
390
0
  6
CONTINUOUS
 62
     7
100
AcDbLine
 10
158.363371
 20
219.730192
 30
0.0
 11
158.079041
 21
219.706838
 31
0.0
  0
LINE
  5
13A8
100
AcDbEntity
  8
10000_FRONT
370
    50
390
0
  6
CONTINUOUS
 62
     7
100
AcDbLine
 10
158.079041
 20
219.706838
 30
0.0
 11
157.793945
 21
219.704186
 31
0.0
  0
LINE
  5
13A9
100
AcDbEntity
  8
10000_FRONT
370
    50
390
0
  6
CONTINUOUS
 62
     7
100
AcDbLine
 10
157.793945
 20
219.704186
 30
0.0
 11
157.509859
 21
219.722186
 31
0.0
  0
LINE
  5
13AA
100
AcDbEntity
  8
10000_FRONT
370
    50
390
0
  6
CONTINUOUS
 62
     7
100
AcDbLine
 10
157.509859
 20
219.722186
 30
0.0
 11
157.227873
 21
219.760708
 31
0.0
  0
LINE
  5
13AB
100
AcDbEntity
  8
10000_FRONT
370
    50
390
0
  6
CONTINUOUS
 62
     7
100
AcDbLine
 10
157.227873
 20
219.760708
 30
0.0
 11
156.949077
 21
219.819622
 31
0.0
  0
LINE
  5
13AC
100
AcDbEntity
  8
10000_FRONT
370
    50
390
0
  6
CONTINUOUS
 62
     7
100
AcDbLine
 10
156.949077
 20
219.819622
 30
0.0
 11
156.673426
 21
219.899163
 31
0.0
  0
LINE
  5
13AD
100
AcDbEntity
  8
10000_FRONT
370
    50
390
0
  6
CONTINUOUS
 62
     7
100
AcDbLine
 10
156.673426
 20
219.899163
 30
0.0
 11
156.39702
 21
220.001518
 31
0.0
  0
LINE
  5
13AE
100
AcDbEntity
  8
10000_FRONT
370
    50
390
0
  6
CONTINUOUS
 62
     7
100
AcDbLine
 10
156.39702
 20
220.001518
 30
0.0
 11
156.121135
 21
220.128197
 31
0.0
  0
LINE
  5
13AF
100
AcDbEntity
  8
10000_FRONT
370
    50
390
0
  6
CONTINUOUS
 62
     7
100
AcDbLine
 10
156.121135
 20
220.128197
 30
0.0
 11
155.847765
 21
220.280535
 31
0.0
  0
LINE
  5
13B0
100
AcDbEntity
  8
10000_FRONT
370
    50
390
0
  6
CONTINUOUS
 62
     7
100
AcDbLine
 10
155.847765
 20
220.280535
 30
0.0
 11
155.578907
 21
220.459864
 31
0.0
  0
LINE
  5
13B1
100
AcDbEntity
  8
10000_FRONT
370
    50
390
0
  6
CONTINUOUS
 62
     7
100
AcDbLine
 10
155.578907
 20
220.459864
 30
0.0
 11
155.320807
 21
220.663864
 31
0.0
  0
LINE
  5
13B2
100
AcDbEntity
  8
10000_FRONT
370
    50
390
0
  6
CONTINUOUS
 62
     7
100
AcDbLine
 10
155.320807
 20
220.663864
 30
0.0
 11
155.109423
 21
220.857908
 31
0.0
  0
LINE
  5
13B3
100
AcDbEntity
  8
10000_FRONT
370
    50
390
0
  6
CONTINUOUS
 62
     7
100
AcDbLine
 10
155.109423
 20
220.857908
 30
0.0
 11
154.950361
 21
221.021263
 31
0.0
  0
LINE
  5
13B4
100
AcDbEntity
  8
10000_FRONT
370
    50
390
0
  6
CONTINUOUS
 62
     7
100
AcDbLine
 10
154.950361
 20
221.021263
 30
0.0
 11
154.841047
 21
221.139081
 31
0.0
  0
LINE
  5
13B5
100
AcDbEntity
  8
10000_FRONT
370
    50
390
0
  6
CONTINUOUS
 62
     7
100
AcDbLine
 10
154.841047
 20
221.139081
 30
0.0
 11
154.784972
 21
221.188626
 31
0.0
  0
LINE
  5
13B6
100
AcDbEntity
  8
10000_FRONT
370
    50
390
0
  6
CONTINUOUS
 62
     7
100
AcDbLine
 10
154.784978
 20
221.188629
 30
0.0
 11
154.688624
 21
221.333508
 31
0.0
  0
LINE
  5
13B7
100
AcDbEntity
  8
10000_FRONT
370
    50
390
0
  6
CONTINUOUS
 62
     7
100
AcDbLine
 10
154.688624
 20
221.333508
 30
0.0
 11
154.59855
 21
221.483506
 31
0.0
  0
LINE
  5
13B8
100
AcDbEntity
  8
10000_FRONT
370
    50
390
0
  6
CONTINUOUS
 62
     7
100
AcDbLine
 10
154.59855
 20
221.483506
 30
0.0
 11
154.515133
 21
221.638082
 31
0.0
  0
LINE
  5
13B9
100
AcDbEntity
  8
10000_FRONT
370
    50
390
0
  6
CONTINUOUS
 62
     7
100
AcDbLine
 10
154.515133
 20
221.638082
 30
0.0
 11
154.438747
 21
221.796692
 31
0.0
  0
LINE
  5
13BA
100
AcDbEntity
  8
10000_FRONT
370
    50
390
0
  6
CONTINUOUS
 62
     7
100
AcDbLine
 10
154.438747
 20
221.796692
 30
0.0
 11
154.369764
 21
221.958796
 31
0.0
  0
LINE
  5
13BB
100
AcDbEntity
  8
10000_FRONT
370
    50
390
0
  6
CONTINUOUS
 62
     7
100
AcDbLine
 10
154.369764
 20
221.958796
 30
0.0
 11
154.308435
 21
222.1239
 31
0.0
  0
LINE
  5
13BC
100
AcDbEntity
  8
10000_FRONT
370
    50
390
0
  6
CONTINUOUS
 62
     7
100
AcDbLine
 10
154.308435
 20
222.1239
 30
0.0
 11
154.254881
 21
222.29139
 31
0.0
  0
LINE
  5
13BD
100
AcDbEntity
  8
10000_FRONT
370
    50
390
0
  6
CONTINUOUS
 62
     7
100
AcDbLine
 10
154.254822
 20
222.291373
 30
0.0
 11
154.258714
 21
222.295919
 31
0.0
  0
LINE
  5
13BE
100
AcDbEntity
  8
10000_FRONT
370
    50
390
0
  6
CONTINUOUS
 62
     7
100
AcDbLine
 10
154.258714
 20
222.295919
 30
0.0
 11
154.25982
 21
222.303276
 31
0.0
  0
LINE
  5
13BF
100
AcDbEntity
  8
10000_FRONT
370
    50
390
0
  6
CONTINUOUS
 62
     7
100
AcDbLine
 10
154.25982
 20
222.303276
 30
0.0
 11
154.260002
 21
222.31278
 31
0.0
  0
LINE
  5
13C0
100
AcDbEntity
  8
10000_FRONT
370
    50
390
0
  6
CONTINUOUS
 62
     7
100
AcDbLine
 10
154.260002
 20
222.31278
 30
0.0
 11
154.259478
 21
222.324686
 31
0.0
  0
LINE
  5
13C1
100
AcDbEntity
  8
10000_FRONT
370
    50
390
0
  6
CONTINUOUS
 62
     7
100
AcDbLine
 10
154.259478
 20
222.324686
 30
0.0
 11
154.258338
 21
222.338825
 31
0.0
  0
LINE
  5
13C2
100
AcDbEntity
  8
10000_FRONT
370
    50
390
0
  6
CONTINUOUS
 62
     7
100
AcDbLine
 10
154.258338
 20
222.338825
 30
0.0
 11
154.256644
 21
222.355161
 31
0.0
  0
LINE
  5
13C3
100
AcDbEntity
  8
10000_FRONT
370
    50
390
0
  6
CONTINUOUS
 62
     7
100
AcDbLine
 10
154.256644
 20
222.355161
 30
0.0
 11
154.254455
 21
222.373649
 31
0.0
  0
LINE
  5
13C4
100
AcDbEntity
  8
10000_FRONT
370
    50
390
0
  6
CONTINUOUS
 62
     7
100
AcDbLine
 10
154.254455
 20
222.373649
 30
0.0
 11
154.251831
 21
222.394238
 31
0.0
  0
LINE
  5
13C5
100
AcDbEntity
  8
10000_FRONT
370
    50
390
0
  6
CONTINUOUS
 62
     7
100
AcDbLine
 10
154.251831
 20
222.394238
 30
0.0
 11
154.24883
 21
222.416879
 31
0.0
  0
LINE
  5
13C6
100
AcDbEntity
  8
10000_FRONT
370
    50
390
0
  6
CONTINUOUS
 62
     7
100
AcDbLine
 10
154.24883
 20
222.416879
 30
0.0
 11
154.245511
 21
222.441522
 31
0.0
  0
LINE
  5
13C7
100
AcDbEntity
  8
10000_FRONT
370
    50
390
0
  6
CONTINUOUS
 62
     7
100
AcDbLine
 10
154.245511
 20
222.441522
 30
0.0
 11
154.241934
 21
222.468117
 31
0.0
  0
LINE
  5
13C8
100
AcDbEntity
  8
10000_FRONT
370
    50
390
0
  6
CONTINUOUS
 62
     7
100
AcDbLine
 10
154.241934
 20
222.468117
 30
0.0
 11
154.238156
 21
222.496615
 31
0.0
  0
LINE
  5
13C9
100
AcDbEntity
  8
10000_FRONT
370
    50
390
0
  6
CONTINUOUS
 62
     7
100
AcDbLine
 10
154.238156
 20
222.496615
 30
0.0
 11
154.234237
 21
222.526965
 31
0.0
  0
LINE
  5
13CA
100
AcDbEntity
  8
10000_FRONT
370
    50
390
0
  6
CONTINUOUS
 62
     7
100
AcDbLine
 10
154.234237
 20
222.526965
 30
0.0
 11
154.230237
 21
222.559118
 31
0.0
  0
LINE
  5
13CB
100
AcDbEntity
  8
10000_FRONT
370
    50
390
0
  6
CONTINUOUS
 62
     7
100
AcDbLine
 10
154.230237
 20
222.559118
 30
0.0
 11
154.226213
 21
222.593023
 31
0.0
  0
LINE
  5
13CC
100
AcDbEntity
  8
10000_FRONT
370
    50
390
0
  6
CONTINUOUS
 62
     7
100
AcDbLine
 10
154.226213
 20
222.593023
 30
0.0
 11
154.222225
 21
222.628631
 31
0.0
  0
LINE
  5
13CD
100
AcDbEntity
  8
10000_FRONT
370
    50
390
0
  6
CONTINUOUS
 62
     7
100
AcDbLine
 10
154.222225
 20
222.628631
 30
0.0
 11
154.218333
 21
222.665892
 31
0.0
  0
LINE
  5
13CE
100
AcDbEntity
  8
10000_FRONT
370
    50
390
0
  6
CONTINUOUS
 62
     7
100
AcDbLine
 10
154.218333
 20
222.665892
 30
0.0
 11
154.214593
 21
222.704757
 31
0.0
  0
LINE
  5
13CF
100
AcDbEntity
  8
10000_FRONT
370
    50
390
0
  6
CONTINUOUS
 62
     7
100
AcDbLine
 10
154.214593
 20
222.704757
 30
0.0
 11
154.211067
 21
222.745175
 31
0.0
  0
LINE
  5
13D0
100
AcDbEntity
  8
10000_FRONT
370
    50
390
0
  6
CONTINUOUS
 62
     7
100
AcDbLine
 10
154.211067
 20
222.745175
 30
0.0
 11
154.207868
 21
222.786401
 31
0.0
  0
LINE
  5
13D1
100
AcDbEntity
  8
10000_FRONT
370
    50
390
0
  6
CONTINUOUS
 62
     7
100
AcDbLine
 10
154.207868
 20
222.786401
 30
0.0
 11
154.205104
 21
222.827312
 31
0.0
  0
LINE
  5
13D2
100
AcDbEntity
  8
10000_FRONT
370
    50
390
0
  6
CONTINUOUS
 62
     7
100
AcDbLine
 10
154.205104
 20
222.827312
 30
0.0
 11
154.202768
 21
222.867892
 31
0.0
  0
LINE
  5
13D3
100
AcDbEntity
  8
10000_FRONT
370
    50
390
0
  6
CONTINUOUS
 62
     7
100
AcDbLine
 10
154.202768
 20
222.867892
 30
0.0
 11
154.200853
 21
222.908141
 31
0.0
  0
LINE
  5
13D4
100
AcDbEntity
  8
10000_FRONT
370
    50
390
0
  6
CONTINUOUS
 62
     7
100
AcDbLine
 10
154.200853
 20
222.908141
 30
0.0
 11
154.199351
 21
222.948058
 31
0.0
  0
LINE
  5
13D5
100
AcDbEntity
  8
10000_FRONT
370
    50
390
0
  6
CONTINUOUS
 62
     7
100
AcDbLine
 10
154.199351
 20
222.948058
 30
0.0
 11
154.198253
 21
222.987643
 31
0.0
  0
LINE
  5
13D6
100
AcDbEntity
  8
10000_FRONT
370
    50
390
0
  6
CONTINUOUS
 62
     7
100
AcDbLine
 10
154.198253
 20
222.987643
 30
0.0
 11
154.197551
 21
223.026894
 31
0.0
  0
LINE
  5
13D7
100
AcDbEntity
  8
10000_FRONT
370
    50
390
0
  6
CONTINUOUS
 62
     7
100
AcDbLine
 10
154.197551
 20
223.026894
 30
0.0
 11
154.197238
 21
223.06581
 31
0.0
  0
LINE
  5
13D8
100
AcDbEntity
  8
10000_FRONT
370
    50
390
0
  6
CONTINUOUS
 62
     7
100
AcDbLine
 10
154.197238
 20
223.06581
 30
0.0
 11
154.197304
 21
223.104391
 31
0.0
  0
LINE
  5
13D9
100
AcDbEntity
  8
10000_FRONT
370
    50
390
0
  6
CONTINUOUS
 62
     7
100
AcDbLine
 10
154.197304
 20
223.104391
 30
0.0
 11
154.197743
 21
223.142636
 31
0.0
  0
LINE
  5
13DA
100
AcDbEntity
  8
10000_FRONT
370
    50
390
0
  6
CONTINUOUS
 62
     7
100
AcDbLine
 10
154.197743
 20
223.142636
 30
0.0
 11
154.198546
 21
223.180543
 31
0.0
  0
LINE
  5
13DB
100
AcDbEntity
  8
10000_FRONT
370
    50
390
0
  6
CONTINUOUS
 62
     7
100
AcDbLine
 10
154.198546
 20
223.180543
 30
0.0
 11
154.199705
 21
223.218113
 31
0.0
  0
LINE
  5
13DC
100
AcDbEntity
  8
10000_FRONT
370
    50
390
0
  6
CONTINUOUS
 62
     7
100
AcDbLine
 10
154.199705
 20
223.218113
 30
0.0
 11
154.201213
 21
223.255343
 31
0.0
  0
LINE
  5
13DD
100
AcDbEntity
  8
10000_FRONT
370
    50
390
0
  6
CONTINUOUS
 62
     7
100
AcDbLine
 10
154.201213
 20
223.255343
 30
0.0
 11
154.20306
 21
223.292234
 31
0.0
  0
LINE
  5
13DE
100
AcDbEntity
  8
10000_FRONT
370
    50
390
0
  6
CONTINUOUS
 62
     7
100
AcDbLine
 10
154.20306
 20
223.292234
 30
0.0
 11
154.205239
 21
223.328784
 31
0.0
  0
LINE
  5
13DF
100
AcDbEntity
  8
10000_FRONT
370
    50
390
0
  6
CONTINUOUS
 62
     7
100
AcDbLine
 10
154.205239
 20
223.328784
 30
0.0
 11
154.207652
 21
223.364999
 31
0.0
  0
LINE
  5
13E0
100
AcDbEntity
  8
10000_FRONT
370
    50
390
0
  6
CONTINUOUS
 62
     7
100
AcDbLine
 10
161.592348
 20
223.364999
 30
0.0
 11
161.602688
 21
223.115267
 31
0.0
  0
LINE
  5
13E1
100
AcDbEntity
  8
10000_FRONT
370
    50
390
0
  6
CONTINUOUS
 62
     7
100
AcDbLine
 10
161.602688
 20
223.115267
 30
0.0
 11
161.598442
 21
222.892226
 31
0.0
  0
LINE
  5
13E2
100
AcDbEntity
  8
10000_FRONT
370
    50
390
0
  6
CONTINUOUS
 62
     7
100
AcDbLine
 10
161.598442
 20
222.892226
 30
0.0
 11
161.584844
 21
222.698843
 31
0.0
  0
LINE
  5
13E3
100
AcDbEntity
  8
10000_FRONT
370
    50
390
0
  6
CONTINUOUS
 62
     7
100
AcDbLine
 10
161.584844
 20
222.698843
 30
0.0
 11
161.567149
 21
222.538081
 31
0.0
  0
LINE
  5
13E4
100
AcDbEntity
  8
10000_FRONT
370
    50
390
0
  6
CONTINUOUS
 62
     7
100
AcDbLine
 10
161.567149
 20
222.538081
 30
0.0
 11
161.550619
 21
222.412907
 31
0.0
  0
LINE
  5
13E5
100
AcDbEntity
  8
10000_FRONT
370
    50
390
0
  6
CONTINUOUS
 62
     7
100
AcDbLine
 10
161.550619
 20
222.412907
 30
0.0
 11
161.540702
 21
222.327276
 31
0.0
  0
LINE
  5
13E6
100
AcDbEntity
  8
10000_FRONT
370
    50
390
0
  6
CONTINUOUS
 62
     7
100
AcDbLine
 10
161.540702
 20
222.327276
 30
0.0
 11
161.545178
 21
222.291373
 31
0.0
  0
LINE
  5
13E7
100
AcDbEntity
  8
10000_FRONT
370
    50
390
0
  6
CONTINUOUS
 62
     7
100
AcDbLine
 10
161.545178
 20
222.291373
 30
0.0
 11
161.491565
 21
222.1239
 31
0.0
  0
LINE
  5
13E8
100
AcDbEntity
  8
10000_FRONT
370
    50
390
0
  6
CONTINUOUS
 62
     7
100
AcDbLine
 10
161.491565
 20
222.1239
 30
0.0
 11
161.430236
 21
221.958796
 31
0.0
  0
LINE
  5
13E9
100
AcDbEntity
  8
10000_FRONT
370
    50
390
0
  6
CONTINUOUS
 62
     7
100
AcDbLine
 10
161.430236
 20
221.958796
 30
0.0
 11
161.361253
 21
221.796692
 31
0.0
  0
LINE
  5
13EA
100
AcDbEntity
  8
10000_FRONT
370
    50
390
0
  6
CONTINUOUS
 62
     7
100
AcDbLine
 10
161.361253
 20
221.796692
 30
0.0
 11
161.284867
 21
221.638082
 31
0.0
  0
LINE
  5
13EB
100
AcDbEntity
  8
10000_FRONT
370
    50
390
0
  6
CONTINUOUS
 62
     7
100
AcDbLine
 10
161.284867
 20
221.638082
 30
0.0
 11
161.201449
 21
221.483506
 31
0.0
  0
LINE
  5
13EC
100
AcDbEntity
  8
10000_FRONT
370
    50
390
0
  6
CONTINUOUS
 62
     7
100
AcDbLine
 10
161.201449
 20
221.483506
 30
0.0
 11
161.111376
 21
221.333508
 31
0.0
  0
LINE
  5
13ED
100
AcDbEntity
  8
10000_FRONT
370
    50
390
0
  6
CONTINUOUS
 62
     7
100
AcDbLine
 10
161.111376
 20
221.333508
 30
0.0
 11
161.015021
 21
221.188629
 31
0.0
  0
LINE
  5
13EE
100
AcDbEntity
  8
10000_FRONT
370
    50
390
0
  6
CONTINUOUS
 62
     7
100
AcDbLine
 10
163.636293
 20
221.188619
 30
0.0
 11
163.662164
 21
221.349509
 31
0.0
  0
LINE
  5
13EF
100
AcDbEntity
  8
10000_FRONT
370
    50
390
0
  6
CONTINUOUS
 62
     7
100
AcDbLine
 10
163.662164
 20
221.349509
 30
0.0
 11
163.695204
 21
221.510194
 31
0.0
  0
LINE
  5
13F0
100
AcDbEntity
  8
10000_FRONT
370
    50
390
0
  6
CONTINUOUS
 62
     7
100
AcDbLine
 10
163.695204
 20
221.510194
 30
0.0
 11
163.735395
 21
221.670112
 31
0.0
  0
LINE
  5
13F1
100
AcDbEntity
  8
10000_FRONT
370
    50
390
0
  6
CONTINUOUS
 62
     7
100
AcDbLine
 10
163.735395
 20
221.670112
 30
0.0
 11
163.782639
 21
221.828723
 31
0.0
  0
LINE
  5
13F2
100
AcDbEntity
  8
10000_FRONT
370
    50
390
0
  6
CONTINUOUS
 62
     7
100
AcDbLine
 10
163.782639
 20
221.828723
 30
0.0
 11
163.836834
 21
221.985481
 31
0.0
  0
LINE
  5
13F3
100
AcDbEntity
  8
10000_FRONT
370
    50
390
0
  6
CONTINUOUS
 62
     7
100
AcDbLine
 10
163.836834
 20
221.985481
 30
0.0
 11
163.897882
 21
222.139844
 31
0.0
  0
LINE
  5
13F4
100
AcDbEntity
  8
10000_FRONT
370
    50
390
0
  6
CONTINUOUS
 62
     7
100
AcDbLine
 10
163.897882
 20
222.139844
 30
0.0
 11
163.96566
 21
222.291358
 31
0.0
  0
LINE
  5
13F5
100
AcDbEntity
  8
10000_FRONT
370
    50
390
0
  6
CONTINUOUS
 62
     7
100
AcDbLine
 10
170.834372
 20
222.291373
 30
0.0
 11
170.902117
 21
222.139844
 31
0.0
  0
LINE
  5
13F6
100
AcDbEntity
  8
10000_FRONT
370
    50
390
0
  6
CONTINUOUS
 62
     7
100
AcDbLine
 10
170.902117
 20
222.139844
 30
0.0
 11
170.963165
 21
221.985481
 31
0.0
  0
LINE
  5
13F7
100
AcDbEntity
  8
10000_FRONT
370
    50
390
0
  6
CONTINUOUS
 62
     7
100
AcDbLine
 10
170.963165
 20
221.985481
 30
0.0
 11
171.017361
 21
221.828723
 31
0.0
  0
LINE
  5
13F8
100
AcDbEntity
  8
10000_FRONT
370
    50
390
0
  6
CONTINUOUS
 62
     7
100
AcDbLine
 10
171.017361
 20
221.828723
 30
0.0
 11
171.064606
 21
221.670112
 31
0.0
  0
LINE
  5
13F9
100
AcDbEntity
  8
10000_FRONT
370
    50
390
0
  6
CONTINUOUS
 62
     7
100
AcDbLine
 10
171.064606
 20
221.670112
 30
0.0
 11
171.104795
 21
221.510194
 31
0.0
  0
LINE
  5
13FA
100
AcDbEntity
  8
10000_FRONT
370
    50
390
0
  6
CONTINUOUS
 62
     7
100
AcDbLine
 10
171.104795
 20
221.510194
 30
0.0
 11
171.137836
 21
221.349509
 31
0.0
  0
LINE
  5
13FB
100
AcDbEntity
  8
10000_FRONT
370
    50
390
0
  6
CONTINUOUS
 62
     7
100
AcDbLine
 10
171.137836
 20
221.349509
 30
0.0
 11
171.163706
 21
221.188619
 31
0.0
  0
LINE
  5
13FC
100
AcDbEntity
  8
10000_FRONT
370
    50
390
0
  6
CONTINUOUS
 62
     7
100
AcDbLine
 10
171.134842
 20
220.664999
 30
0.0
 11
171.072432
 21
220.216016
 31
0.0
  0
LINE
  5
13FD
100
AcDbEntity
  8
10000_FRONT
370
    50
390
0
  6
CONTINUOUS
 62
     7
100
AcDbLine
 10
171.072432
 20
220.216016
 30
0.0
 11
170.973478
 21
219.824327
 31
0.0
  0
LINE
  5
13FE
100
AcDbEntity
  8
10000_FRONT
370
    50
390
0
  6
CONTINUOUS
 62
     7
100
AcDbLine
 10
170.973478
 20
219.824327
 30
0.0
 11
170.852842
 21
219.490562
 31
0.0
  0
LINE
  5
13FF
100
AcDbEntity
  8
10000_FRONT
370
    50
390
0
  6
CONTINUOUS
 62
     7
100
AcDbLine
 10
170.852842
 20
219.490562
 30
0.0
 11
170.725355
 21
219.215294
 31
0.0
  0
LINE
  5
1400
100
AcDbEntity
  8
10000_FRONT
370
    50
390
0
  6
CONTINUOUS
 62
     7
100
AcDbLine
 10
170.725355
 20
219.215294
 30
0.0
 11
170.589474
 21
218.972567
 31
0.0
  0
LINE
  5
1401
100
AcDbEntity
  8
10000_FRONT
370
    50
390
0
  6
CONTINUOUS
 62
     7
100
AcDbLine
 10
170.589474
 20
218.972567
 30
0.0
 11
170.436487
 21
218.741022
 31
0.0
  0
LINE
  5
1402
100
AcDbEntity
  8
10000_FRONT
370
    50
390
0
  6
CONTINUOUS
 62
     7
100
AcDbLine
 10
170.436487
 20
218.741022
 30
0.0
 11
170.267063
 21
218.521559
 31
0.0
  0
LINE
  5
1403
100
AcDbEntity
  8
10000_FRONT
370
    50
390
0
  6
CONTINUOUS
 62
     7
100
AcDbLine
 10
170.267063
 20
218.521559
 30
0.0
 11
170.081871
 21
218.315075
 31
0.0
  0
LINE
  5
1404
100
AcDbEntity
  8
10000_FRONT
370
    50
390
0
  6
CONTINUOUS
 62
     7
100
AcDbLine
 10
170.081871
 20
218.315075
 30
0.0
 11
169.881575
 21
218.122473
 31
0.0
  0
LINE
  5
1405
100
AcDbEntity
  8
10000_FRONT
370
    50
390
0
  6
CONTINUOUS
 62
     7
100
AcDbLine
 10
169.881575
 20
218.122473
 30
0.0
 11
169.667248
 21
217.944963
 31
0.0
  0
LINE
  5
1406
100
AcDbEntity
  8
10000_FRONT
370
    50
390
0
  6
CONTINUOUS
 62
     7
100
AcDbLine
 10
169.667248
 20
217.944963
 30
0.0
 11
169.440889
 21
217.784217
 31
0.0
  0
LINE
  5
1407
100
AcDbEntity
  8
10000_FRONT
370
    50
390
0
  6
CONTINUOUS
 62
     7
100
AcDbLine
 10
169.440889
 20
217.784217
 30
0.0
 11
169.203556
 21
217.640884
 31
0.0
  0
LINE
  5
1408
100
AcDbEntity
  8
10000_FRONT
370
    50
390
0
  6
CONTINUOUS
 62
     7
100
AcDbLine
 10
169.203556
 20
217.640884
 30
0.0
 11
168.956234
 21
217.515549
 31
0.0
  0
LINE
  5
1409
100
AcDbEntity
  8
10000_FRONT
370
    50
390
0
  6
CONTINUOUS
 62
     7
100
AcDbLine
 10
168.956234
 20
217.515549
 30
0.0
 11
168.699903
 21
217.408799
 31
0.0
  0
LINE
  5
140A
100
AcDbEntity
  8
10000_FRONT
370
    50
390
0
  6
CONTINUOUS
 62
     7
100
AcDbLine
 10
168.699903
 20
217.408799
 30
0.0
 11
168.435703
 21
217.321261
 31
0.0
  0
LINE
  5
140B
100
AcDbEntity
  8
10000_FRONT
370
    50
390
0
  6
CONTINUOUS
 62
     7
100
AcDbLine
 10
168.435703
 20
217.321261
 30
0.0
 11
168.166105
 21
217.253809
 31
0.0
  0
LINE
  5
140C
100
AcDbEntity
  8
10000_FRONT
370
    50
390
0
  6
CONTINUOUS
 62
     7
100
AcDbLine
 10
168.166105
 20
217.253809
 30
0.0
 11
167.892593
 21
217.206739
 31
0.0
  0
LINE
  5
140D
100
AcDbEntity
  8
10000_FRONT
370
    50
390
0
  6
CONTINUOUS
 62
     7
100
AcDbLine
 10
167.892593
 20
217.206739
 30
0.0
 11
167.616304
 21
217.180222
 31
0.0
  0
LINE
  5
140E
100
AcDbEntity
  8
10000_FRONT
370
    50
390
0
  6
CONTINUOUS
 62
     7
100
AcDbLine
 10
167.616304
 20
217.180222
 30
0.0
 11
167.338371
 21
217.174428
 31
0.0
  0
LINE
  5
140F
100
AcDbEntity
  8
10000_FRONT
370
    50
390
0
  6
CONTINUOUS
 62
     7
100
AcDbLine
 10
167.338371
 20
217.174428
 30
0.0
 11
167.060478
 21
217.189474
 31
0.0
  0
LINE
  5
1410
100
AcDbEntity
  8
10000_FRONT
370
    50
390
0
  6
CONTINUOUS
 62
     7
100
AcDbLine
 10
167.060478
 20
217.189474
 30
0.0
 11
166.785136
 21
217.225181
 31
0.0
  0
LINE
  5
1411
100
AcDbEntity
  8
10000_FRONT
370
    50
390
0
  6
CONTINUOUS
 62
     7
100
AcDbLine
 10
166.785136
 20
217.225181
 30
0.0
 11
166.51353
 21
217.281279
 31
0.0
  0
LINE
  5
1412
100
AcDbEntity
  8
10000_FRONT
370
    50
390
0
  6
CONTINUOUS
 62
     7
100
AcDbLine
 10
166.51353
 20
217.281279
 30
0.0
 11
166.246774
 21
217.357496
 31
0.0
  0
LINE
  5
1413
100
AcDbEntity
  8
10000_FRONT
370
    50
390
0
  6
CONTINUOUS
 62
     7
100
AcDbLine
 10
166.246774
 20
217.357496
 30
0.0
 11
165.985981
 21
217.45356
 31
0.0
  0
LINE
  5
1414
100
AcDbEntity
  8
10000_FRONT
370
    50
390
0
  6
CONTINUOUS
 62
     7
100
AcDbLine
 10
165.985981
 20
217.45356
 30
0.0
 11
165.732733
 21
217.568965
 31
0.0
  0
LINE
  5
1415
100
AcDbEntity
  8
10000_FRONT
370
    50
390
0
  6
CONTINUOUS
 62
     7
100
AcDbLine
 10
165.732733
 20
217.568965
 30
0.0
 11
165.489301
 21
217.70262
 31
0.0
  0
LINE
  5
1416
100
AcDbEntity
  8
10000_FRONT
370
    50
390
0
  6
CONTINUOUS
 62
     7
100
AcDbLine
 10
165.489301
 20
217.70262
 30
0.0
 11
165.256686
 21
217.85383
 31
0.0
  0
LINE
  5
1417
100
AcDbEntity
  8
10000_FRONT
370
    50
390
0
  6
CONTINUOUS
 62
     7
100
AcDbLine
 10
165.256686
 20
217.85383
 30
0.0
 11
165.035823
 21
218.02193
 31
0.0
  0
LINE
  5
1418
100
AcDbEntity
  8
10000_FRONT
370
    50
390
0
  6
CONTINUOUS
 62
     7
100
AcDbLine
 10
165.035823
 20
218.02193
 30
0.0
 11
164.827641
 21
218.20625
 31
0.0
  0
LINE
  5
1419
100
AcDbEntity
  8
10000_FRONT
370
    50
390
0
  6
CONTINUOUS
 62
     7
100
AcDbLine
 10
164.827641
 20
218.20625
 30
0.0
 11
164.633538
 21
218.405608
 31
0.0
  0
LINE
  5
141A
100
AcDbEntity
  8
10000_FRONT
370
    50
390
0
  6
CONTINUOUS
 62
     7
100
AcDbLine
 10
164.633538
 20
218.405608
 30
0.0
 11
164.45507
 21
218.618294
 31
0.0
  0
LINE
  5
141B
100
AcDbEntity
  8
10000_FRONT
370
    50
390
0
  6
CONTINUOUS
 62
     7
100
AcDbLine
 10
164.45507
 20
218.618294
 30
0.0
 11
164.292867
 21
218.843364
 31
0.0
  0
LINE
  5
141C
100
AcDbEntity
  8
10000_FRONT
370
    50
390
0
  6
CONTINUOUS
 62
     7
100
AcDbLine
 10
164.292867
 20
218.843364
 30
0.0
 11
164.147543
 21
219.079896
 31
0.0
  0
LINE
  5
141D
100
AcDbEntity
  8
10000_FRONT
370
    50
390
0
  6
CONTINUOUS
 62
     7
100
AcDbLine
 10
164.147543
 20
219.079896
 30
0.0
 11
164.019712
 21
219.326959
 31
0.0
  0
LINE
  5
141E
100
AcDbEntity
  8
10000_FRONT
370
    50
390
0
  6
CONTINUOUS
 62
     7
100
AcDbLine
 10
164.019712
 20
219.326959
 30
0.0
 11
163.910262
 21
219.582906
 31
0.0
  0
LINE
  5
141F
100
AcDbEntity
  8
10000_FRONT
370
    50
390
0
  6
CONTINUOUS
 62
     7
100
AcDbLine
 10
163.910262
 20
219.582906
 30
0.0
 11
163.819921
 21
219.845852
 31
0.0
  0
LINE
  5
1420
100
AcDbEntity
  8
10000_FRONT
370
    50
390
0
  6
CONTINUOUS
 62
     7
100
AcDbLine
 10
163.819921
 20
219.845852
 30
0.0
 11
163.748837
 21
220.115028
 31
0.0
  0
LINE
  5
1421
100
AcDbEntity
  8
10000_FRONT
370
    50
390
0
  6
CONTINUOUS
 62
     7
100
AcDbLine
 10
163.748837
 20
220.115028
 30
0.0
 11
163.697325
 21
220.388419
 31
0.0
  0
LINE
  5
1422
100
AcDbEntity
  8
10000_FRONT
370
    50
390
0
  6
CONTINUOUS
 62
     7
100
AcDbLine
 10
163.697325
 20
220.388419
 30
0.0
 11
163.665158
 21
220.664999
 31
0.0
  0
LINE
  5
1423
100
AcDbEntity
  8
10000_FRONT
370
    50
390
0
  6
CONTINUOUS
 62
     7
100
AcDbLine
 10
143.361269
 20
213.267599
 30
0.0
 11
143.505973
 21
213.267599
 31
0.0
  0
LINE
  5
1424
100
AcDbEntity
  8
10000_FRONT
370
    50
390
0
  6
CONTINUOUS
 62
     7
100
AcDbLine
 10
143.505973
 20
213.267598
 30
0.0
 11
143.571625
 21
213.133777
 31
0.0
  0
LINE
  5
1425
100
AcDbEntity
  8
10000_FRONT
370
    50
390
0
  6
CONTINUOUS
 62
     7
100
AcDbLine
 10
143.571625
 20
213.133777
 30
0.0
 11
143.882469
 21
212.980106
 31
0.0
  0
LINE
  5
1426
100
AcDbEntity
  8
10000_FRONT
370
    50
390
0
  6
CONTINUOUS
 62
     7
100
AcDbLine
 10
143.882469
 20
212.980106
 30
0.0
 11
144.162497
 21
212.980106
 31
0.0
  0
LINE
  5
1427
100
AcDbEntity
  8
10000_FRONT
370
    50
390
0
  6
CONTINUOUS
 62
     7
100
AcDbLine
 10
144.162497
 20
212.980106
 30
0.0
 11
144.346055
 21
213.044262
 31
0.0
  0
LINE
  5
1428
100
AcDbEntity
  8
10000_FRONT
370
    50
390
0
  6
CONTINUOUS
 62
     7
100
AcDbLine
 10
144.346055
 20
213.044262
 30
0.0
 11
144.474679
 21
213.128583
 31
0.0
  0
LINE
  5
1429
100
AcDbEntity
  8
10000_FRONT
370
    50
390
0
  6
CONTINUOUS
 62
     7
100
AcDbLine
 10
144.474679
 20
213.128583
 30
0.0
 11
144.56043
 21
213.256905
 31
0.0
  0
LINE
  5
142A
100
AcDbEntity
  8
10000_FRONT
370
    50
390
0
  6
CONTINUOUS
 62
     7
100
AcDbLine
 10
144.56043
 20
213.256905
 30
0.0
 11
144.623402
 21
213.441761
 31
0.0
  0
LINE
  5
142B
100
AcDbEntity
  8
10000_FRONT
370
    50
390
0
  6
CONTINUOUS
 62
     7
100
AcDbLine
 10
143.832894
 20
213.99153
 30
0.0
 11
144.427496
 21
214.75965
 31
0.0
  0
LINE
  5
142C
100
AcDbEntity
  8
10000_FRONT
370
    50
390
0
  6
CONTINUOUS
 62
     7
100
AcDbLine
 10
143.566266
 20
214.896997
 30
0.0
 11
144.697094
 21
214.896997
 31
0.0
  0
LINE
  5
142D
100
AcDbEntity
  8
10000_FRONT
370
    50
390
0
  6
CONTINUOUS
 62
     7
100
AcDbLine
 10
144.094677
 20
214.131514
 30
0.0
 11
144.167856
 21
214.131514
 31
0.0
  0
LINE
  5
142E
100
AcDbEntity
  8
10000_FRONT
370
    50
390
0
  6
CONTINUOUS
 62
     7
100
AcDbLine
 10
144.167855
 20
214.131515
 30
0.0
 11
144.463961
 21
214.032791
 31
0.0
  0
LINE
  5
142F
100
AcDbEntity
  8
10000_FRONT
370
    50
390
0
  6
CONTINUOUS
 62
     7
100
AcDbLine
 10
144.463961
 20
214.032791
 30
0.0
 11
144.664937
 21
213.832606
 31
0.0
  0
LINE
  5
1430
100
AcDbEntity
  8
10000_FRONT
370
    50
390
0
  6
CONTINUOUS
 62
     7
100
AcDbLine
 10
144.664937
 20
213.832606
 30
0.0
 11
144.762746
 21
213.537404
 31
0.0
  0
LINE
  5
1431
100
AcDbEntity
  8
10000_FRONT
370
    50
390
0
  6
CONTINUOUS
 62
     7
100
AcDbLine
 10
146.277481
 20
212.843247
 30
0.0
 11
147.063969
 21
214.896997
 31
0.0
  0
LINE
  5
1432
100
AcDbEntity
  8
10000_FRONT
370
    50
390
0
  6
CONTINUOUS
 62
     7
100
AcDbLine
 10
147.063969
 20
214.896997
 30
0.0
 11
147.093445
 21
214.896997
 31
0.0
  0
LINE
  5
1433
100
AcDbEntity
  8
10000_FRONT
370
    50
390
0
  6
CONTINUOUS
 62
     7
100
AcDbLine
 10
147.093445
 20
214.896997
 30
0.0
 11
147.879934
 21
212.843247
 31
0.0
  0
LINE
  5
1434
100
AcDbEntity
  8
10000_FRONT
370
    50
390
0
  6
CONTINUOUS
 62
     7
100
AcDbLine
 10
149.4644
 20
213.540154
 30
0.0
 11
149.563549
 21
213.740313
 31
0.0
  0
LINE
  5
1435
100
AcDbEntity
  8
10000_FRONT
370
    50
390
0
  6
CONTINUOUS
 62
     7
100
AcDbLine
 10
149.563549
 20
213.740313
 30
0.0
 11
149.760774
 21
213.936517
 31
0.0
  0
LINE
  5
1436
100
AcDbEntity
  8
10000_FRONT
370
    50
390
0
  6
CONTINUOUS
 62
     7
100
AcDbLine
 10
149.760774
 20
213.936517
 30
0.0
 11
149.916798
 21
214.013782
 31
0.0
  0
LINE
  5
1437
100
AcDbEntity
  8
10000_FRONT
370
    50
390
0
  6
CONTINUOUS
 62
     7
100
AcDbLine
 10
149.560869
 20
214.593708
 30
0.0
 11
149.661625
 21
214.798241
 31
0.0
  0
LINE
  5
1438
100
AcDbEntity
  8
10000_FRONT
370
    50
390
0
  6
CONTINUOUS
 62
     7
100
AcDbLine
 10
149.661625
 20
214.798241
 30
0.0
 11
149.96443
 21
214.896997
 31
0.0
  0
LINE
  5
1439
100
AcDbEntity
  8
10000_FRONT
370
    50
390
0
  6
CONTINUOUS
 62
     7
100
AcDbLine
 10
149.96443
 20
214.896997
 30
0.0
 11
150.35486
 21
214.896997
 31
0.0
  0
LINE
  5
143A
100
AcDbEntity
  8
10000_FRONT
370
    50
390
0
  6
CONTINUOUS
 62
     7
100
AcDbLine
 10
150.35486
 20
214.896997
 30
0.0
 11
150.656325
 21
214.798241
 31
0.0
  0
LINE
  5
143B
100
AcDbEntity
  8
10000_FRONT
370
    50
390
0
  6
CONTINUOUS
 62
     7
100
AcDbLine
 10
150.656325
 20
214.798241
 30
0.0
 11
150.758421
 21
214.593708
 31
0.0
  0
LINE
  5
143C
100
AcDbEntity
  8
10000_FRONT
370
    50
390
0
  6
CONTINUOUS
 62
     7
100
AcDbLine
 10
150.401152
 20
214.013782
 30
0.0
 11
150.557176
 21
213.936517
 31
0.0
  0
LINE
  5
143D
100
AcDbEntity
  8
10000_FRONT
370
    50
390
0
  6
CONTINUOUS
 62
     7
100
AcDbLine
 10
150.557176
 20
213.936517
 30
0.0
 11
150.755741
 21
213.740313
 31
0.0
  0
LINE
  5
143E
100
AcDbEntity
  8
10000_FRONT
370
    50
390
0
  6
CONTINUOUS
 62
     7
100
AcDbLine
 10
150.755741
 20
213.740313
 30
0.0
 11
150.85355
 21
213.540154
 31
0.0
  0
LINE
  5
143F
100
AcDbEntity
  8
10000_FRONT
370
    50
390
0
  6
CONTINUOUS
 62
     7
100
AcDbLine
 10
147.967871
 20
212.843247
 30
0.0
 11
148.769098
 21
213.74123
 31
0.0
  0
LINE
  5
1440
100
AcDbEntity
  8
10000_FRONT
370
    50
390
0
  6
CONTINUOUS
 62
     7
100
AcDbLine
 10
148.769098
 20
213.74123
 30
0.0
 11
149.054484
 21
214.120817
 31
0.0
  0
LINE
  5
1441
100
AcDbEntity
  8
10000_FRONT
370
    50
390
0
  6
CONTINUOUS
 62
     7
100
AcDbLine
 10
149.054484
 20
214.120817
 30
0.0
 11
149.146934
 21
214.308189
 31
0.0
  0
LINE
  5
1442
100
AcDbEntity
  8
10000_FRONT
370
    50
390
0
  6
CONTINUOUS
 62
     7
100
AcDbLine
 10
148.091136
 20
214.499245
 30
0.0
 11
148.188945
 21
214.699794
 31
0.0
  0
LINE
  5
1443
100
AcDbEntity
  8
10000_FRONT
370
    50
390
0
  6
CONTINUOUS
 62
     7
100
AcDbLine
 10
148.188945
 20
214.699794
 30
0.0
 11
148.290774
 21
214.799464
 31
0.0
  0
LINE
  5
1444
100
AcDbEntity
  8
10000_FRONT
370
    50
390
0
  6
CONTINUOUS
 62
     7
100
AcDbLine
 10
148.290774
 20
214.799464
 30
0.0
 11
148.49175
 21
214.896997
 31
0.0
  0
LINE
  5
1445
100
AcDbEntity
  8
10000_FRONT
370
    50
390
0
  6
CONTINUOUS
 62
     7
100
AcDbLine
 10
148.49175
 20
214.896997
 30
0.0
 11
148.887004
 21
214.896997
 31
0.0
  0
LINE
  5
1446
100
AcDbEntity
  8
10000_FRONT
370
    50
390
0
  6
CONTINUOUS
 62
     7
100
AcDbLine
 10
148.887004
 20
214.896997
 30
0.0
 11
149.086641
 21
214.797935
 31
0.0
  0
LINE
  5
1447
100
AcDbEntity
  8
10000_FRONT
370
    50
390
0
  6
CONTINUOUS
 62
     7
100
AcDbLine
 10
149.086641
 20
214.797935
 30
0.0
 11
149.188469
 21
214.697654
 31
0.0
  0
LINE
  5
1448
100
AcDbEntity
  8
10000_FRONT
370
    50
390
0
  6
CONTINUOUS
 62
     7
100
AcDbLine
 10
149.188469
 20
214.697654
 30
0.0
 11
149.287617
 21
214.497105
 31
0.0
  0
LINE
  5
1449
100
AcDbEntity
  8
10000_FRONT
370
    50
390
0
  6
CONTINUOUS
 62
     7
100
AcDbLine
 10
148.260025
 20
212.980106
 30
0.0
 11
149.382746
 21
212.980106
 31
0.0
  0
LINE
  5
144A
100
AcDbEntity
  8
10000_FRONT
370
    50
390
0
  6
CONTINUOUS
 62
     7
100
AcDbLine
 10
144.8773
 20
214.896997
 30
0.0
 11
145.667272
 21
214.896997
 31
0.0
  0
LINE
  5
144B
100
AcDbEntity
  8
10000_FRONT
370
    50
390
0
  6
CONTINUOUS
 62
     7
100
AcDbLine
 10
145.667272
 20
214.896997
 30
0.0
 11
145.962037
 21
214.798241
 31
0.0
  0
LINE
  5
144C
100
AcDbEntity
  8
10000_FRONT
370
    50
390
0
  6
CONTINUOUS
 62
     7
100
AcDbLine
 10
145.962038
 20
214.798241
 30
0.0
 11
146.066278
 21
214.698265
 31
0.0
  0
LINE
  5
144D
100
AcDbEntity
  8
10000_FRONT
370
    50
390
0
  6
CONTINUOUS
 62
     7
100
AcDbLine
 10
146.066278
 20
214.698265
 30
0.0
 11
146.16355
 21
214.498022
 31
0.0
  0
LINE
  5
144E
100
AcDbEntity
  8
10000_FRONT
370
    50
390
0
  6
CONTINUOUS
 62
     7
100
AcDbLine
 10
145.606963
 20
213.800566
 30
0.0
 11
146.180968
 21
212.843247
 31
0.0
  0
LINE
  5
144F
100
AcDbEntity
  8
10000_FRONT
370
    50
390
0
  6
CONTINUOUS
 62
     7
100
AcDbLine
 10
145.935241
 20
214.032181
 30
0.0
 11
145.935241
 21
214.031468
 31
0.0
  0
LINE
  5
1450
100
AcDbEntity
  8
10000_FRONT
370
    50
390
0
  6
CONTINUOUS
 62
     7
100
AcDbLine
 10
145.660841
 20
213.938351
 30
0.0
 11
145.93524
 21
214.03218
 31
0.0
  0
LINE
  5
1451
100
AcDbEntity
  8
10000_FRONT
370
    50
390
0
  6
CONTINUOUS
 62
     7
100
AcDbLine
 10
145.660841
 20
213.93835
 30
0.0
 11
145.660841
 21
213.937578
 31
0.0
  0
LINE
  5
1452
100
AcDbEntity
  8
10000_FRONT
370
    50
390
0
  6
CONTINUOUS
 62
     7
100
AcDbLine
 10
145.935241
 20
214.031468
 30
0.0
 11
145.660841
 21
213.937578
 31
0.0
  0
LINE
  5
1453
100
AcDbEntity
  8
10000_FRONT
370
    50
390
0
  6
CONTINUOUS
 62
     7
100
AcDbLine
 10
145.0145
 20
213.93835
 30
0.0
 11
145.660841
 21
213.93835
 31
0.0
  0
LINE
  5
1454
100
AcDbEntity
  8
10000_FRONT
370
    50
390
0
  6
CONTINUOUS
 62
     7
100
AcDbLine
 10
145.660841
 20
213.937578
 30
0.0
 11
145.0145
 21
213.937578
 31
0.0
  0
LINE
  5
1455
100
AcDbEntity
  8
10000_FRONT
370
    50
390
0
  6
CONTINUOUS
 62
     7
100
AcDbLine
 10
145.0145
 20
213.937578
 30
0.0
 11
145.0145
 21
214.75965
 31
0.0
  0
LINE
  5
1456
100
AcDbEntity
  8
10000_FRONT
370
    50
390
0
  6
CONTINUOUS
 62
     7
100
AcDbLine
 10
145.0145
 20
214.75965
 30
0.0
 11
145.660841
 21
214.75965
 31
0.0
  0
LINE
  5
1457
100
AcDbEntity
  8
10000_FRONT
370
    50
390
0
  6
CONTINUOUS
 62
     7
100
AcDbLine
 10
146.066009
 20
213.999356
 30
0.0
 11
145.96177
 21
213.89935
 31
0.0
  0
LINE
  5
1458
100
AcDbEntity
  8
10000_FRONT
370
    50
390
0
  6
CONTINUOUS
 62
     7
100
AcDbLine
 10
146.16355
 20
214.199675
 30
0.0
 11
146.066009
 21
213.999356
 31
0.0
  0
LINE
  5
1459
100
AcDbEntity
  8
10000_FRONT
370
    50
390
0
  6
CONTINUOUS
 62
     7
100
AcDbLine
 10
146.16355
 20
214.498022
 30
0.0
 11
146.16355
 21
214.497554
 31
0.0
  0
LINE
  5
145A
100
AcDbEntity
  8
10000_FRONT
370
    50
390
0
  6
CONTINUOUS
 62
     7
100
AcDbLine
 10
146.16355
 20
214.497554
 30
0.0
 11
146.16355
 21
214.199675
 31
0.0
  0
LINE
  5
145B
100
AcDbEntity
  8
10000_FRONT
370
    50
390
0
  6
CONTINUOUS
 62
     7
100
AcDbLine
 10
146.066278
 20
214.698265
 30
0.0
 11
146.066278
 21
214.697872
 31
0.0
  0
LINE
  5
145C
100
AcDbEntity
  8
10000_FRONT
370
    50
390
0
  6
CONTINUOUS
 62
     7
100
AcDbLine
 10
146.066278
 20
214.697872
 30
0.0
 11
146.16355
 21
214.497554
 31
0.0
  0
LINE
  5
145D
100
AcDbEntity
  8
10000_FRONT
370
    50
390
0
  6
CONTINUOUS
 62
     7
100
AcDbLine
 10
145.962038
 20
214.79824
 30
0.0
 11
145.962038
 21
214.797879
 31
0.0
  0
LINE
  5
145E
100
AcDbEntity
  8
10000_FRONT
370
    50
390
0
  6
CONTINUOUS
 62
     7
100
AcDbLine
 10
145.962038
 20
214.797879
 30
0.0
 11
146.066278
 21
214.697872
 31
0.0
  0
LINE
  5
145F
100
AcDbEntity
  8
10000_FRONT
370
    50
390
0
  6
CONTINUOUS
 62
     7
100
AcDbLine
 10
145.667272
 20
214.896997
 30
0.0
 11
145.667272
 21
214.896662
 31
0.0
  0
LINE
  5
1460
100
AcDbEntity
  8
10000_FRONT
370
    50
390
0
  6
CONTINUOUS
 62
     7
100
AcDbLine
 10
145.667272
 20
214.896662
 30
0.0
 11
145.962038
 21
214.797879
 31
0.0
  0
LINE
  5
1461
100
AcDbEntity
  8
10000_FRONT
370
    50
390
0
  6
CONTINUOUS
 62
     7
100
AcDbLine
 10
144.8773
 20
214.896997
 30
0.0
 11
144.8773
 21
214.896662
 31
0.0
  0
LINE
  5
1462
100
AcDbEntity
  8
10000_FRONT
370
    50
390
0
  6
CONTINUOUS
 62
     7
100
AcDbLine
 10
144.8773
 20
214.896662
 30
0.0
 11
145.667272
 21
214.896662
 31
0.0
  0
LINE
  5
1463
100
AcDbEntity
  8
10000_FRONT
370
    50
390
0
  6
CONTINUOUS
 62
     7
100
AcDbLine
 10
144.8773
 20
212.841483
 30
0.0
 11
144.8773
 21
214.896662
 31
0.0
  0
LINE
  5
1464
100
AcDbEntity
  8
10000_FRONT
370
    50
390
0
  6
CONTINUOUS
 62
     7
100
AcDbLine
 10
145.660841
 20
214.75965
 30
0.0
 11
145.935241
 21
214.665761
 31
0.0
  0
LINE
  5
1465
100
AcDbEntity
  8
10000_FRONT
370
    50
390
0
  6
CONTINUOUS
 62
     7
100
AcDbLine
 10
145.935241
 20
214.665761
 30
0.0
 11
146.02635
 21
214.487461
 31
0.0
  0
LINE
  5
1466
100
AcDbEntity
  8
10000_FRONT
370
    50
390
0
  6
CONTINUOUS
 62
     7
100
AcDbLine
 10
146.02635
 20
214.487461
 30
0.0
 11
146.02635
 21
214.209767
 31
0.0
  0
LINE
  5
1467
100
AcDbEntity
  8
10000_FRONT
370
    50
390
0
  6
CONTINUOUS
 62
     7
100
AcDbLine
 10
145.935241
 20
214.03218
 30
0.0
 11
146.02635
 21
214.210375
 31
0.0
  0
LINE
  5
1468
100
AcDbEntity
  8
10000_FRONT
370
    50
390
0
  6
CONTINUOUS
 62
     7
100
AcDbLine
 10
146.02635
 20
214.209767
 30
0.0
 11
145.935241
 21
214.031468
 31
0.0
  0
LINE
  5
1469
100
AcDbEntity
  8
10000_FRONT
370
    50
390
0
  6
CONTINUOUS
 62
     7
100
AcDbLine
 10
145.96177
 20
213.89935
 30
0.0
 11
145.666468
 21
213.800566
 31
0.0
  0
LINE
  5
146A
100
AcDbEntity
  8
10000_FRONT
370
    50
390
0
  6
CONTINUOUS
 62
     7
100
AcDbLine
 10
145.666468
 20
213.800566
 30
0.0
 11
145.606443
 21
213.800566
 31
0.0
  0
LINE
  5
146B
100
AcDbEntity
  8
10000_FRONT
370
    50
390
0
  6
CONTINUOUS
 62
     7
100
AcDbLine
 10
146.180968
 20
212.843247
 30
0.0
 11
146.180968
 21
212.841483
 31
0.0
  0
LINE
  5
146C
100
AcDbEntity
  8
10000_FRONT
370
    50
390
0
  6
CONTINUOUS
 62
     7
100
AcDbLine
 10
145.606443
 20
213.800566
 30
0.0
 11
146.180968
 21
212.841483
 31
0.0
  0
LINE
  5
146D
100
AcDbEntity
  8
10000_FRONT
370
    50
390
0
  6
CONTINUOUS
 62
     7
100
AcDbLine
 10
146.180968
 20
212.841483
 30
0.0
 11
146.032514
 21
212.841483
 31
0.0
  0
LINE
  5
146E
100
AcDbEntity
  8
10000_FRONT
370
    50
390
0
  6
CONTINUOUS
 62
     7
100
AcDbLine
 10
146.032514
 20
212.841483
 30
0.0
 11
145.457988
 21
213.800566
 31
0.0
  0
LINE
  5
146F
100
AcDbEntity
  8
10000_FRONT
370
    50
390
0
  6
CONTINUOUS
 62
     7
100
AcDbLine
 10
145.457988
 20
213.800566
 30
0.0
 11
145.0145
 21
213.800566
 31
0.0
  0
LINE
  5
1470
100
AcDbEntity
  8
10000_FRONT
370
    50
390
0
  6
CONTINUOUS
 62
     7
100
AcDbLine
 10
145.0145
 20
213.800566
 30
0.0
 11
145.0145
 21
212.841483
 31
0.0
  0
LINE
  5
1471
100
AcDbEntity
  8
10000_FRONT
370
    50
390
0
  6
CONTINUOUS
 62
     7
100
AcDbLine
 10
145.0145
 20
212.841483
 30
0.0
 11
144.8773
 21
212.841483
 31
0.0
  0
LINE
  5
1472
100
AcDbEntity
  8
10000_FRONT
370
    50
390
0
  6
CONTINUOUS
 62
     7
100
AcDbLine
 10
148.188945
 20
214.699794
 30
0.0
 11
148.188945
 21
214.699402
 31
0.0
  0
LINE
  5
1473
100
AcDbEntity
  8
10000_FRONT
370
    50
390
0
  6
CONTINUOUS
 62
     7
100
AcDbLine
 10
148.091136
 20
214.499244
 30
0.0
 11
148.091136
 21
214.498777
 31
0.0
  0
LINE
  5
1474
100
AcDbEntity
  8
10000_FRONT
370
    50
390
0
  6
CONTINUOUS
 62
     7
100
AcDbLine
 10
148.091136
 20
214.498777
 30
0.0
 11
148.188945
 21
214.699402
 31
0.0
  0
LINE
  5
1475
100
AcDbEntity
  8
10000_FRONT
370
    50
390
0
  6
CONTINUOUS
 62
     7
100
AcDbLine
 10
148.091136
 20
214.375527
 30
0.0
 11
148.091136
 21
214.498777
 31
0.0
  0
LINE
  5
1476
100
AcDbEntity
  8
10000_FRONT
370
    50
390
0
  6
CONTINUOUS
 62
     7
100
AcDbLine
 10
148.230481
 20
214.375527
 30
0.0
 11
148.091136
 21
214.375527
 31
0.0
  0
LINE
  5
1477
100
AcDbEntity
  8
10000_FRONT
370
    50
390
0
  6
CONTINUOUS
 62
     7
100
AcDbLine
 10
148.230481
 20
214.488073
 30
0.0
 11
148.230481
 21
214.375527
 31
0.0
  0
LINE
  5
1478
100
AcDbEntity
  8
10000_FRONT
370
    50
390
0
  6
CONTINUOUS
 62
     7
100
AcDbLine
 10
148.32159
 20
214.668513
 30
0.0
 11
148.230481
 21
214.488073
 31
0.0
  0
LINE
  5
1479
100
AcDbEntity
  8
10000_FRONT
370
    50
390
0
  6
CONTINUOUS
 62
     7
100
AcDbLine
 10
148.502469
 20
214.75965
 30
0.0
 11
148.32159
 21
214.668513
 31
0.0
  0
LINE
  5
147A
100
AcDbEntity
  8
10000_FRONT
370
    50
390
0
  6
CONTINUOUS
 62
     7
100
AcDbLine
 10
148.874945
 20
214.75965
 30
0.0
 11
148.502469
 21
214.75965
 31
0.0
  0
LINE
  5
147B
100
AcDbEntity
  8
10000_FRONT
370
    50
390
0
  6
CONTINUOUS
 62
     7
100
AcDbLine
 10
149.057164
 20
214.668819
 30
0.0
 11
148.874945
 21
214.75965
 31
0.0
  0
LINE
  5
147C
100
AcDbEntity
  8
10000_FRONT
370
    50
390
0
  6
CONTINUOUS
 62
     7
100
AcDbLine
 10
149.146934
 20
214.488073
 30
0.0
 11
149.057164
 21
214.668819
 31
0.0
  0
LINE
  5
147D
100
AcDbEntity
  8
10000_FRONT
370
    50
390
0
  6
CONTINUOUS
 62
     7
100
AcDbLine
 10
149.146934
 20
214.307633
 30
0.0
 11
149.146934
 21
214.488073
 31
0.0
  0
LINE
  5
147E
100
AcDbEntity
  8
10000_FRONT
370
    50
390
0
  6
CONTINUOUS
 62
     7
100
AcDbLine
 10
149.054484
 20
214.120817
 30
0.0
 11
149.054484
 21
214.120159
 31
0.0
  0
LINE
  5
147F
100
AcDbEntity
  8
10000_FRONT
370
    50
390
0
  6
CONTINUOUS
 62
     7
100
AcDbLine
 10
149.054484
 20
214.120159
 30
0.0
 11
149.146934
 21
214.307633
 31
0.0
  0
LINE
  5
1480
100
AcDbEntity
  8
10000_FRONT
370
    50
390
0
  6
CONTINUOUS
 62
     7
100
AcDbLine
 10
148.769098
 20
213.74123
 30
0.0
 11
148.769098
 21
213.740318
 31
0.0
  0
LINE
  5
1481
100
AcDbEntity
  8
10000_FRONT
370
    50
390
0
  6
CONTINUOUS
 62
     7
100
AcDbLine
 10
148.769098
 20
213.740318
 30
0.0
 11
149.054484
 21
214.120159
 31
0.0
  0
LINE
  5
1482
100
AcDbEntity
  8
10000_FRONT
370
    50
390
0
  6
CONTINUOUS
 62
     7
100
AcDbLine
 10
147.967871
 20
212.843247
 30
0.0
 11
147.967871
 21
212.841483
 31
0.0
  0
LINE
  5
1483
100
AcDbEntity
  8
10000_FRONT
370
    50
390
0
  6
CONTINUOUS
 62
     7
100
AcDbLine
 10
147.967871
 20
212.841483
 30
0.0
 11
148.769098
 21
213.740318
 31
0.0
  0
LINE
  5
1484
100
AcDbEntity
  8
10000_FRONT
370
    50
390
0
  6
CONTINUOUS
 62
     7
100
AcDbLine
 10
148.290774
 20
214.799464
 30
0.0
 11
148.290774
 21
214.799103
 31
0.0
  0
LINE
  5
1485
100
AcDbEntity
  8
10000_FRONT
370
    50
390
0
  6
CONTINUOUS
 62
     7
100
AcDbLine
 10
148.188945
 20
214.699402
 30
0.0
 11
148.290774
 21
214.799103
 31
0.0
  0
LINE
  5
1486
100
AcDbEntity
  8
10000_FRONT
370
    50
390
0
  6
CONTINUOUS
 62
     7
100
AcDbLine
 10
148.49175
 20
214.896997
 30
0.0
 11
148.49175
 21
214.896662
 31
0.0
  0
LINE
  5
1487
100
AcDbEntity
  8
10000_FRONT
370
    50
390
0
  6
CONTINUOUS
 62
     7
100
AcDbLine
 10
148.290774
 20
214.799103
 30
0.0
 11
148.49175
 21
214.896662
 31
0.0
  0
LINE
  5
1488
100
AcDbEntity
  8
10000_FRONT
370
    50
390
0
  6
CONTINUOUS
 62
     7
100
AcDbLine
 10
148.887004
 20
214.896997
 30
0.0
 11
148.887004
 21
214.896662
 31
0.0
  0
LINE
  5
1489
100
AcDbEntity
  8
10000_FRONT
370
    50
390
0
  6
CONTINUOUS
 62
     7
100
AcDbLine
 10
148.49175
 20
214.896662
 30
0.0
 11
148.887004
 21
214.896662
 31
0.0
  0
LINE
  5
148A
100
AcDbEntity
  8
10000_FRONT
370
    50
390
0
  6
CONTINUOUS
 62
     7
100
AcDbLine
 10
149.086641
 20
214.797934
 30
0.0
 11
149.086641
 21
214.797573
 31
0.0
  0
LINE
  5
148B
100
AcDbEntity
  8
10000_FRONT
370
    50
390
0
  6
CONTINUOUS
 62
     7
100
AcDbLine
 10
148.887004
 20
214.896662
 30
0.0
 11
149.086641
 21
214.797573
 31
0.0
  0
LINE
  5
148C
100
AcDbEntity
  8
10000_FRONT
370
    50
390
0
  6
CONTINUOUS
 62
     7
100
AcDbLine
 10
149.188469
 20
214.697654
 30
0.0
 11
149.188469
 21
214.697261
 31
0.0
  0
LINE
  5
148D
100
AcDbEntity
  8
10000_FRONT
370
    50
390
0
  6
CONTINUOUS
 62
     7
100
AcDbLine
 10
149.086641
 20
214.797573
 30
0.0
 11
149.188469
 21
214.697261
 31
0.0
  0
LINE
  5
148E
100
AcDbEntity
  8
10000_FRONT
370
    50
390
0
  6
CONTINUOUS
 62
     7
100
AcDbLine
 10
149.287617
 20
214.497104
 30
0.0
 11
149.287617
 21
214.496636
 31
0.0
  0
LINE
  5
148F
100
AcDbEntity
  8
10000_FRONT
370
    50
390
0
  6
CONTINUOUS
 62
     7
100
AcDbLine
 10
149.188469
 20
214.697261
 30
0.0
 11
149.287617
 21
214.496636
 31
0.0
  0
LINE
  5
1490
100
AcDbEntity
  8
10000_FRONT
370
    50
390
0
  6
CONTINUOUS
 62
     7
100
AcDbLine
 10
149.287617
 20
214.496636
 30
0.0
 11
149.287617
 21
214.293259
 31
0.0
  0
LINE
  5
1491
100
AcDbEntity
  8
10000_FRONT
370
    50
390
0
  6
CONTINUOUS
 62
     7
100
AcDbLine
 10
149.287617
 20
214.293259
 30
0.0
 11
149.188469
 21
214.09661
 31
0.0
  0
LINE
  5
1492
100
AcDbEntity
  8
10000_FRONT
370
    50
390
0
  6
CONTINUOUS
 62
     7
100
AcDbLine
 10
149.188469
 20
214.09661
 30
0.0
 11
148.897723
 21
213.710041
 31
0.0
  0
LINE
  5
1493
100
AcDbEntity
  8
10000_FRONT
370
    50
390
0
  6
CONTINUOUS
 62
     7
100
AcDbLine
 10
148.897723
 20
213.710041
 30
0.0
 11
148.258617
 21
212.978494
 31
0.0
  0
LINE
  5
1494
100
AcDbEntity
  8
10000_FRONT
370
    50
390
0
  6
CONTINUOUS
 62
     7
100
AcDbLine
 10
149.382746
 20
212.980106
 30
0.0
 11
149.382746
 21
212.978494
 31
0.0
  0
LINE
  5
1495
100
AcDbEntity
  8
10000_FRONT
370
    50
390
0
  6
CONTINUOUS
 62
     7
100
AcDbLine
 10
148.258617
 20
212.978494
 30
0.0
 11
149.382746
 21
212.978494
 31
0.0
  0
LINE
  5
1496
100
AcDbEntity
  8
10000_FRONT
370
    50
390
0
  6
CONTINUOUS
 62
     7
100
AcDbLine
 10
149.382746
 20
212.978494
 30
0.0
 11
149.382746
 21
212.841483
 31
0.0
  0
LINE
  5
1497
100
AcDbEntity
  8
10000_FRONT
370
    50
390
0
  6
CONTINUOUS
 62
     7
100
AcDbLine
 10
149.382746
 20
212.841483
 30
0.0
 11
147.967871
 21
212.841483
 31
0.0
  0
LINE
  5
1498
100
AcDbEntity
  8
10000_FRONT
370
    50
390
0
  6
CONTINUOUS
 62
     7
100
AcDbLine
 10
150.543242
 20
214.274565
 30
0.0
 11
150.616934
 21
214.425572
 31
0.0
  0
LINE
  5
1499
100
AcDbEntity
  8
10000_FRONT
370
    50
390
0
  6
CONTINUOUS
 62
     7
100
AcDbLine
 10
150.543242
 20
214.274565
 30
0.0
 11
150.543242
 21
214.273991
 31
0.0
  0
LINE
  5
149A
100
AcDbEntity
  8
10000_FRONT
370
    50
390
0
  6
CONTINUOUS
 62
     7
100
AcDbLine
 10
150.616934
 20
214.425071
 30
0.0
 11
150.543242
 21
214.273991
 31
0.0
  0
LINE
  5
149B
100
AcDbEntity
  8
10000_FRONT
370
    50
390
0
  6
CONTINUOUS
 62
     7
100
AcDbLine
 10
150.47491
 20
214.206401
 30
0.0
 11
150.543242
 21
214.274565
 31
0.0
  0
LINE
  5
149C
100
AcDbEntity
  8
10000_FRONT
370
    50
390
0
  6
CONTINUOUS
 62
     7
100
AcDbLine
 10
150.47491
 20
214.206402
 30
0.0
 11
150.47491
 21
214.205792
 31
0.0
  0
LINE
  5
149D
100
AcDbEntity
  8
10000_FRONT
370
    50
390
0
  6
CONTINUOUS
 62
     7
100
AcDbLine
 10
150.543242
 20
214.273991
 30
0.0
 11
150.47491
 21
214.205792
 31
0.0
  0
LINE
  5
149E
100
AcDbEntity
  8
10000_FRONT
370
    50
390
0
  6
CONTINUOUS
 62
     7
100
AcDbLine
 10
150.21632
 20
214.080472
 30
0.0
 11
150.47491
 21
214.206401
 31
0.0
  0
LINE
  5
149F
100
AcDbEntity
  8
10000_FRONT
370
    50
390
0
  6
CONTINUOUS
 62
     7
100
AcDbLine
 10
150.21632
 20
214.080472
 30
0.0
 11
150.21632
 21
214.07979
 31
0.0
  0
LINE
  5
14A0
100
AcDbEntity
  8
10000_FRONT
370
    50
390
0
  6
CONTINUOUS
 62
     7
100
AcDbLine
 10
150.47491
 20
214.205792
 30
0.0
 11
150.21632
 21
214.07979
 31
0.0
  0
LINE
  5
14A1
100
AcDbEntity
  8
10000_FRONT
370
    50
390
0
  6
CONTINUOUS
 62
     7
100
AcDbLine
 10
150.101094
 20
214.080472
 30
0.0
 11
150.21632
 21
214.080472
 31
0.0
  0
LINE
  5
14A2
100
AcDbEntity
  8
10000_FRONT
370
    50
390
0
  6
CONTINUOUS
 62
     7
100
AcDbLine
 10
150.101094
 20
214.080472
 30
0.0
 11
150.101094
 21
214.07979
 31
0.0
  0
LINE
  5
14A3
100
AcDbEntity
  8
10000_FRONT
370
    50
390
0
  6
CONTINUOUS
 62
     7
100
AcDbLine
 10
150.21632
 20
214.07979
 30
0.0
 11
150.101094
 21
214.07979
 31
0.0
  0
LINE
  5
14A4
100
AcDbEntity
  8
10000_FRONT
370
    50
390
0
  6
CONTINUOUS
 62
     7
100
AcDbLine
 10
149.843844
 20
214.206401
 30
0.0
 11
150.101094
 21
214.080472
 31
0.0
  0
LINE
  5
14A5
100
AcDbEntity
  8
10000_FRONT
370
    50
390
0
  6
CONTINUOUS
 62
     7
100
AcDbLine
 10
149.843844
 20
214.206402
 30
0.0
 11
149.843844
 21
214.205792
 31
0.0
  0
LINE
  5
14A6
100
AcDbEntity
  8
10000_FRONT
370
    50
390
0
  6
CONTINUOUS
 62
     7
100
AcDbLine
 10
150.101094
 20
214.07979
 30
0.0
 11
149.843844
 21
214.205792
 31
0.0
  0
LINE
  5
14A7
100
AcDbEntity
  8
10000_FRONT
370
    50
390
0
  6
CONTINUOUS
 62
     7
100
AcDbLine
 10
149.774172
 20
214.274565
 30
0.0
 11
149.843844
 21
214.206401
 31
0.0
  0
LINE
  5
14A8
100
AcDbEntity
  8
10000_FRONT
370
    50
390
0
  6
CONTINUOUS
 62
     7
100
AcDbLine
 10
149.774172
 20
214.274565
 30
0.0
 11
149.774172
 21
214.273991
 31
0.0
  0
LINE
  5
14A9
100
AcDbEntity
  8
10000_FRONT
370
    50
390
0
  6
CONTINUOUS
 62
     7
100
AcDbLine
 10
149.843844
 20
214.205792
 30
0.0
 11
149.774172
 21
214.273991
 31
0.0
  0
LINE
  5
14AA
100
AcDbEntity
  8
10000_FRONT
370
    50
390
0
  6
CONTINUOUS
 62
     7
100
AcDbLine
 10
149.700481
 20
214.425572
 30
0.0
 11
149.774172
 21
214.274565
 31
0.0
  0
LINE
  5
14AB
100
AcDbEntity
  8
10000_FRONT
370
    50
390
0
  6
CONTINUOUS
 62
     7
100
AcDbLine
 10
149.774172
 20
214.273991
 30
0.0
 11
149.700481
 21
214.425071
 31
0.0
  0
LINE
  5
14AC
100
AcDbEntity
  8
10000_FRONT
370
    50
390
0
  6
CONTINUOUS
 62
     7
100
AcDbLine
 10
150.642391
 20
213.123084
 30
0.0
 11
150.71635
 21
213.274321
 31
0.0
  0
LINE
  5
14AD
100
AcDbEntity
  8
10000_FRONT
370
    50
390
0
  6
CONTINUOUS
 62
     7
100
AcDbLine
 10
150.642391
 20
213.123084
 30
0.0
 11
150.642391
 21
213.121623
 31
0.0
  0
LINE
  5
14AE
100
AcDbEntity
  8
10000_FRONT
370
    50
390
0
  6
CONTINUOUS
 62
     7
100
AcDbLine
 10
150.71635
 20
213.273009
 30
0.0
 11
150.642391
 21
213.121623
 31
0.0
  0
LINE
  5
14AF
100
AcDbEntity
  8
10000_FRONT
370
    50
390
0
  6
CONTINUOUS
 62
     7
100
AcDbLine
 10
150.57781
 20
213.062898
 30
0.0
 11
150.642391
 21
213.123084
 31
0.0
  0
LINE
  5
14B0
100
AcDbEntity
  8
10000_FRONT
370
    50
390
0
  6
CONTINUOUS
 62
     7
100
AcDbLine
 10
150.57781
 20
213.062898
 30
0.0
 11
150.57781
 21
213.061374
 31
0.0
  0
LINE
  5
14B1
100
AcDbEntity
  8
10000_FRONT
370
    50
390
0
  6
CONTINUOUS
 62
     7
100
AcDbLine
 10
150.642391
 20
213.121623
 30
0.0
 11
150.57781
 21
213.061374
 31
0.0
  0
LINE
  5
14B2
100
AcDbEntity
  8
10000_FRONT
370
    50
390
0
  6
CONTINUOUS
 62
     7
100
AcDbLine
 10
150.332619
 20
212.980106
 30
0.0
 11
150.57781
 21
213.062898
 31
0.0
  0
LINE
  5
14B3
100
AcDbEntity
  8
10000_FRONT
370
    50
390
0
  6
CONTINUOUS
 62
     7
100
AcDbLine
 10
150.332619
 20
212.980106
 30
0.0
 11
150.332619
 21
212.978494
 31
0.0
  0
LINE
  5
14B4
100
AcDbEntity
  8
10000_FRONT
370
    50
390
0
  6
CONTINUOUS
 62
     7
100
AcDbLine
 10
150.57781
 20
213.061374
 30
0.0
 11
150.332619
 21
212.978494
 31
0.0
  0
LINE
  5
14B5
100
AcDbEntity
  8
10000_FRONT
370
    50
390
0
  6
CONTINUOUS
 62
     7
100
AcDbLine
 10
149.985332
 20
212.980106
 30
0.0
 11
150.332619
 21
212.980106
 31
0.0
  0
LINE
  5
14B6
100
AcDbEntity
  8
10000_FRONT
370
    50
390
0
  6
CONTINUOUS
 62
     7
100
AcDbLine
 10
149.985332
 20
212.980106
 30
0.0
 11
149.985332
 21
212.978494
 31
0.0
  0
LINE
  5
14B7
100
AcDbEntity
  8
10000_FRONT
370
    50
390
0
  6
CONTINUOUS
 62
     7
100
AcDbLine
 10
150.332619
 20
212.978494
 30
0.0
 11
149.985332
 21
212.978494
 31
0.0
  0
LINE
  5
14B8
100
AcDbEntity
  8
10000_FRONT
370
    50
390
0
  6
CONTINUOUS
 62
     7
100
AcDbLine
 10
149.74014
 20
213.062898
 30
0.0
 11
149.985332
 21
212.980106
 31
0.0
  0
LINE
  5
14B9
100
AcDbEntity
  8
10000_FRONT
370
    50
390
0
  6
CONTINUOUS
 62
     7
100
AcDbLine
 10
149.74014
 20
213.062898
 30
0.0
 11
149.74014
 21
213.061374
 31
0.0
  0
LINE
  5
14BA
100
AcDbEntity
  8
10000_FRONT
370
    50
390
0
  6
CONTINUOUS
 62
     7
100
AcDbLine
 10
149.985332
 20
212.978494
 30
0.0
 11
149.74014
 21
213.061374
 31
0.0
  0
LINE
  5
14BB
100
AcDbEntity
  8
10000_FRONT
370
    50
390
0
  6
CONTINUOUS
 62
     7
100
AcDbLine
 10
149.676899
 20
213.123084
 30
0.0
 11
149.74014
 21
213.062898
 31
0.0
  0
LINE
  5
14BC
100
AcDbEntity
  8
10000_FRONT
370
    50
390
0
  6
CONTINUOUS
 62
     7
100
AcDbLine
 10
149.676899
 20
213.123084
 30
0.0
 11
149.676899
 21
213.121623
 31
0.0
  0
LINE
  5
14BD
100
AcDbEntity
  8
10000_FRONT
370
    50
390
0
  6
CONTINUOUS
 62
     7
100
AcDbLine
 10
149.74014
 20
213.061374
 30
0.0
 11
149.676899
 21
213.121623
 31
0.0
  0
LINE
  5
14BE
100
AcDbEntity
  8
10000_FRONT
370
    50
390
0
  6
CONTINUOUS
 62
     7
100
AcDbLine
 10
149.6016
 20
213.27432
 30
0.0
 11
149.676899
 21
213.123084
 31
0.0
  0
LINE
  5
14BF
100
AcDbEntity
  8
10000_FRONT
370
    50
390
0
  6
CONTINUOUS
 62
     7
100
AcDbLine
 10
149.676899
 20
213.121623
 30
0.0
 11
149.6016
 21
213.273009
 31
0.0
  0
LINE
  5
14C0
100
AcDbEntity
  8
10000_FRONT
370
    50
390
0
  6
CONTINUOUS
 62
     7
100
AcDbLine
 10
149.6016
 20
213.273009
 30
0.0
 11
149.6016
 21
213.505746
 31
0.0
  0
LINE
  5
14C1
100
AcDbEntity
  8
10000_FRONT
370
    50
390
0
  6
CONTINUOUS
 62
     7
100
AcDbLine
 10
150.758421
 20
214.593708
 30
0.0
 11
150.758421
 21
214.593279
 31
0.0
  0
LINE
  5
14C2
100
AcDbEntity
  8
10000_FRONT
370
    50
390
0
  6
CONTINUOUS
 62
     7
100
AcDbLine
 10
150.656325
 20
214.79824
 30
0.0
 11
150.656325
 21
214.797879
 31
0.0
  0
LINE
  5
14C3
100
AcDbEntity
  8
10000_FRONT
370
    50
390
0
  6
CONTINUOUS
 62
     7
100
AcDbLine
 10
150.656325
 20
214.797879
 30
0.0
 11
150.758421
 21
214.593279
 31
0.0
  0
LINE
  5
14C4
100
AcDbEntity
  8
10000_FRONT
370
    50
390
0
  6
CONTINUOUS
 62
     7
100
AcDbLine
 10
150.35486
 20
214.896997
 30
0.0
 11
150.35486
 21
214.896662
 31
0.0
  0
LINE
  5
14C5
100
AcDbEntity
  8
10000_FRONT
370
    50
390
0
  6
CONTINUOUS
 62
     7
100
AcDbLine
 10
150.35486
 20
214.896662
 30
0.0
 11
150.656325
 21
214.797879
 31
0.0
  0
LINE
  5
14C6
100
AcDbEntity
  8
10000_FRONT
370
    50
390
0
  6
CONTINUOUS
 62
     7
100
AcDbLine
 10
149.96443
 20
214.896997
 30
0.0
 11
149.96443
 21
214.896662
 31
0.0
  0
LINE
  5
14C7
100
AcDbEntity
  8
10000_FRONT
370
    50
390
0
  6
CONTINUOUS
 62
     7
100
AcDbLine
 10
149.96443
 20
214.896662
 30
0.0
 11
150.35486
 21
214.896662
 31
0.0
  0
LINE
  5
14C8
100
AcDbEntity
  8
10000_FRONT
370
    50
390
0
  6
CONTINUOUS
 62
     7
100
AcDbLine
 10
149.661625
 20
214.79824
 30
0.0
 11
149.661625
 21
214.797879
 31
0.0
  0
LINE
  5
14C9
100
AcDbEntity
  8
10000_FRONT
370
    50
390
0
  6
CONTINUOUS
 62
     7
100
AcDbLine
 10
149.661625
 20
214.797879
 30
0.0
 11
149.96443
 21
214.896662
 31
0.0
  0
LINE
  5
14CA
100
AcDbEntity
  8
10000_FRONT
370
    50
390
0
  6
CONTINUOUS
 62
     7
100
AcDbLine
 10
149.560869
 20
214.593708
 30
0.0
 11
149.560869
 21
214.593279
 31
0.0
  0
LINE
  5
14CB
100
AcDbEntity
  8
10000_FRONT
370
    50
390
0
  6
CONTINUOUS
 62
     7
100
AcDbLine
 10
149.560869
 20
214.593279
 30
0.0
 11
149.661625
 21
214.797879
 31
0.0
  0
LINE
  5
14CC
100
AcDbEntity
  8
10000_FRONT
370
    50
390
0
  6
CONTINUOUS
 62
     7
100
AcDbLine
 10
149.560869
 20
214.390207
 30
0.0
 11
149.560869
 21
214.593279
 31
0.0
  0
LINE
  5
14CD
100
AcDbEntity
  8
10000_FRONT
370
    50
390
0
  6
CONTINUOUS
 62
     7
100
AcDbLine
 10
149.658945
 20
214.191112
 30
0.0
 11
149.560869
 21
214.390207
 31
0.0
  0
LINE
  5
14CE
100
AcDbEntity
  8
10000_FRONT
370
    50
390
0
  6
CONTINUOUS
 62
     7
100
AcDbLine
 10
149.760774
 20
214.089576
 30
0.0
 11
149.658945
 21
214.191112
 31
0.0
  0
LINE
  5
14CF
100
AcDbEntity
  8
10000_FRONT
370
    50
390
0
  6
CONTINUOUS
 62
     7
100
AcDbLine
 10
149.917535
 20
214.013425
 30
0.0
 11
149.760774
 21
214.089576
 31
0.0
  0
LINE
  5
14D0
100
AcDbEntity
  8
10000_FRONT
370
    50
390
0
  6
CONTINUOUS
 62
     7
100
AcDbLine
 10
149.760774
 20
213.936517
 30
0.0
 11
149.760774
 21
213.935743
 31
0.0
  0
LINE
  5
14D1
100
AcDbEntity
  8
10000_FRONT
370
    50
390
0
  6
CONTINUOUS
 62
     7
100
AcDbLine
 10
149.760774
 20
213.935743
 30
0.0
 11
149.917535
 21
214.013425
 31
0.0
  0
LINE
  5
14D2
100
AcDbEntity
  8
10000_FRONT
370
    50
390
0
  6
CONTINUOUS
 62
     7
100
AcDbLine
 10
149.563549
 20
213.740313
 30
0.0
 11
149.563549
 21
213.739401
 31
0.0
  0
LINE
  5
14D3
100
AcDbEntity
  8
10000_FRONT
370
    50
390
0
  6
CONTINUOUS
 62
     7
100
AcDbLine
 10
149.563549
 20
213.739401
 30
0.0
 11
149.760774
 21
213.935743
 31
0.0
  0
LINE
  5
14D4
100
AcDbEntity
  8
10000_FRONT
370
    50
390
0
  6
CONTINUOUS
 62
     7
100
AcDbLine
 10
149.4644
 20
213.540154
 30
0.0
 11
149.4644
 21
213.539081
 31
0.0
  0
LINE
  5
14D5
100
AcDbEntity
  8
10000_FRONT
370
    50
390
0
  6
CONTINUOUS
 62
     7
100
AcDbLine
 10
149.4644
 20
213.539081
 30
0.0
 11
149.563549
 21
213.739401
 31
0.0
  0
LINE
  5
14D6
100
AcDbEntity
  8
10000_FRONT
370
    50
390
0
  6
CONTINUOUS
 62
     7
100
AcDbLine
 10
149.4644
 20
213.240897
 30
0.0
 11
149.4644
 21
213.539081
 31
0.0
  0
LINE
  5
14D7
100
AcDbEntity
  8
10000_FRONT
370
    50
390
0
  6
CONTINUOUS
 62
     7
100
AcDbLine
 10
149.563549
 20
213.041801
 30
0.0
 11
149.4644
 21
213.240897
 31
0.0
  0
LINE
  5
14D8
100
AcDbEntity
  8
10000_FRONT
370
    50
390
0
  6
CONTINUOUS
 62
     7
100
AcDbLine
 10
149.700481
 20
214.425071
 30
0.0
 11
149.700481
 21
214.561472
 31
0.0
  0
LINE
  5
14D9
100
AcDbEntity
  8
10000_FRONT
370
    50
390
0
  6
CONTINUOUS
 62
     7
100
AcDbLine
 10
149.700481
 20
214.561472
 30
0.0
 11
149.760774
 21
214.684722
 31
0.0
  0
LINE
  5
14DA
100
AcDbEntity
  8
10000_FRONT
370
    50
390
0
  6
CONTINUOUS
 62
     7
100
AcDbLine
 10
149.760774
 20
214.684722
 30
0.0
 11
149.985867
 21
214.75965
 31
0.0
  0
LINE
  5
14DB
100
AcDbEntity
  8
10000_FRONT
370
    50
390
0
  6
CONTINUOUS
 62
     7
100
AcDbLine
 10
149.985867
 20
214.75965
 30
0.0
 11
150.331547
 21
214.75965
 31
0.0
  0
LINE
  5
14DC
100
AcDbEntity
  8
10000_FRONT
370
    50
390
0
  6
CONTINUOUS
 62
     7
100
AcDbLine
 10
150.331547
 20
214.75965
 30
0.0
 11
150.556641
 21
214.684722
 31
0.0
  0
LINE
  5
14DD
100
AcDbEntity
  8
10000_FRONT
370
    50
390
0
  6
CONTINUOUS
 62
     7
100
AcDbLine
 10
150.556641
 20
214.684722
 30
0.0
 11
150.616934
 21
214.561472
 31
0.0
  0
LINE
  5
14DE
100
AcDbEntity
  8
10000_FRONT
370
    50
390
0
  6
CONTINUOUS
 62
     7
100
AcDbLine
 10
150.616934
 20
214.561472
 30
0.0
 11
150.616934
 21
214.425071
 31
0.0
  0
LINE
  5
14DF
100
AcDbEntity
  8
10000_FRONT
370
    50
390
0
  6
CONTINUOUS
 62
     7
100
AcDbLine
 10
149.6016
 20
213.505746
 30
0.0
 11
149.676899
 21
213.655603
 31
0.0
  0
LINE
  5
14E0
100
AcDbEntity
  8
10000_FRONT
370
    50
390
0
  6
CONTINUOUS
 62
     7
100
AcDbLine
 10
149.676899
 20
213.655603
 30
0.0
 11
149.842504
 21
213.82014
 31
0.0
  0
LINE
  5
14E1
100
AcDbEntity
  8
10000_FRONT
370
    50
390
0
  6
CONTINUOUS
 62
     7
100
AcDbLine
 10
149.842504
 20
213.82014
 30
0.0
 11
150.117172
 21
213.955316
 31
0.0
  0
LINE
  5
14E2
100
AcDbEntity
  8
10000_FRONT
370
    50
390
0
  6
CONTINUOUS
 62
     7
100
AcDbLine
 10
150.117172
 20
213.955316
 30
0.0
 11
150.200778
 21
213.955316
 31
0.0
  0
LINE
  5
14E3
100
AcDbEntity
  8
10000_FRONT
370
    50
390
0
  6
CONTINUOUS
 62
     7
100
AcDbLine
 10
150.200778
 20
213.955316
 30
0.0
 11
150.476786
 21
213.82014
 31
0.0
  0
LINE
  5
14E4
100
AcDbEntity
  8
10000_FRONT
370
    50
390
0
  6
CONTINUOUS
 62
     7
100
AcDbLine
 10
150.476786
 20
213.82014
 30
0.0
 11
150.642391
 21
213.655603
 31
0.0
  0
LINE
  5
14E5
100
AcDbEntity
  8
10000_FRONT
370
    50
390
0
  6
CONTINUOUS
 62
     7
100
AcDbLine
 10
150.642391
 20
213.655603
 30
0.0
 11
150.71635
 21
213.505746
 31
0.0
  0
LINE
  5
14E6
100
AcDbEntity
  8
10000_FRONT
370
    50
390
0
  6
CONTINUOUS
 62
     7
100
AcDbLine
 10
150.71635
 20
213.505746
 30
0.0
 11
150.71635
 21
213.273009
 31
0.0
  0
LINE
  5
14E7
100
AcDbEntity
  8
10000_FRONT
370
    50
390
0
  6
CONTINUOUS
 62
     7
100
AcDbLine
 10
150.758421
 20
214.593279
 30
0.0
 11
150.758421
 21
214.390207
 31
0.0
  0
LINE
  5
14E8
100
AcDbEntity
  8
10000_FRONT
370
    50
390
0
  6
CONTINUOUS
 62
     7
100
AcDbLine
 10
150.758421
 20
214.390207
 30
0.0
 11
150.659005
 21
214.191112
 31
0.0
  0
LINE
  5
14E9
100
AcDbEntity
  8
10000_FRONT
370
    50
390
0
  6
CONTINUOUS
 62
     7
100
AcDbLine
 10
150.659005
 20
214.191112
 30
0.0
 11
150.557176
 21
214.089576
 31
0.0
  0
LINE
  5
14EA
100
AcDbEntity
  8
10000_FRONT
370
    50
390
0
  6
CONTINUOUS
 62
     7
100
AcDbLine
 10
150.557176
 20
214.089576
 30
0.0
 11
150.400415
 21
214.013425
 31
0.0
  0
LINE
  5
14EB
100
AcDbEntity
  8
10000_FRONT
370
    50
390
0
  6
CONTINUOUS
 62
     7
100
AcDbLine
 10
150.557176
 20
213.936517
 30
0.0
 11
150.557176
 21
213.935743
 31
0.0
  0
LINE
  5
14EC
100
AcDbEntity
  8
10000_FRONT
370
    50
390
0
  6
CONTINUOUS
 62
     7
100
AcDbLine
 10
150.400415
 20
214.013425
 30
0.0
 11
150.557176
 21
213.935743
 31
0.0
  0
LINE
  5
14ED
100
AcDbEntity
  8
10000_FRONT
370
    50
390
0
  6
CONTINUOUS
 62
     7
100
AcDbLine
 10
150.755741
 20
213.740313
 30
0.0
 11
150.755741
 21
213.739401
 31
0.0
  0
LINE
  5
14EE
100
AcDbEntity
  8
10000_FRONT
370
    50
390
0
  6
CONTINUOUS
 62
     7
100
AcDbLine
 10
150.557176
 20
213.935743
 30
0.0
 11
150.755741
 21
213.739401
 31
0.0
  0
LINE
  5
14EF
100
AcDbEntity
  8
10000_FRONT
370
    50
390
0
  6
CONTINUOUS
 62
     7
100
AcDbLine
 10
150.85355
 20
213.540154
 30
0.0
 11
150.85355
 21
213.539081
 31
0.0
  0
LINE
  5
14F0
100
AcDbEntity
  8
10000_FRONT
370
    50
390
0
  6
CONTINUOUS
 62
     7
100
AcDbLine
 10
150.755741
 20
213.739401
 30
0.0
 11
150.85355
 21
213.539081
 31
0.0
  0
LINE
  5
14F1
100
AcDbEntity
  8
10000_FRONT
370
    50
390
0
  6
CONTINUOUS
 62
     7
100
AcDbLine
 10
150.85355
 20
213.539081
 30
0.0
 11
150.85355
 21
213.240897
 31
0.0
  0
LINE
  5
14F2
100
AcDbEntity
  8
10000_FRONT
370
    50
390
0
  6
CONTINUOUS
 62
     7
100
AcDbLine
 10
150.85355
 20
213.240897
 30
0.0
 11
150.755741
 21
213.041801
 31
0.0
  0
LINE
  5
14F3
100
AcDbEntity
  8
10000_FRONT
370
    50
390
0
  6
CONTINUOUS
 62
     7
100
AcDbLine
 10
150.755741
 20
213.041801
 30
0.0
 11
150.650966
 21
212.940266
 31
0.0
  0
LINE
  5
14F4
100
AcDbEntity
  8
10000_FRONT
370
    50
390
0
  6
CONTINUOUS
 62
     7
100
AcDbLine
 10
150.650966
 20
212.940266
 30
0.0
 11
150.35486
 21
212.841483
 31
0.0
  0
LINE
  5
14F5
100
AcDbEntity
  8
10000_FRONT
370
    50
390
0
  6
CONTINUOUS
 62
     7
100
AcDbLine
 10
150.35486
 20
212.841483
 30
0.0
 11
149.96443
 21
212.841483
 31
0.0
  0
LINE
  5
14F6
100
AcDbEntity
  8
10000_FRONT
370
    50
390
0
  6
CONTINUOUS
 62
     7
100
AcDbLine
 10
149.96443
 20
212.841483
 30
0.0
 11
149.668324
 21
212.940266
 31
0.0
  0
LINE
  5
14F7
100
AcDbEntity
  8
10000_FRONT
370
    50
390
0
  6
CONTINUOUS
 62
     7
100
AcDbLine
 10
149.668324
 20
212.940266
 30
0.0
 11
149.563549
 21
213.041801
 31
0.0
  0
LINE
  5
14F8
100
AcDbEntity
  8
10000_FRONT
370
    50
390
0
  6
CONTINUOUS
 62
     7
100
AcDbLine
 10
146.662016
 20
213.467823
 30
0.0
 11
147.078707
 21
214.5367
 31
0.0
  0
LINE
  5
14F9
100
AcDbEntity
  8
10000_FRONT
370
    50
390
0
  6
CONTINUOUS
 62
     7
100
AcDbLine
 10
147.078707
 20
214.5367
 30
0.0
 11
147.495399
 21
213.467823
 31
0.0
  0
LINE
  5
14FA
100
AcDbEntity
  8
10000_FRONT
370
    50
390
0
  6
CONTINUOUS
 62
     7
100
AcDbLine
 10
147.879934
 20
212.843247
 30
0.0
 11
147.879934
 21
212.841483
 31
0.0
  0
LINE
  5
14FB
100
AcDbEntity
  8
10000_FRONT
370
    50
390
0
  6
CONTINUOUS
 62
     7
100
AcDbLine
 10
147.879934
 20
212.841483
 30
0.0
 11
147.73791
 21
212.841483
 31
0.0
  0
LINE
  5
14FC
100
AcDbEntity
  8
10000_FRONT
370
    50
390
0
  6
CONTINUOUS
 62
     7
100
AcDbLine
 10
147.093445
 20
214.896997
 30
0.0
 11
147.093445
 21
214.896662
 31
0.0
  0
LINE
  5
14FD
100
AcDbEntity
  8
10000_FRONT
370
    50
390
0
  6
CONTINUOUS
 62
     7
100
AcDbLine
 10
147.093445
 20
214.896662
 30
0.0
 11
147.879934
 21
212.841483
 31
0.0
  0
LINE
  5
14FE
100
AcDbEntity
  8
10000_FRONT
370
    50
390
0
  6
CONTINUOUS
 62
     7
100
AcDbLine
 10
147.063969
 20
214.896997
 30
0.0
 11
147.063969
 21
214.896662
 31
0.0
  0
LINE
  5
14FF
100
AcDbEntity
  8
10000_FRONT
370
    50
390
0
  6
CONTINUOUS
 62
     7
100
AcDbLine
 10
147.063969
 20
214.896662
 30
0.0
 11
147.093445
 21
214.896662
 31
0.0
  0
LINE
  5
1500
100
AcDbEntity
  8
10000_FRONT
370
    50
390
0
  6
CONTINUOUS
 62
     7
100
AcDbLine
 10
146.277481
 20
212.843247
 30
0.0
 11
146.277481
 21
212.841483
 31
0.0
  0
LINE
  5
1501
100
AcDbEntity
  8
10000_FRONT
370
    50
390
0
  6
CONTINUOUS
 62
     7
100
AcDbLine
 10
146.277481
 20
212.841483
 30
0.0
 11
147.063969
 21
214.896662
 31
0.0
  0
LINE
  5
1502
100
AcDbEntity
  8
10000_FRONT
370
    50
390
0
  6
CONTINUOUS
 62
     7
100
AcDbLine
 10
146.662457
 20
213.468956
 30
0.0
 11
147.494957
 21
213.468956
 31
0.0
  0
LINE
  5
1503
100
AcDbEntity
  8
10000_FRONT
370
    50
390
0
  6
CONTINUOUS
 62
     7
100
AcDbLine
 10
147.495399
 20
213.467823
 30
0.0
 11
146.662016
 21
213.467823
 31
0.0
  0
LINE
  5
1504
100
AcDbEntity
  8
10000_FRONT
370
    50
390
0
  6
CONTINUOUS
 62
     7
100
AcDbLine
 10
147.73791
 20
212.841483
 30
0.0
 11
147.547652
 21
213.330811
 31
0.0
  0
LINE
  5
1505
100
AcDbEntity
  8
10000_FRONT
370
    50
390
0
  6
CONTINUOUS
 62
     7
100
AcDbLine
 10
147.547652
 20
213.330811
 30
0.0
 11
146.609762
 21
213.330811
 31
0.0
  0
LINE
  5
1506
100
AcDbEntity
  8
10000_FRONT
370
    50
390
0
  6
CONTINUOUS
 62
     7
100
AcDbLine
 10
146.609762
 20
213.330811
 30
0.0
 11
146.420844
 21
212.841483
 31
0.0
  0
LINE
  5
1507
100
AcDbEntity
  8
10000_FRONT
370
    50
390
0
  6
CONTINUOUS
 62
     7
100
AcDbLine
 10
146.420844
 20
212.841483
 30
0.0
 11
146.277481
 21
212.841483
 31
0.0
  0
LINE
  5
1508
100
AcDbEntity
  8
10000_FRONT
370
    50
390
0
  6
CONTINUOUS
 62
     7
100
AcDbLine
 10
143.832894
 20
213.99153
 30
0.0
 11
143.832894
 21
213.990793
 31
0.0
  0
LINE
  5
1509
100
AcDbEntity
  8
10000_FRONT
370
    50
390
0
  6
CONTINUOUS
 62
     7
100
AcDbLine
 10
143.832894
 20
213.990793
 30
0.0
 11
144.427785
 21
214.75965
 31
0.0
  0
LINE
  5
150A
100
AcDbEntity
  8
10000_FRONT
370
    50
390
0
  6
CONTINUOUS
 62
     7
100
AcDbLine
 10
144.162497
 20
213.990793
 30
0.0
 11
143.832894
 21
213.990793
 31
0.0
  0
LINE
  5
150B
100
AcDbEntity
  8
10000_FRONT
370
    50
390
0
  6
CONTINUOUS
 62
     7
100
AcDbLine
 10
144.346055
 20
213.928097
 30
0.0
 11
144.162497
 21
213.990793
 31
0.0
  0
LINE
  5
150C
100
AcDbEntity
  8
10000_FRONT
370
    50
390
0
  6
CONTINUOUS
 62
     7
100
AcDbLine
 10
144.474679
 20
213.843689
 30
0.0
 11
144.346055
 21
213.928097
 31
0.0
  0
LINE
  5
150D
100
AcDbEntity
  8
10000_FRONT
370
    50
390
0
  6
CONTINUOUS
 62
     7
100
AcDbLine
 10
144.56043
 20
213.713711
 30
0.0
 11
144.474679
 21
213.843689
 31
0.0
  0
LINE
  5
150E
100
AcDbEntity
  8
10000_FRONT
370
    50
390
0
  6
CONTINUOUS
 62
     7
100
AcDbLine
 10
144.623402
 20
213.530212
 30
0.0
 11
144.56043
 21
213.713711
 31
0.0
  0
LINE
  5
150F
100
AcDbEntity
  8
10000_FRONT
370
    50
390
0
  6
CONTINUOUS
 62
     7
100
AcDbLine
 10
144.623402
 20
213.440604
 30
0.0
 11
144.623402
 21
213.530212
 31
0.0
  0
LINE
  5
1510
100
AcDbEntity
  8
10000_FRONT
370
    50
390
0
  6
CONTINUOUS
 62
     7
100
AcDbLine
 10
144.56043
 20
213.256904
 30
0.0
 11
144.56043
 21
213.255577
 31
0.0
  0
LINE
  5
1511
100
AcDbEntity
  8
10000_FRONT
370
    50
390
0
  6
CONTINUOUS
 62
     7
100
AcDbLine
 10
144.56043
 20
213.255577
 30
0.0
 11
144.623402
 21
213.440604
 31
0.0
  0
LINE
  5
1512
100
AcDbEntity
  8
10000_FRONT
370
    50
390
0
  6
CONTINUOUS
 62
     7
100
AcDbLine
 10
144.474679
 20
213.128584
 30
0.0
 11
144.474679
 21
213.127128
 31
0.0
  0
LINE
  5
1513
100
AcDbEntity
  8
10000_FRONT
370
    50
390
0
  6
CONTINUOUS
 62
     7
100
AcDbLine
 10
144.474679
 20
213.127128
 30
0.0
 11
144.56043
 21
213.255577
 31
0.0
  0
LINE
  5
1514
100
AcDbEntity
  8
10000_FRONT
370
    50
390
0
  6
CONTINUOUS
 62
     7
100
AcDbLine
 10
144.346055
 20
213.044262
 30
0.0
 11
144.346055
 21
213.042719
 31
0.0
  0
LINE
  5
1515
100
AcDbEntity
  8
10000_FRONT
370
    50
390
0
  6
CONTINUOUS
 62
     7
100
AcDbLine
 10
144.346055
 20
213.042719
 30
0.0
 11
144.474679
 21
213.127128
 31
0.0
  0
LINE
  5
1516
100
AcDbEntity
  8
10000_FRONT
370
    50
390
0
  6
CONTINUOUS
 62
     7
100
AcDbLine
 10
144.162497
 20
212.980106
 30
0.0
 11
144.162497
 21
212.978494
 31
0.0
  0
LINE
  5
1517
100
AcDbEntity
  8
10000_FRONT
370
    50
390
0
  6
CONTINUOUS
 62
     7
100
AcDbLine
 10
144.162497
 20
212.978494
 30
0.0
 11
144.346055
 21
213.042719
 31
0.0
  0
LINE
  5
1518
100
AcDbEntity
  8
10000_FRONT
370
    50
390
0
  6
CONTINUOUS
 62
     7
100
AcDbLine
 10
143.882469
 20
212.980106
 30
0.0
 11
143.882469
 21
212.978494
 31
0.0
  0
LINE
  5
1519
100
AcDbEntity
  8
10000_FRONT
370
    50
390
0
  6
CONTINUOUS
 62
     7
100
AcDbLine
 10
143.882469
 20
212.978494
 30
0.0
 11
144.162497
 21
212.978494
 31
0.0
  0
LINE
  5
151A
100
AcDbEntity
  8
10000_FRONT
370
    50
390
0
  6
CONTINUOUS
 62
     7
100
AcDbLine
 10
143.571625
 20
213.133777
 30
0.0
 11
143.571625
 21
213.132328
 31
0.0
  0
LINE
  5
151B
100
AcDbEntity
  8
10000_FRONT
370
    50
390
0
  6
CONTINUOUS
 62
     7
100
AcDbLine
 10
143.571625
 20
213.132328
 30
0.0
 11
143.882469
 21
212.978494
 31
0.0
  0
LINE
  5
151C
100
AcDbEntity
  8
10000_FRONT
370
    50
390
0
  6
CONTINUOUS
 62
     7
100
AcDbLine
 10
143.505973
 20
213.267599
 30
0.0
 11
143.505973
 21
213.266281
 31
0.0
  0
LINE
  5
151D
100
AcDbEntity
  8
10000_FRONT
370
    50
390
0
  6
CONTINUOUS
 62
     7
100
AcDbLine
 10
143.505973
 20
213.266281
 30
0.0
 11
143.571625
 21
213.132328
 31
0.0
  0
LINE
  5
151E
100
AcDbEntity
  8
10000_FRONT
370
    50
390
0
  6
CONTINUOUS
 62
     7
100
AcDbLine
 10
143.361269
 20
213.267599
 30
0.0
 11
143.361269
 21
213.266281
 31
0.0
  0
LINE
  5
151F
100
AcDbEntity
  8
10000_FRONT
370
    50
390
0
  6
CONTINUOUS
 62
     7
100
AcDbLine
 10
143.361269
 20
213.266281
 30
0.0
 11
143.505973
 21
213.266281
 31
0.0
  0
LINE
  5
1520
100
AcDbEntity
  8
10000_FRONT
370
    50
390
0
  6
CONTINUOUS
 62
     7
100
AcDbLine
 10
143.473816
 20
213.039966
 30
0.0
 11
143.361269
 21
213.266281
 31
0.0
  0
LINE
  5
1521
100
AcDbEntity
  8
10000_FRONT
370
    50
390
0
  6
CONTINUOUS
 62
     7
100
AcDbLine
 10
144.427785
 20
214.75965
 30
0.0
 11
143.566266
 21
214.75965
 31
0.0
  0
LINE
  5
1522
100
AcDbEntity
  8
10000_FRONT
370
    50
390
0
  6
CONTINUOUS
 62
     7
100
AcDbLine
 10
143.566266
 20
214.896997
 30
0.0
 11
143.566266
 21
214.896662
 31
0.0
  0
LINE
  5
1523
100
AcDbEntity
  8
10000_FRONT
370
    50
390
0
  6
CONTINUOUS
 62
     7
100
AcDbLine
 10
143.566266
 20
214.75965
 30
0.0
 11
143.566266
 21
214.896662
 31
0.0
  0
LINE
  5
1524
100
AcDbEntity
  8
10000_FRONT
370
    50
390
0
  6
CONTINUOUS
 62
     7
100
AcDbLine
 10
144.697094
 20
214.896997
 30
0.0
 11
144.697094
 21
214.896662
 31
0.0
  0
LINE
  5
1525
100
AcDbEntity
  8
10000_FRONT
370
    50
390
0
  6
CONTINUOUS
 62
     7
100
AcDbLine
 10
143.566266
 20
214.896662
 30
0.0
 11
144.697094
 21
214.896662
 31
0.0
  0
LINE
  5
1526
100
AcDbEntity
  8
10000_FRONT
370
    50
390
0
  6
CONTINUOUS
 62
     7
100
AcDbLine
 10
144.697094
 20
214.896662
 30
0.0
 11
144.094164
 21
214.130863
 31
0.0
  0
LINE
  5
1527
100
AcDbEntity
  8
10000_FRONT
370
    50
390
0
  6
CONTINUOUS
 62
     7
100
AcDbLine
 10
144.167856
 20
214.131514
 30
0.0
 11
144.167856
 21
214.130863
 31
0.0
  0
LINE
  5
1528
100
AcDbEntity
  8
10000_FRONT
370
    50
390
0
  6
CONTINUOUS
 62
     7
100
AcDbLine
 10
144.094164
 20
214.130863
 30
0.0
 11
144.167856
 21
214.130863
 31
0.0
  0
LINE
  5
1529
100
AcDbEntity
  8
10000_FRONT
370
    50
390
0
  6
CONTINUOUS
 62
     7
100
AcDbLine
 10
144.463961
 20
214.032792
 30
0.0
 11
144.463961
 21
214.03208
 31
0.0
  0
LINE
  5
152A
100
AcDbEntity
  8
10000_FRONT
370
    50
390
0
  6
CONTINUOUS
 62
     7
100
AcDbLine
 10
144.167856
 20
214.130863
 30
0.0
 11
144.463961
 21
214.03208
 31
0.0
  0
LINE
  5
152B
100
AcDbEntity
  8
10000_FRONT
370
    50
390
0
  6
CONTINUOUS
 62
     7
100
AcDbLine
 10
144.664937
 20
213.832606
 30
0.0
 11
144.664937
 21
213.831761
 31
0.0
  0
LINE
  5
152C
100
AcDbEntity
  8
10000_FRONT
370
    50
390
0
  6
CONTINUOUS
 62
     7
100
AcDbLine
 10
144.463961
 20
214.03208
 30
0.0
 11
144.664937
 21
213.831761
 31
0.0
  0
LINE
  5
152D
100
AcDbEntity
  8
10000_FRONT
370
    50
390
0
  6
CONTINUOUS
 62
     7
100
AcDbLine
 10
144.762746
 20
213.537404
 30
0.0
 11
144.762746
 21
213.536329
 31
0.0
  0
LINE
  5
152E
100
AcDbEntity
  8
10000_FRONT
370
    50
390
0
  6
CONTINUOUS
 62
     7
100
AcDbLine
 10
144.664937
 20
213.831761
 30
0.0
 11
144.762746
 21
213.536329
 31
0.0
  0
LINE
  5
152F
100
AcDbEntity
  8
10000_FRONT
370
    50
390
0
  6
CONTINUOUS
 62
     7
100
AcDbLine
 10
144.762746
 20
213.536329
 30
0.0
 11
144.762746
 21
213.434793
 31
0.0
  0
LINE
  5
1530
100
AcDbEntity
  8
10000_FRONT
370
    50
390
0
  6
CONTINUOUS
 62
     7
100
AcDbLine
 10
144.762746
 20
213.434793
 30
0.0
 11
144.664937
 21
213.139361
 31
0.0
  0
LINE
  5
1531
100
AcDbEntity
  8
10000_FRONT
370
    50
390
0
  6
CONTINUOUS
 62
     7
100
AcDbLine
 10
144.664937
 20
213.139361
 30
0.0
 11
144.463961
 21
212.940266
 31
0.0
  0
LINE
  5
1532
100
AcDbEntity
  8
10000_FRONT
370
    50
390
0
  6
CONTINUOUS
 62
     7
100
AcDbLine
 10
144.463961
 20
212.940266
 30
0.0
 11
144.167856
 21
212.841483
 31
0.0
  0
LINE
  5
1533
100
AcDbEntity
  8
10000_FRONT
370
    50
390
0
  6
CONTINUOUS
 62
     7
100
AcDbLine
 10
144.167856
 20
212.841483
 30
0.0
 11
143.87443
 21
212.841483
 31
0.0
  0
LINE
  5
1534
100
AcDbEntity
  8
10000_FRONT
370
    50
390
0
  6
CONTINUOUS
 62
     7
100
AcDbLine
 10
143.87443
 20
212.841483
 30
0.0
 11
143.578324
 21
212.939043
 31
0.0
  0
LINE
  5
1535
100
AcDbEntity
  8
10000_FRONT
370
    50
390
0
  6
CONTINUOUS
 62
     7
100
AcDbLine
 10
143.578324
 20
212.939043
 30
0.0
 11
143.473816
 21
213.039966
 31
0.0
  0
LINE
  5
1536
100
AcDbEntity
  8
10000_FRONT
370
    50
390
0
  6
CONTINUOUS
 62
     7
100
AcDbLine
 10
161.739
 20
208.771
 30
0.0
 11
161.739
 21
211.710998
 31
0.0
  0
LINE
  5
1537
100
AcDbEntity
  8
10000_FRONT
370
    50
390
0
  6
CONTINUOUS
 62
     7
100
AcDbLine
 10
161.739
 20
211.710998
 30
0.0
 11
161.935
 21
211.710998
 31
0.0
  0
LINE
  5
1538
100
AcDbEntity
  8
10000_FRONT
370
    50
390
0
  6
CONTINUOUS
 62
     7
100
AcDbLine
 10
161.935
 20
211.710998
 30
0.0
 11
161.935
 21
208.771
 31
0.0
  0
LINE
  5
1539
100
AcDbEntity
  8
10000_FRONT
370
    50
390
0
  6
CONTINUOUS
 62
     7
100
AcDbLine
 10
161.935
 20
208.771
 30
0.0
 11
161.739
 21
208.771
 31
0.0
  0
LINE
  5
153A
100
AcDbEntity
  8
10000_FRONT
370
    50
390
0
  6
CONTINUOUS
 62
     7
100
AcDbLine
 10
164.939
 20
208.771
 30
0.0
 11
164.939
 21
211.710998
 31
0.0
  0
LINE
  5
153B
100
AcDbEntity
  8
10000_FRONT
370
    50
390
0
  6
CONTINUOUS
 62
     7
100
AcDbLine
 10
164.939
 20
211.710998
 30
0.0
 11
165.135
 21
211.710998
 31
0.0
  0
LINE
  5
153C
100
AcDbEntity
  8
10000_FRONT
370
    50
390
0
  6
CONTINUOUS
 62
     7
100
AcDbLine
 10
165.135
 20
211.710998
 30
0.0
 11
165.135
 21
208.771
 31
0.0
  0
LINE
  5
153D
100
AcDbEntity
  8
10000_FRONT
370
    50
390
0
  6
CONTINUOUS
 62
     7
100
AcDbLine
 10
165.135
 20
208.771
 30
0.0
 11
164.939
 21
208.771
 31
0.0
  0
LINE
  5
153E
100
AcDbEntity
  8
10000_FRONT
370
    50
390
0
  6
CONTINUOUS
 62
     7
100
AcDbLine
 10
168.687531
 20
208.910562
 30
0.0
 11
168.354485
 21
209.242624
 31
0.0
  0
LINE
  5
153F
100
AcDbEntity
  8
10000_FRONT
370
    50
390
0
  6
CONTINUOUS
 62
     7
100
AcDbLine
 10
168.354485
 20
209.242624
 30
0.0
 11
168.714329
 21
209.242624
 31
0.0
  0
LINE
  5
1540
100
AcDbEntity
  8
10000_FRONT
370
    50
390
0
  6
CONTINUOUS
 62
     7
100
AcDbLine
 10
168.714329
 20
209.242624
 30
0.0
 11
168.859797
 21
209.100874
 31
0.0
  0
LINE
  5
1541
100
AcDbEntity
  8
10000_FRONT
370
    50
390
0
  6
CONTINUOUS
 62
     7
100
AcDbLine
 10
168.859797
 20
209.100874
 30
0.0
 11
169.122023
 21
208.966999
 31
0.0
  0
LINE
  5
1542
100
AcDbEntity
  8
10000_FRONT
370
    50
390
0
  6
CONTINUOUS
 62
     7
100
AcDbLine
 10
169.122023
 20
208.966999
 30
0.0
 11
169.657961
 21
208.966999
 31
0.0
  0
LINE
  5
1543
100
AcDbEntity
  8
10000_FRONT
370
    50
390
0
  6
CONTINUOUS
 62
     7
100
AcDbLine
 10
169.657961
 20
208.966999
 30
0.0
 11
170.058001
 21
209.100874
 31
0.0
  0
LINE
  5
1544
100
AcDbEntity
  8
10000_FRONT
370
    50
390
0
  6
CONTINUOUS
 62
     7
100
AcDbLine
 10
170.058001
 20
209.100874
 30
0.0
 11
170.1805
 21
209.223373
 31
0.0
  0
LINE
  5
1545
100
AcDbEntity
  8
10000_FRONT
370
    50
390
0
  6
CONTINUOUS
 62
     7
100
AcDbLine
 10
170.1805
 20
209.223373
 30
0.0
 11
170.1805
 21
209.613624
 31
0.0
  0
LINE
  5
1546
100
AcDbEntity
  8
10000_FRONT
370
    50
390
0
  6
CONTINUOUS
 62
     7
100
AcDbLine
 10
170.1805
 20
209.613624
 30
0.0
 11
170.046516
 21
209.877874
 31
0.0
  0
LINE
  5
1547
100
AcDbEntity
  8
10000_FRONT
370
    50
390
0
  6
CONTINUOUS
 62
     7
100
AcDbLine
 10
170.046516
 20
209.877874
 30
0.0
 11
169.918274
 21
210.006061
 31
0.0
  0
LINE
  5
1548
100
AcDbEntity
  8
10000_FRONT
370
    50
390
0
  6
CONTINUOUS
 62
     7
100
AcDbLine
 10
169.918274
 20
210.006061
 30
0.0
 11
169.646477
 21
210.143875
 31
0.0
  0
LINE
  5
1549
100
AcDbEntity
  8
10000_FRONT
370
    50
390
0
  6
CONTINUOUS
 62
     7
100
AcDbLine
 10
169.646477
 20
210.143875
 30
0.0
 11
168.965071
 21
210.417312
 31
0.0
  0
LINE
  5
154A
100
AcDbEntity
  8
10000_FRONT
370
    50
390
0
  6
CONTINUOUS
 62
     7
100
AcDbLine
 10
168.965071
 20
210.417312
 30
0.0
 11
168.683702
 21
210.555124
 31
0.0
  0
LINE
  5
154B
100
AcDbEntity
  8
10000_FRONT
370
    50
390
0
  6
CONTINUOUS
 62
     7
100
AcDbLine
 10
168.683702
 20
210.555124
 30
0.0
 11
168.538235
 21
210.700811
 31
0.0
  0
LINE
  5
154C
100
AcDbEntity
  8
10000_FRONT
370
    50
390
0
  6
CONTINUOUS
 62
     7
100
AcDbLine
 10
168.538235
 20
210.700811
 30
0.0
 11
168.396593
 21
210.985624
 31
0.0
  0
LINE
  5
154D
100
AcDbEntity
  8
10000_FRONT
370
    50
390
0
  6
CONTINUOUS
 62
     7
100
AcDbLine
 10
168.396593
 20
210.985624
 30
0.0
 11
168.396593
 21
211.280498
 31
0.0
  0
LINE
  5
154E
100
AcDbEntity
  8
10000_FRONT
370
    50
390
0
  6
CONTINUOUS
 62
     7
100
AcDbLine
 10
168.396593
 20
211.280498
 30
0.0
 11
168.687531
 21
211.56925
 31
0.0
  0
LINE
  5
154F
100
AcDbEntity
  8
10000_FRONT
370
    50
390
0
  6
CONTINUOUS
 62
     7
100
AcDbLine
 10
168.687531
 20
211.56925
 30
0.0
 11
169.110538
 21
211.710998
 31
0.0
  0
LINE
  5
1550
100
AcDbEntity
  8
10000_FRONT
370
    50
390
0
  6
CONTINUOUS
 62
     7
100
AcDbLine
 10
169.110538
 20
211.710998
 30
0.0
 11
169.66753
 21
211.710998
 31
0.0
  0
LINE
  5
1551
100
AcDbEntity
  8
10000_FRONT
370
    50
390
0
  6
CONTINUOUS
 62
     7
100
AcDbLine
 10
169.66753
 20
211.710998
 30
0.0
 11
170.09054
 21
211.571438
 31
0.0
  0
LINE
  5
1552
100
AcDbEntity
  8
10000_FRONT
370
    50
390
0
  6
CONTINUOUS
 62
     7
100
AcDbLine
 10
170.09054
 20
211.571438
 30
0.0
 11
170.420523
 21
211.239374
 31
0.0
  0
LINE
  5
1553
100
AcDbEntity
  8
10000_FRONT
370
    50
390
0
  6
CONTINUOUS
 62
     7
100
AcDbLine
 10
170.420523
 20
211.239374
 30
0.0
 11
170.061829
 21
211.239374
 31
0.0
  0
LINE
  5
1554
100
AcDbEntity
  8
10000_FRONT
370
    50
390
0
  6
CONTINUOUS
 62
     7
100
AcDbLine
 10
170.061829
 20
211.239374
 30
0.0
 11
169.918274
 21
211.381124
 31
0.0
  0
LINE
  5
1555
100
AcDbEntity
  8
10000_FRONT
370
    50
390
0
  6
CONTINUOUS
 62
     7
100
AcDbLine
 10
169.918274
 20
211.381124
 30
0.0
 11
169.654133
 21
211.514999
 31
0.0
  0
LINE
  5
1556
100
AcDbEntity
  8
10000_FRONT
370
    50
390
0
  6
CONTINUOUS
 62
     7
100
AcDbLine
 10
169.654133
 20
211.514999
 30
0.0
 11
169.118195
 21
211.514999
 31
0.0
  0
LINE
  5
1557
100
AcDbEntity
  8
10000_FRONT
370
    50
390
0
  6
CONTINUOUS
 62
     7
100
AcDbLine
 10
169.118195
 20
211.514999
 30
0.0
 11
168.718157
 21
211.381124
 31
0.0
  0
LINE
  5
1558
100
AcDbEntity
  8
10000_FRONT
370
    50
390
0
  6
CONTINUOUS
 62
     7
100
AcDbLine
 10
168.718157
 20
211.381124
 30
0.0
 11
168.595655
 21
211.258625
 31
0.0
  0
LINE
  5
1559
100
AcDbEntity
  8
10000_FRONT
370
    50
390
0
  6
CONTINUOUS
 62
     7
100
AcDbLine
 10
168.595655
 20
211.258625
 30
0.0
 11
168.595655
 21
211.003999
 31
0.0
  0
LINE
  5
155A
100
AcDbEntity
  8
10000_FRONT
370
    50
390
0
  6
CONTINUOUS
 62
     7
100
AcDbLine
 10
168.595655
 20
211.003999
 30
0.0
 11
168.725813
 21
210.745874
 31
0.0
  0
LINE
  5
155B
100
AcDbEntity
  8
10000_FRONT
370
    50
390
0
  6
CONTINUOUS
 62
     7
100
AcDbLine
 10
168.725813
 20
210.745874
 30
0.0
 11
168.988039
 21
210.613748
 31
0.0
  0
LINE
  5
155C
100
AcDbEntity
  8
10000_FRONT
370
    50
390
0
  6
CONTINUOUS
 62
     7
100
AcDbLine
 10
168.988039
 20
210.613748
 30
0.0
 11
169.675188
 21
210.338123
 31
0.0
  0
LINE
  5
155D
100
AcDbEntity
  8
10000_FRONT
370
    50
390
0
  6
CONTINUOUS
 62
     7
100
AcDbLine
 10
169.675188
 20
210.338123
 30
0.0
 11
169.956554
 21
210.202499
 31
0.0
  0
LINE
  5
155E
100
AcDbEntity
  8
10000_FRONT
370
    50
390
0
  6
CONTINUOUS
 62
     7
100
AcDbLine
 10
169.956554
 20
210.202499
 30
0.0
 11
170.239071
 21
209.918998
 31
0.0
  0
LINE
  5
155F
100
AcDbEntity
  8
10000_FRONT
370
    50
390
0
  6
CONTINUOUS
 62
     7
100
AcDbLine
 10
170.239071
 20
209.918998
 30
0.0
 11
170.376499
 21
209.634187
 31
0.0
  0
LINE
  5
1560
100
AcDbEntity
  8
10000_FRONT
370
    50
390
0
  6
CONTINUOUS
 62
     7
100
AcDbLine
 10
170.376499
 20
209.634187
 30
0.0
 11
170.376499
 21
209.2015
 31
0.0
  0
LINE
  5
1561
100
AcDbEntity
  8
10000_FRONT
370
    50
390
0
  6
CONTINUOUS
 62
     7
100
AcDbLine
 10
170.376499
 20
209.2015
 30
0.0
 11
170.09054
 21
208.912748
 31
0.0
  0
LINE
  5
1562
100
AcDbEntity
  8
10000_FRONT
370
    50
390
0
  6
CONTINUOUS
 62
     7
100
AcDbLine
 10
170.09054
 20
208.912748
 30
0.0
 11
169.66753
 21
208.771
 31
0.0
  0
LINE
  5
1563
100
AcDbEntity
  8
10000_FRONT
370
    50
390
0
  6
CONTINUOUS
 62
     7
100
AcDbLine
 10
169.66753
 20
208.771
 30
0.0
 11
169.110538
 21
208.771
 31
0.0
  0
LINE
  5
1564
100
AcDbEntity
  8
10000_FRONT
370
    50
390
0
  6
CONTINUOUS
 62
     7
100
AcDbLine
 10
169.110538
 20
208.771
 30
0.0
 11
168.687531
 21
208.910562
 31
0.0
  0
LINE
  5
1565
100
AcDbEntity
  8
10000_FRONT
370
    50
390
0
  6
CONTINUOUS
 62
     7
100
AcDbLine
 10
165.978727
 20
209.197124
 30
0.0
 11
165.839
 21
209.619749
 31
0.0
  0
LINE
  5
1566
100
AcDbEntity
  8
10000_FRONT
370
    50
390
0
  6
CONTINUOUS
 62
     7
100
AcDbLine
 10
165.839
 20
209.619749
 30
0.0
 11
165.839
 21
211.710998
 31
0.0
  0
LINE
  5
1567
100
AcDbEntity
  8
10000_FRONT
370
    50
390
0
  6
CONTINUOUS
 62
     7
100
AcDbLine
 10
165.839
 20
211.710998
 30
0.0
 11
166.035
 21
211.710998
 31
0.0
  0
LINE
  5
1568
100
AcDbEntity
  8
10000_FRONT
370
    50
390
0
  6
CONTINUOUS
 62
     7
100
AcDbLine
 10
166.035
 20
211.710998
 30
0.0
 11
166.035
 21
209.626312
 31
0.0
  0
LINE
  5
1569
100
AcDbEntity
  8
10000_FRONT
370
    50
390
0
  6
CONTINUOUS
 62
     7
100
AcDbLine
 10
166.035
 20
209.626312
 30
0.0
 11
166.16975
 21
209.226436
 31
0.0
  0
LINE
  5
156A
100
AcDbEntity
  8
10000_FRONT
370
    50
390
0
  6
CONTINUOUS
 62
     7
100
AcDbLine
 10
166.16975
 20
209.226436
 30
0.0
 11
166.294547
 21
209.099998
 31
0.0
  0
LINE
  5
156B
100
AcDbEntity
  8
10000_FRONT
370
    50
390
0
  6
CONTINUOUS
 62
     7
100
AcDbLine
 10
166.294547
 20
209.099998
 30
0.0
 11
166.6965
 21
208.966123
 31
0.0
  0
LINE
  5
156C
100
AcDbEntity
  8
10000_FRONT
370
    50
390
0
  6
CONTINUOUS
 62
     7
100
AcDbLine
 10
166.6965
 20
208.966123
 30
0.0
 11
166.964086
 21
208.966123
 31
0.0
  0
LINE
  5
156D
100
AcDbEntity
  8
10000_FRONT
370
    50
390
0
  6
CONTINUOUS
 62
     7
100
AcDbLine
 10
166.964086
 20
208.966123
 30
0.0
 11
167.366039
 21
209.099998
 31
0.0
  0
LINE
  5
156E
100
AcDbEntity
  8
10000_FRONT
370
    50
390
0
  6
CONTINUOUS
 62
     7
100
AcDbLine
 10
167.366039
 20
209.099998
 30
0.0
 11
167.49275
 21
209.226436
 31
0.0
  0
LINE
  5
156F
100
AcDbEntity
  8
10000_FRONT
370
    50
390
0
  6
CONTINUOUS
 62
     7
100
AcDbLine
 10
167.49275
 20
209.226436
 30
0.0
 11
167.627501
 21
209.626312
 31
0.0
  0
LINE
  5
1570
100
AcDbEntity
  8
10000_FRONT
370
    50
390
0
  6
CONTINUOUS
 62
     7
100
AcDbLine
 10
167.627501
 20
209.626312
 30
0.0
 11
167.627501
 21
211.710998
 31
0.0
  0
LINE
  5
1571
100
AcDbEntity
  8
10000_FRONT
370
    50
390
0
  6
CONTINUOUS
 62
     7
100
AcDbLine
 10
167.627501
 20
211.710998
 30
0.0
 11
167.8235
 21
211.710998
 31
0.0
  0
LINE
  5
1572
100
AcDbEntity
  8
10000_FRONT
370
    50
390
0
  6
CONTINUOUS
 62
     7
100
AcDbLine
 10
167.8235
 20
211.710998
 30
0.0
 11
167.8235
 21
209.619749
 31
0.0
  0
LINE
  5
1573
100
AcDbEntity
  8
10000_FRONT
370
    50
390
0
  6
CONTINUOUS
 62
     7
100
AcDbLine
 10
167.8235
 20
209.619749
 30
0.0
 11
167.681858
 21
209.197124
 31
0.0
  0
LINE
  5
1574
100
AcDbEntity
  8
10000_FRONT
370
    50
390
0
  6
CONTINUOUS
 62
     7
100
AcDbLine
 10
167.681858
 20
209.197124
 30
0.0
 11
167.39628
 21
208.912311
 31
0.0
  0
LINE
  5
1575
100
AcDbEntity
  8
10000_FRONT
370
    50
390
0
  6
CONTINUOUS
 62
     7
100
AcDbLine
 10
167.39628
 20
208.912311
 30
0.0
 11
166.972891
 21
208.771
 31
0.0
  0
LINE
  5
1576
100
AcDbEntity
  8
10000_FRONT
370
    50
390
0
  6
CONTINUOUS
 62
     7
100
AcDbLine
 10
166.972891
 20
208.771
 30
0.0
 11
166.689609
 21
208.771
 31
0.0
  0
LINE
  5
1577
100
AcDbEntity
  8
10000_FRONT
370
    50
390
0
  6
CONTINUOUS
 62
     7
100
AcDbLine
 10
166.689609
 20
208.771
 30
0.0
 11
166.266219
 21
208.912311
 31
0.0
  0
LINE
  5
1578
100
AcDbEntity
  8
10000_FRONT
370
    50
390
0
  6
CONTINUOUS
 62
     7
100
AcDbLine
 10
166.266219
 20
208.912311
 30
0.0
 11
165.978727
 21
209.197124
 31
0.0
  0
LINE
  5
1579
100
AcDbEntity
  8
10000_FRONT
370
    50
390
0
  6
CONTINUOUS
 62
     7
100
AcDbLine
 10
162.735
 20
211.514999
 30
0.0
 11
163.658344
 21
211.514999
 31
0.0
  0
LINE
  5
157A
100
AcDbEntity
  8
10000_FRONT
370
    50
390
0
  6
CONTINUOUS
 62
     7
100
AcDbLine
 10
163.658344
 20
211.514999
 30
0.0
 11
164.050344
 21
211.380687
 31
0.0
  0
LINE
  5
157B
100
AcDbEntity
  8
10000_FRONT
370
    50
390
0
  6
CONTINUOUS
 62
     7
100
AcDbLine
 10
164.050344
 20
211.380687
 30
0.0
 11
164.1805
 21
211.125623
 31
0.0
  0
LINE
  5
157C
100
AcDbEntity
  8
10000_FRONT
370
    50
390
0
  6
CONTINUOUS
 62
     7
100
AcDbLine
 10
164.1805
 20
211.125623
 30
0.0
 11
164.1805
 21
210.728374
 31
0.0
  0
LINE
  5
157D
100
AcDbEntity
  8
10000_FRONT
370
    50
390
0
  6
CONTINUOUS
 62
     7
100
AcDbLine
 10
164.1805
 20
210.728374
 30
0.0
 11
164.050344
 21
210.473312
 31
0.0
  0
LINE
  5
157E
100
AcDbEntity
  8
10000_FRONT
370
    50
390
0
  6
CONTINUOUS
 62
     7
100
AcDbLine
 10
164.050344
 20
210.473312
 30
0.0
 11
163.658344
 21
210.338999
 31
0.0
  0
LINE
  5
157F
100
AcDbEntity
  8
10000_FRONT
370
    50
390
0
  6
CONTINUOUS
 62
     7
100
AcDbLine
 10
163.658344
 20
210.338999
 30
0.0
 11
162.735
 21
210.338999
 31
0.0
  0
LINE
  5
1580
100
AcDbEntity
  8
10000_FRONT
370
    50
390
0
  6
CONTINUOUS
 62
     7
100
AcDbLine
 10
162.735
 20
210.338999
 30
0.0
 11
162.735
 21
211.514999
 31
0.0
  0
LINE
  5
1581
100
AcDbEntity
  8
10000_FRONT
370
    50
390
0
  6
CONTINUOUS
 62
     7
100
AcDbLine
 10
162.539
 20
208.771
 30
0.0
 11
162.539
 21
211.710998
 31
0.0
  0
LINE
  5
1582
100
AcDbEntity
  8
10000_FRONT
370
    50
390
0
  6
CONTINUOUS
 62
     7
100
AcDbLine
 10
162.539
 20
211.710998
 30
0.0
 11
163.667531
 21
211.710998
 31
0.0
  0
LINE
  5
1583
100
AcDbEntity
  8
10000_FRONT
370
    50
390
0
  6
CONTINUOUS
 62
     7
100
AcDbLine
 10
163.667531
 20
211.710998
 30
0.0
 11
164.088625
 21
211.569687
 31
0.0
  0
LINE
  5
1584
100
AcDbEntity
  8
10000_FRONT
370
    50
390
0
  6
CONTINUOUS
 62
     7
100
AcDbLine
 10
164.088625
 20
211.569687
 30
0.0
 11
164.237539
 21
211.426624
 31
0.0
  0
LINE
  5
1585
100
AcDbEntity
  8
10000_FRONT
370
    50
390
0
  6
CONTINUOUS
 62
     7
100
AcDbLine
 10
164.237539
 20
211.426624
 30
0.0
 11
164.3765
 21
211.140062
 31
0.0
  0
LINE
  5
1586
100
AcDbEntity
  8
10000_FRONT
370
    50
390
0
  6
CONTINUOUS
 62
     7
100
AcDbLine
 10
164.3765
 20
211.140062
 30
0.0
 11
164.3765
 21
210.713938
 31
0.0
  0
LINE
  5
1587
100
AcDbEntity
  8
10000_FRONT
370
    50
390
0
  6
CONTINUOUS
 62
     7
100
AcDbLine
 10
164.3765
 20
210.713938
 30
0.0
 11
164.237156
 21
210.427374
 31
0.0
  0
LINE
  5
1588
100
AcDbEntity
  8
10000_FRONT
370
    50
390
0
  6
CONTINUOUS
 62
     7
100
AcDbLine
 10
164.237156
 20
210.427374
 30
0.0
 11
164.088242
 21
210.284311
 31
0.0
  0
LINE
  5
1589
100
AcDbEntity
  8
10000_FRONT
370
    50
390
0
  6
CONTINUOUS
 62
     7
100
AcDbLine
 10
164.088242
 20
210.284311
 30
0.0
 11
163.666383
 21
210.142999
 31
0.0
  0
LINE
  5
158A
100
AcDbEntity
  8
10000_FRONT
370
    50
390
0
  6
CONTINUOUS
 62
     7
100
AcDbLine
 10
163.666383
 20
210.142999
 30
0.0
 11
163.580633
 21
210.142999
 31
0.0
  0
LINE
  5
158B
100
AcDbEntity
  8
10000_FRONT
370
    50
390
0
  6
CONTINUOUS
 62
     7
100
AcDbLine
 10
163.580633
 20
210.142999
 30
0.0
 11
164.401383
 21
208.771
 31
0.0
  0
LINE
  5
158C
100
AcDbEntity
  8
10000_FRONT
370
    50
390
0
  6
CONTINUOUS
 62
     7
100
AcDbLine
 10
164.401383
 20
208.771
 30
0.0
 11
164.189305
 21
208.771
 31
0.0
  0
LINE
  5
158D
100
AcDbEntity
  8
10000_FRONT
370
    50
390
0
  6
CONTINUOUS
 62
     7
100
AcDbLine
 10
164.189305
 20
208.771
 30
0.0
 11
163.368555
 21
210.142999
 31
0.0
  0
LINE
  5
158E
100
AcDbEntity
  8
10000_FRONT
370
    50
390
0
  6
CONTINUOUS
 62
     7
100
AcDbLine
 10
163.368555
 20
210.142999
 30
0.0
 11
162.735
 21
210.142999
 31
0.0
  0
LINE
  5
158F
100
AcDbEntity
  8
10000_FRONT
370
    50
390
0
  6
CONTINUOUS
 62
     7
100
AcDbLine
 10
162.735
 20
210.142999
 30
0.0
 11
162.735
 21
208.771
 31
0.0
  0
LINE
  5
1590
100
AcDbEntity
  8
10000_FRONT
370
    50
390
0
  6
CONTINUOUS
 62
     7
100
AcDbLine
 10
162.735
 20
208.771
 30
0.0
 11
162.539
 21
208.771
 31
0.0
  0
LINE
  5
1591
100
AcDbEntity
  8
10000_FRONT
370
    50
390
0
  6
CONTINUOUS
 62
     7
100
AcDbLine
 10
159.687531
 20
208.910562
 30
0.0
 11
159.354484
 21
209.242624
 31
0.0
  0
LINE
  5
1592
100
AcDbEntity
  8
10000_FRONT
370
    50
390
0
  6
CONTINUOUS
 62
     7
100
AcDbLine
 10
159.354484
 20
209.242624
 30
0.0
 11
159.714328
 21
209.242624
 31
0.0
  0
LINE
  5
1593
100
AcDbEntity
  8
10000_FRONT
370
    50
390
0
  6
CONTINUOUS
 62
     7
100
AcDbLine
 10
159.714328
 20
209.242624
 30
0.0
 11
159.859797
 21
209.100874
 31
0.0
  0
LINE
  5
1594
100
AcDbEntity
  8
10000_FRONT
370
    50
390
0
  6
CONTINUOUS
 62
     7
100
AcDbLine
 10
159.859797
 20
209.100874
 30
0.0
 11
160.122023
 21
208.966999
 31
0.0
  0
LINE
  5
1595
100
AcDbEntity
  8
10000_FRONT
370
    50
390
0
  6
CONTINUOUS
 62
     7
100
AcDbLine
 10
160.122023
 20
208.966999
 30
0.0
 11
160.657961
 21
208.966999
 31
0.0
  0
LINE
  5
1596
100
AcDbEntity
  8
10000_FRONT
370
    50
390
0
  6
CONTINUOUS
 62
     7
100
AcDbLine
 10
160.657961
 20
208.966999
 30
0.0
 11
161.058
 21
209.100874
 31
0.0
  0
LINE
  5
1597
100
AcDbEntity
  8
10000_FRONT
370
    50
390
0
  6
CONTINUOUS
 62
     7
100
AcDbLine
 10
161.058
 20
209.100874
 30
0.0
 11
161.1805
 21
209.223373
 31
0.0
  0
LINE
  5
1598
100
AcDbEntity
  8
10000_FRONT
370
    50
390
0
  6
CONTINUOUS
 62
     7
100
AcDbLine
 10
161.1805
 20
209.223373
 30
0.0
 11
161.1805
 21
209.613624
 31
0.0
  0
LINE
  5
1599
100
AcDbEntity
  8
10000_FRONT
370
    50
390
0
  6
CONTINUOUS
 62
     7
100
AcDbLine
 10
161.1805
 20
209.613624
 30
0.0
 11
161.046516
 21
209.877874
 31
0.0
  0
LINE
  5
159A
100
AcDbEntity
  8
10000_FRONT
370
    50
390
0
  6
CONTINUOUS
 62
     7
100
AcDbLine
 10
161.046516
 20
209.877874
 30
0.0
 11
160.918273
 21
210.006061
 31
0.0
  0
LINE
  5
159B
100
AcDbEntity
  8
10000_FRONT
370
    50
390
0
  6
CONTINUOUS
 62
     7
100
AcDbLine
 10
160.918273
 20
210.006061
 30
0.0
 11
160.646477
 21
210.143875
 31
0.0
  0
LINE
  5
159C
100
AcDbEntity
  8
10000_FRONT
370
    50
390
0
  6
CONTINUOUS
 62
     7
100
AcDbLine
 10
160.646477
 20
210.143875
 30
0.0
 11
159.96507
 21
210.417312
 31
0.0
  0
LINE
  5
159D
100
AcDbEntity
  8
10000_FRONT
370
    50
390
0
  6
CONTINUOUS
 62
     7
100
AcDbLine
 10
159.96507
 20
210.417312
 30
0.0
 11
159.683703
 21
210.555124
 31
0.0
  0
LINE
  5
159E
100
AcDbEntity
  8
10000_FRONT
370
    50
390
0
  6
CONTINUOUS
 62
     7
100
AcDbLine
 10
159.683703
 20
210.555124
 30
0.0
 11
159.538234
 21
210.700811
 31
0.0
  0
LINE
  5
159F
100
AcDbEntity
  8
10000_FRONT
370
    50
390
0
  6
CONTINUOUS
 62
     7
100
AcDbLine
 10
159.538234
 20
210.700811
 30
0.0
 11
159.396594
 21
210.985624
 31
0.0
  0
LINE
  5
15A0
100
AcDbEntity
  8
10000_FRONT
370
    50
390
0
  6
CONTINUOUS
 62
     7
100
AcDbLine
 10
159.396594
 20
210.985624
 30
0.0
 11
159.396594
 21
211.280498
 31
0.0
  0
LINE
  5
15A1
100
AcDbEntity
  8
10000_FRONT
370
    50
390
0
  6
CONTINUOUS
 62
     7
100
AcDbLine
 10
159.396594
 20
211.280498
 30
0.0
 11
159.687531
 21
211.56925
 31
0.0
  0
LINE
  5
15A2
100
AcDbEntity
  8
10000_FRONT
370
    50
390
0
  6
CONTINUOUS
 62
     7
100
AcDbLine
 10
159.687531
 20
211.56925
 30
0.0
 11
160.110539
 21
211.710998
 31
0.0
  0
LINE
  5
15A3
100
AcDbEntity
  8
10000_FRONT
370
    50
390
0
  6
CONTINUOUS
 62
     7
100
AcDbLine
 10
160.110539
 20
211.710998
 30
0.0
 11
160.667531
 21
211.710998
 31
0.0
  0
LINE
  5
15A4
100
AcDbEntity
  8
10000_FRONT
370
    50
390
0
  6
CONTINUOUS
 62
     7
100
AcDbLine
 10
160.667531
 20
211.710998
 30
0.0
 11
161.090539
 21
211.571438
 31
0.0
  0
LINE
  5
15A5
100
AcDbEntity
  8
10000_FRONT
370
    50
390
0
  6
CONTINUOUS
 62
     7
100
AcDbLine
 10
161.090539
 20
211.571438
 30
0.0
 11
161.420523
 21
211.239374
 31
0.0
  0
LINE
  5
15A6
100
AcDbEntity
  8
10000_FRONT
370
    50
390
0
  6
CONTINUOUS
 62
     7
100
AcDbLine
 10
161.420523
 20
211.239374
 30
0.0
 11
161.061828
 21
211.239374
 31
0.0
  0
LINE
  5
15A7
100
AcDbEntity
  8
10000_FRONT
370
    50
390
0
  6
CONTINUOUS
 62
     7
100
AcDbLine
 10
161.061828
 20
211.239374
 30
0.0
 11
160.918273
 21
211.381124
 31
0.0
  0
LINE
  5
15A8
100
AcDbEntity
  8
10000_FRONT
370
    50
390
0
  6
CONTINUOUS
 62
     7
100
AcDbLine
 10
160.918273
 20
211.381124
 30
0.0
 11
160.654133
 21
211.514999
 31
0.0
  0
LINE
  5
15A9
100
AcDbEntity
  8
10000_FRONT
370
    50
390
0
  6
CONTINUOUS
 62
     7
100
AcDbLine
 10
160.654133
 20
211.514999
 30
0.0
 11
160.118195
 21
211.514999
 31
0.0
  0
LINE
  5
15AA
100
AcDbEntity
  8
10000_FRONT
370
    50
390
0
  6
CONTINUOUS
 62
     7
100
AcDbLine
 10
160.118195
 20
211.514999
 30
0.0
 11
159.718156
 21
211.381124
 31
0.0
  0
LINE
  5
15AB
100
AcDbEntity
  8
10000_FRONT
370
    50
390
0
  6
CONTINUOUS
 62
     7
100
AcDbLine
 10
159.718156
 20
211.381124
 30
0.0
 11
159.595656
 21
211.258625
 31
0.0
  0
LINE
  5
15AC
100
AcDbEntity
  8
10000_FRONT
370
    50
390
0
  6
CONTINUOUS
 62
     7
100
AcDbLine
 10
159.595656
 20
211.258625
 30
0.0
 11
159.595656
 21
211.003999
 31
0.0
  0
LINE
  5
15AD
100
AcDbEntity
  8
10000_FRONT
370
    50
390
0
  6
CONTINUOUS
 62
     7
100
AcDbLine
 10
159.595656
 20
211.003999
 30
0.0
 11
159.725813
 21
210.745874
 31
0.0
  0
LINE
  5
15AE
100
AcDbEntity
  8
10000_FRONT
370
    50
390
0
  6
CONTINUOUS
 62
     7
100
AcDbLine
 10
159.725813
 20
210.745874
 30
0.0
 11
159.988039
 21
210.613748
 31
0.0
  0
LINE
  5
15AF
100
AcDbEntity
  8
10000_FRONT
370
    50
390
0
  6
CONTINUOUS
 62
     7
100
AcDbLine
 10
159.988039
 20
210.613748
 30
0.0
 11
160.675188
 21
210.338123
 31
0.0
  0
LINE
  5
15B0
100
AcDbEntity
  8
10000_FRONT
370
    50
390
0
  6
CONTINUOUS
 62
     7
100
AcDbLine
 10
160.675188
 20
210.338123
 30
0.0
 11
160.956555
 21
210.202499
 31
0.0
  0
LINE
  5
15B1
100
AcDbEntity
  8
10000_FRONT
370
    50
390
0
  6
CONTINUOUS
 62
     7
100
AcDbLine
 10
160.956555
 20
210.202499
 30
0.0
 11
161.23907
 21
209.918998
 31
0.0
  0
LINE
  5
15B2
100
AcDbEntity
  8
10000_FRONT
370
    50
390
0
  6
CONTINUOUS
 62
     7
100
AcDbLine
 10
161.23907
 20
209.918998
 30
0.0
 11
161.3765
 21
209.634187
 31
0.0
  0
LINE
  5
15B3
100
AcDbEntity
  8
10000_FRONT
370
    50
390
0
  6
CONTINUOUS
 62
     7
100
AcDbLine
 10
161.3765
 20
209.634187
 30
0.0
 11
161.3765
 21
209.2015
 31
0.0
  0
LINE
  5
15B4
100
AcDbEntity
  8
10000_FRONT
370
    50
390
0
  6
CONTINUOUS
 62
     7
100
AcDbLine
 10
161.3765
 20
209.2015
 30
0.0
 11
161.090539
 21
208.912748
 31
0.0
  0
LINE
  5
15B5
100
AcDbEntity
  8
10000_FRONT
370
    50
390
0
  6
CONTINUOUS
 62
     7
100
AcDbLine
 10
161.090539
 20
208.912748
 30
0.0
 11
160.667531
 21
208.771
 31
0.0
  0
LINE
  5
15B6
100
AcDbEntity
  8
10000_FRONT
370
    50
390
0
  6
CONTINUOUS
 62
     7
100
AcDbLine
 10
160.667531
 20
208.771
 30
0.0
 11
160.110539
 21
208.771
 31
0.0
  0
LINE
  5
15B7
100
AcDbEntity
  8
10000_FRONT
370
    50
390
0
  6
CONTINUOUS
 62
     7
100
AcDbLine
 10
160.110539
 20
208.771
 30
0.0
 11
159.687531
 21
208.910562
 31
0.0
  0
LINE
  5
15B8
100
AcDbEntity
  8
10000_FRONT
370
    50
390
0
  6
CONTINUOUS
 62
     7
100
AcDbLine
 10
143.05
 20
212.264999
 30
0.0
 11
158.95
 21
212.264999
 31
0.0
  0
LINE
  5
15B9
100
AcDbEntity
  8
10000_FRONT
370
    50
390
0
  6
CONTINUOUS
 62
     7
100
AcDbLine
 10
173.5
 20
212.564999
 30
0.0
 11
173.5
 21
208.465
 31
0.0
  0
LINE
  5
15BA
100
AcDbEntity
  8
10000_FRONT
370
    50
390
0
  6
CONTINUOUS
 62
     7
100
AcDbLine
 10
172.1
 20
212.564999
 30
0.0
 11
172.1
 21
210.264999
 31
0.0
  0
LINE
  5
15BB
100
AcDbEntity
  8
10000_FRONT
370
    50
390
0
  6
CONTINUOUS
 62
     7
100
AcDbLine
 10
172.1
 20
210.264999
 30
0.0
 11
170.799999
 21
210.264999
 31
0.0
  0
LINE
  5
15BC
100
AcDbEntity
  8
10000_FRONT
370
    50
390
0
  6
CONTINUOUS
 62
     7
100
AcDbLine
 10
170.799999
 20
210.264999
 30
0.0
 11
170.799999
 21
212.564999
 31
0.0
  0
LINE
  5
15BD
100
AcDbEntity
  8
10000_FRONT
370
    50
390
0
  6
CONTINUOUS
 62
     7
100
AcDbLine
 10
131.200001
 20
212.564999
 30
0.0
 11
131.200001
 21
210.264999
 31
0.0
  0
LINE
  5
15BE
100
AcDbEntity
  8
10000_FRONT
370
    50
390
0
  6
CONTINUOUS
 62
     7
100
AcDbLine
 10
131.200001
 20
210.264999
 30
0.0
 11
129.9
 21
210.264999
 31
0.0
  0
LINE
  5
15BF
100
AcDbEntity
  8
10000_FRONT
370
    50
390
0
  6
CONTINUOUS
 62
     7
100
AcDbLine
 10
129.9
 20
210.264999
 30
0.0
 11
129.9
 21
212.564999
 31
0.0
  0
LINE
  5
15C0
100
AcDbEntity
  8
10000_FRONT
370
    50
390
0
  6
CONTINUOUS
 62
     7
100
AcDbLine
 10
128.5
 20
212.564999
 30
0.0
 11
128.5
 21
208.465
 31
0.0
  0
LINE
  5
15C1
100
AcDbEntity
  8
10000_FRONT
370
    50
390
0
  6
CONTINUOUS
 62
     7
100
AcDbLine
 10
143.05
 20
208.465
 30
0.0
 11
128.5
 21
208.465
 31
0.0
  0
LINE
  5
15C2
100
AcDbEntity
  8
10000_FRONT
370
    50
390
0
  6
CONTINUOUS
 62
     7
100
AcDbLine
 10
143.05
 20
208.465
 30
0.0
 11
143.05
 21
212.264999
 31
0.0
  0
LINE
  5
15C3
100
AcDbEntity
  8
10000_FRONT
370
    50
390
0
  6
CONTINUOUS
 62
     7
100
AcDbLine
 10
158.8
 20
208.164999
 30
0.0
 11
158.8
 21
211.965
 31
0.0
  0
ARC
  5
15C4
100
AcDbEntity
  8
10000_FRONT
370
    50
390
0
  6
CONTINUOUS
 62
     7
100
AcDbCircle
 10
158.6
 20
211.964999
 30
0.0
 40
0.2
100
AcDbArc
 50
0.000262
 51
90.000027
  0
LINE
  5
15C5
100
AcDbEntity
  8
10000_FRONT
370
    50
390
0
  6
CONTINUOUS
 62
     7
100
AcDbLine
 10
158.6
 20
212.164999
 30
0.0
 11
143.4
 21
212.164999
 31
0.0
  0
ARC
  5
15C6
100
AcDbEntity
  8
10000_FRONT
370
    50
390
0
  6
CONTINUOUS
 62
     7
100
AcDbCircle
 10
143.4
 20
211.964999
 30
0.0
 40
0.2
100
AcDbArc
 50
89.999973
 51
179.999738
  0
LINE
  5
15C7
100
AcDbEntity
  8
10000_FRONT
370
    50
390
0
  6
CONTINUOUS
 62
     7
100
AcDbLine
 10
143.2
 20
211.965
 30
0.0
 11
143.2
 21
208.164999
 31
0.0
  0
ARC
  5
15C8
100
AcDbEntity
  8
10000_FRONT
370
    50
390
0
  6
CONTINUOUS
 62
     7
100
AcDbCircle
 10
143.4
 20
208.164999
 30
0.0
 40
0.2
100
AcDbArc
 50
180.000066
 51
270.000027
  0
LINE
  5
15C9
100
AcDbEntity
  8
10000_FRONT
370
    50
390
0
  6
CONTINUOUS
 62
     7
100
AcDbLine
 10
143.4
 20
207.965
 30
0.0
 11
158.6
 21
207.965
 31
0.0
  0
ARC
  5
15CA
100
AcDbEntity
  8
10000_FRONT
370
    50
390
0
  6
CONTINUOUS
 62
     7
100
AcDbCircle
 10
158.6
 20
208.164999
 30
0.0
 40
0.2
100
AcDbArc
 50
269.999973
 51
359.999934
  0
LINE
  5
15CB
100
AcDbEntity
  8
10000_FRONT
370
    50
390
0
  6
CONTINUOUS
 62
     7
100
AcDbLine
 10
156.336
 20
209.011293
 30
0.0
 11
156.336
 21
209.449552
 31
0.0
  0
ARC
  5
15CC
100
AcDbEntity
  8
10000_FRONT
370
    50
390
0
  6
CONTINUOUS
 62
     7
100
AcDbCircle
 10
157.112518
 20
211.516059
 30
0.0
 40
2.207585
100
AcDbArc
 50
249.405595
 51
266.665879
  0
ARC
  5
15CD
100
AcDbEntity
  8
10000_FRONT
370
    50
390
0
  6
CONTINUOUS
 62
     7
100
AcDbCircle
 10
157.027208
 20
209.938735
 30
0.0
 40
0.628004
100
AcDbArc
 50
266.066548
 51
292.858079
  0
ARC
  5
15CE
100
AcDbEntity
  8
10000_FRONT
370
    50
390
0
  6
CONTINUOUS
 62
     7
100
AcDbCircle
 10
157.209364
 20
209.504886
 30
0.0
 40
0.157468
100
AcDbArc
 50
293.104365
 51
0.079771
  0
ARC
  5
15CF
100
AcDbEntity
  8
10000_FRONT
370
    50
390
0
  6
CONTINUOUS
 62
     7
100
AcDbCircle
 10
157.185711
 20
209.502792
 30
0.0
 40
0.181136
100
AcDbArc
 50
0.731897
 51
61.854081
  0
ARC
  5
15D0
100
AcDbEntity
  8
10000_FRONT
370
    50
390
0
  6
CONTINUOUS
 62
     7
100
AcDbCircle
 10
152.981545
 20
200.805315
 30
0.0
 40
9.841273
100
AcDbArc
 50
64.158713
 51
67.400278
  0
ARC
  5
15D1
100
AcDbEntity
  8
10000_FRONT
370
    50
390
0
  6
CONTINUOUS
 62
     7
100
AcDbCircle
 10
157.079407
 20
210.69532
 30
0.0
 40
0.864246
100
AcDbArc
 50
212.423421
 51
248.556782
  0
ARC
  5
15D2
100
AcDbEntity
  8
10000_FRONT
370
    50
390
0
  6
CONTINUOUS
 62
     7
100
AcDbCircle
 10
156.865023
 20
210.504894
 30
0.0
 40
0.582983
100
AcDbArc
 50
153.406655
 51
207.918135
  0
ARC
  5
15D3
100
AcDbEntity
  8
10000_FRONT
370
    50
390
0
  6
CONTINUOUS
 62
     7
100
AcDbCircle
 10
156.954163
 20
210.411879
 30
0.0
 40
0.70566
100
AcDbArc
 50
101.936954
 51
149.891145
  0
ARC
  5
15D4
100
AcDbEntity
  8
10000_FRONT
370
    50
390
0
  6
CONTINUOUS
 62
     7
100
AcDbCircle
 10
157.254016
 20
209.078607
 30
0.0
 40
2.072196
100
AcDbArc
 50
74.886928
 51
102.423616
  0
LINE
  5
15D5
100
AcDbEntity
  8
10000_FRONT
370
    50
390
0
  6
CONTINUOUS
 62
     7
100
AcDbLine
 10
157.794289
 20
211.079132
 30
0.0
 11
157.794289
 21
210.670194
 31
0.0
  0
ARC
  5
15D6
100
AcDbEntity
  8
10000_FRONT
370
    50
390
0
  6
CONTINUOUS
 62
     7
100
AcDbCircle
 10
157.244473
 20
209.100623
 30
0.0
 40
1.663085
100
AcDbArc
 50
70.694827
 51
95.842709
  0
ARC
  5
15D7
100
AcDbEntity
  8
10000_FRONT
370
    50
390
0
  6
CONTINUOUS
 62
     7
100
AcDbCircle
 10
157.097406
 20
210.505345
 30
0.0
 40
0.25071
100
AcDbArc
 50
95.08728
 51
138.888353
  0
ARC
  5
15D8
100
AcDbEntity
  8
10000_FRONT
370
    50
390
0
  6
CONTINUOUS
 62
     7
100
AcDbCircle
 10
157.011525
 20
210.597692
 30
0.0
 40
0.125968
100
AcDbArc
 50
144.861023
 51
206.967737
  0
ARC
  5
15D9
100
AcDbEntity
  8
10000_FRONT
370
    50
390
0
  6
CONTINUOUS
 62
     7
100
AcDbCircle
 10
157.313917
 20
210.927567
 30
0.0
 40
0.567198
100
AcDbArc
 50
223.02368
 51
247.996445
  0
LINE
  5
15DA
100
AcDbEntity
  8
10000_FRONT
370
    50
390
0
  6
CONTINUOUS
 62
     7
100
AcDbLine
 10
157.101408
 20
210.401684
 30
0.0
 11
157.484113
 21
210.228849
 31
0.0
  0
ARC
  5
15DB
100
AcDbEntity
  8
10000_FRONT
370
    50
390
0
  6
CONTINUOUS
 62
     7
100
AcDbCircle
 10
157.134577
 20
209.401504
 30
0.0
 40
0.898151
100
AcDbArc
 50
32.199001
 51
67.096948
  0
ARC
  5
15DC
100
AcDbEntity
  8
10000_FRONT
370
    50
390
0
  6
CONTINUOUS
 62
     7
100
AcDbCircle
 10
157.341733
 20
209.597699
 30
0.0
 40
0.620808
100
AcDbArc
 50
333.897445
 51
27.057477
  0
ARC
  5
15DD
100
AcDbEntity
  8
10000_FRONT
370
    50
390
0
  6
CONTINUOUS
 62
     7
100
AcDbCircle
 10
157.236498
 20
209.702625
 30
0.0
 40
0.762982
100
AcDbArc
 50
283.385294
 51
330.296279
  0
ARC
  5
15DE
100
AcDbEntity
  8
10000_FRONT
370
    50
390
0
  6
CONTINUOUS
 62
     7
100
AcDbCircle
 10
157.000305
 20
211.645451
 30
0.0
 40
2.716631
100
AcDbArc
 50
255.845786
 51
278.740592
  0
LINE
  5
15DF
100
AcDbEntity
  8
10000_FRONT
370
    50
390
0
  6
CONTINUOUS
 62
     7
100
AcDbLine
 10
152.128
 20
211.094564
 30
0.0
 11
153.702026
 21
211.094564
 31
0.0
  0
LINE
  5
15E0
100
AcDbEntity
  8
10000_FRONT
370
    50
390
0
  6
CONTINUOUS
 62
     7
100
AcDbLine
 10
153.702026
 20
211.094564
 30
0.0
 11
153.702026
 21
210.713402
 31
0.0
  0
LINE
  5
15E1
100
AcDbEntity
  8
10000_FRONT
370
    50
390
0
  6
CONTINUOUS
 62
     7
100
AcDbLine
 10
153.702026
 20
210.713402
 30
0.0
 11
152.749894
 21
210.713402
 31
0.0
  0
LINE
  5
15E2
100
AcDbEntity
  8
10000_FRONT
370
    50
390
0
  6
CONTINUOUS
 62
     7
100
AcDbLine
 10
152.749894
 20
210.713402
 30
0.0
 11
152.749894
 21
210.228849
 31
0.0
  0
LINE
  5
15E3
100
AcDbEntity
  8
10000_FRONT
370
    50
390
0
  6
CONTINUOUS
 62
     7
100
AcDbLine
 10
152.749894
 20
210.228849
 30
0.0
 11
153.581659
 21
210.228849
 31
0.0
  0
LINE
  5
15E4
100
AcDbEntity
  8
10000_FRONT
370
    50
390
0
  6
CONTINUOUS
 62
     7
100
AcDbLine
 10
153.581659
 20
210.228849
 30
0.0
 11
153.581659
 21
209.864662
 31
0.0
  0
LINE
  5
15E5
100
AcDbEntity
  8
10000_FRONT
370
    50
390
0
  6
CONTINUOUS
 62
     7
100
AcDbLine
 10
153.581659
 20
209.864662
 30
0.0
 11
152.749894
 21
209.864662
 31
0.0
  0
LINE
  5
15E6
100
AcDbEntity
  8
10000_FRONT
370
    50
390
0
  6
CONTINUOUS
 62
     7
100
AcDbLine
 10
152.749894
 20
209.864662
 30
0.0
 11
152.749894
 21
209.363134
 31
0.0
  0
LINE
  5
15E7
100
AcDbEntity
  8
10000_FRONT
370
    50
390
0
  6
CONTINUOUS
 62
     7
100
AcDbLine
 10
152.749894
 20
209.363134
 30
0.0
 11
153.702026
 21
209.363134
 31
0.0
  0
LINE
  5
15E8
100
AcDbEntity
  8
10000_FRONT
370
    50
390
0
  6
CONTINUOUS
 62
     7
100
AcDbLine
 10
153.702026
 20
209.363134
 30
0.0
 11
153.702026
 21
208.965
 31
0.0
  0
LINE
  5
15E9
100
AcDbEntity
  8
10000_FRONT
370
    50
390
0
  6
CONTINUOUS
 62
     7
100
AcDbLine
 10
153.702026
 20
208.965
 30
0.0
 11
152.128
 21
208.965
 31
0.0
  0
LINE
  5
15EA
100
AcDbEntity
  8
10000_FRONT
370
    50
390
0
  6
CONTINUOUS
 62
     7
100
AcDbLine
 10
152.128
 20
208.965
 30
0.0
 11
152.128
 21
211.094564
 31
0.0
  0
LINE
  5
15EB
100
AcDbEntity
  8
10000_FRONT
370
    50
390
0
  6
CONTINUOUS
 62
     7
100
AcDbLine
 10
147.064
 20
211.094564
 30
0.0
 11
148.638026
 21
211.094564
 31
0.0
  0
LINE
  5
15EC
100
AcDbEntity
  8
10000_FRONT
370
    50
390
0
  6
CONTINUOUS
 62
     7
100
AcDbLine
 10
148.638026
 20
211.094564
 30
0.0
 11
148.638026
 21
210.713402
 31
0.0
  0
LINE
  5
15ED
100
AcDbEntity
  8
10000_FRONT
370
    50
390
0
  6
CONTINUOUS
 62
     7
100
AcDbLine
 10
148.638026
 20
210.713402
 30
0.0
 11
147.685894
 21
210.713402
 31
0.0
  0
LINE
  5
15EE
100
AcDbEntity
  8
10000_FRONT
370
    50
390
0
  6
CONTINUOUS
 62
     7
100
AcDbLine
 10
147.685894
 20
210.713402
 30
0.0
 11
147.685894
 21
210.228849
 31
0.0
  0
LINE
  5
15EF
100
AcDbEntity
  8
10000_FRONT
370
    50
390
0
  6
CONTINUOUS
 62
     7
100
AcDbLine
 10
147.685894
 20
210.228849
 30
0.0
 11
148.517659
 21
210.228849
 31
0.0
  0
LINE
  5
15F0
100
AcDbEntity
  8
10000_FRONT
370
    50
390
0
  6
CONTINUOUS
 62
     7
100
AcDbLine
 10
148.517659
 20
210.228849
 30
0.0
 11
148.517659
 21
209.864662
 31
0.0
  0
LINE
  5
15F1
100
AcDbEntity
  8
10000_FRONT
370
    50
390
0
  6
CONTINUOUS
 62
     7
100
AcDbLine
 10
148.517659
 20
209.864662
 30
0.0
 11
147.685894
 21
209.864662
 31
0.0
  0
LINE
  5
15F2
100
AcDbEntity
  8
10000_FRONT
370
    50
390
0
  6
CONTINUOUS
 62
     7
100
AcDbLine
 10
147.685894
 20
209.864662
 30
0.0
 11
147.685894
 21
209.363134
 31
0.0
  0
LINE
  5
15F3
100
AcDbEntity
  8
10000_FRONT
370
    50
390
0
  6
CONTINUOUS
 62
     7
100
AcDbLine
 10
147.685894
 20
209.363134
 30
0.0
 11
148.638026
 21
209.363134
 31
0.0
  0
LINE
  5
15F4
100
AcDbEntity
  8
10000_FRONT
370
    50
390
0
  6
CONTINUOUS
 62
     7
100
AcDbLine
 10
148.638026
 20
209.363134
 30
0.0
 11
148.638026
 21
208.965
 31
0.0
  0
LINE
  5
15F5
100
AcDbEntity
  8
10000_FRONT
370
    50
390
0
  6
CONTINUOUS
 62
     7
100
AcDbLine
 10
148.638026
 20
208.965
 30
0.0
 11
147.064
 21
208.965
 31
0.0
  0
LINE
  5
15F6
100
AcDbEntity
  8
10000_FRONT
370
    50
390
0
  6
CONTINUOUS
 62
     7
100
AcDbLine
 10
147.064
 20
208.965
 30
0.0
 11
147.064
 21
211.094564
 31
0.0
  0
LINE
  5
15F7
100
AcDbEntity
  8
10000_FRONT
370
    50
390
0
  6
CONTINUOUS
 62
     7
100
AcDbLine
 10
144.0
 20
209.011293
 30
0.0
 11
144.0
 21
209.449552
 31
0.0
  0
ARC
  5
15F8
100
AcDbEntity
  8
10000_FRONT
370
    50
390
0
  6
CONTINUOUS
 62
     7
100
AcDbCircle
 10
144.776518
 20
211.516059
 30
0.0
 40
2.207585
100
AcDbArc
 50
249.405596
 51
266.66588
  0
ARC
  5
15F9
100
AcDbEntity
  8
10000_FRONT
370
    50
390
0
  6
CONTINUOUS
 62
     7
100
AcDbCircle
 10
144.691208
 20
209.938735
 30
0.0
 40
0.628004
100
AcDbArc
 50
266.066551
 51
292.858082
  0
ARC
  5
15FA
100
AcDbEntity
  8
10000_FRONT
370
    50
390
0
  6
CONTINUOUS
 62
     7
100
AcDbCircle
 10
144.873364
 20
209.504886
 30
0.0
 40
0.157468
100
AcDbArc
 50
293.104376
 51
0.079771
  0
ARC
  5
15FB
100
AcDbEntity
  8
10000_FRONT
370
    50
390
0
  6
CONTINUOUS
 62
     7
100
AcDbCircle
 10
144.849711
 20
209.502792
 30
0.0
 40
0.181136
100
AcDbArc
 50
0.731897
 51
61.854071
  0
ARC
  5
15FC
100
AcDbEntity
  8
10000_FRONT
370
    50
390
0
  6
CONTINUOUS
 62
     7
100
AcDbCircle
 10
140.645545
 20
200.805315
 30
0.0
 40
9.841273
100
AcDbArc
 50
64.158713
 51
67.400277
  0
ARC
  5
15FD
100
AcDbEntity
  8
10000_FRONT
370
    50
390
0
  6
CONTINUOUS
 62
     7
100
AcDbCircle
 10
144.743407
 20
210.69532
 30
0.0
 40
0.864246
100
AcDbArc
 50
212.423422
 51
248.556784
  0
ARC
  5
15FE
100
AcDbEntity
  8
10000_FRONT
370
    50
390
0
  6
CONTINUOUS
 62
     7
100
AcDbCircle
 10
144.529023
 20
210.504894
 30
0.0
 40
0.582983
100
AcDbArc
 50
153.406653
 51
207.918136
  0
ARC
  5
15FF
100
AcDbEntity
  8
10000_FRONT
370
    50
390
0
  6
CONTINUOUS
 62
     7
100
AcDbCircle
 10
144.618163
 20
210.411879
 30
0.0
 40
0.70566
100
AcDbArc
 50
101.936989
 51
149.891143
  0
ARC
  5
1600
100
AcDbEntity
  8
10000_FRONT
370
    50
390
0
  6
CONTINUOUS
 62
     7
100
AcDbCircle
 10
144.918016
 20
209.078607
 30
0.0
 40
2.072196
100
AcDbArc
 50
74.886927
 51
102.423628
  0
LINE
  5
1601
100
AcDbEntity
  8
10000_FRONT
370
    50
390
0
  6
CONTINUOUS
 62
     7
100
AcDbLine
 10
145.458289
 20
211.079132
 30
0.0
 11
145.458289
 21
210.670194
 31
0.0
  0
ARC
  5
1602
100
AcDbEntity
  8
10000_FRONT
370
    50
390
0
  6
CONTINUOUS
 62
     7
100
AcDbCircle
 10
144.908473
 20
209.100623
 30
0.0
 40
1.663085
100
AcDbArc
 50
70.694826
 51
95.842708
  0
ARC
  5
1603
100
AcDbEntity
  8
10000_FRONT
370
    50
390
0
  6
CONTINUOUS
 62
     7
100
AcDbCircle
 10
144.761406
 20
210.505345
 30
0.0
 40
0.25071
100
AcDbArc
 50
95.087273
 51
138.88842
  0
ARC
  5
1604
100
AcDbEntity
  8
10000_FRONT
370
    50
390
0
  6
CONTINUOUS
 62
     7
100
AcDbCircle
 10
144.675525
 20
210.597692
 30
0.0
 40
0.125968
100
AcDbArc
 50
144.861139
 51
206.967744
  0
ARC
  5
1605
100
AcDbEntity
  8
10000_FRONT
370
    50
390
0
  6
CONTINUOUS
 62
     7
100
AcDbCircle
 10
144.977917
 20
210.927567
 30
0.0
 40
0.567198
100
AcDbArc
 50
223.023682
 51
247.996448
  0
LINE
  5
1606
100
AcDbEntity
  8
10000_FRONT
370
    50
390
0
  6
CONTINUOUS
 62
     7
100
AcDbLine
 10
144.765409
 20
210.401684
 30
0.0
 11
145.148113
 21
210.228849
 31
0.0
  0
ARC
  5
1607
100
AcDbEntity
  8
10000_FRONT
370
    50
390
0
  6
CONTINUOUS
 62
     7
100
AcDbCircle
 10
144.798577
 20
209.401504
 30
0.0
 40
0.898151
100
AcDbArc
 50
32.199
 51
67.096946
  0
ARC
  5
1608
100
AcDbEntity
  8
10000_FRONT
370
    50
390
0
  6
CONTINUOUS
 62
     7
100
AcDbCircle
 10
145.005733
 20
209.597699
 30
0.0
 40
0.620808
100
AcDbArc
 50
333.897447
 51
27.057476
  0
ARC
  5
1609
100
AcDbEntity
  8
10000_FRONT
370
    50
390
0
  6
CONTINUOUS
 62
     7
100
AcDbCircle
 10
144.900498
 20
209.702625
 30
0.0
 40
0.762982
100
AcDbArc
 50
283.385296
 51
330.29628
  0
ARC
  5
160A
100
AcDbEntity
  8
10000_FRONT
370
    50
390
0
  6
CONTINUOUS
 62
     7
100
AcDbCircle
 10
144.664305
 20
211.645451
 30
0.0
 40
2.716631
100
AcDbArc
 50
255.845787
 51
278.740593
  0
LINE
  5
160B
100
AcDbEntity
  8
10000_FRONT
370
    50
390
0
  6
CONTINUOUS
 62
     7
100
AcDbLine
 10
145.94
 20
208.965
 30
0.0
 11
145.94
 21
211.094564
 31
0.0
  0
LINE
  5
160C
100
AcDbEntity
  8
10000_FRONT
370
    50
390
0
  6
CONTINUOUS
 62
     7
100
AcDbLine
 10
145.94
 20
211.094564
 30
0.0
 11
146.561894
 21
211.094564
 31
0.0
  0
LINE
  5
160D
100
AcDbEntity
  8
10000_FRONT
370
    50
390
0
  6
CONTINUOUS
 62
     7
100
AcDbLine
 10
146.561894
 20
211.094564
 30
0.0
 11
146.561894
 21
208.965
 31
0.0
  0
LINE
  5
160E
100
AcDbEntity
  8
10000_FRONT
370
    50
390
0
  6
CONTINUOUS
 62
     7
100
AcDbLine
 10
146.561894
 20
208.965
 30
0.0
 11
145.94
 21
208.965
 31
0.0
  0
LINE
  5
160F
100
AcDbEntity
  8
10000_FRONT
370
    50
390
0
  6
CONTINUOUS
 62
     7
100
AcDbLine
 10
149.02
 20
208.965
 30
0.0
 11
149.02
 21
211.094564
 31
0.0
  0
LINE
  5
1610
100
AcDbEntity
  8
10000_FRONT
370
    50
390
0
  6
CONTINUOUS
 62
     7
100
AcDbLine
 10
149.02
 20
211.094564
 30
0.0
 11
149.790038
 21
211.094564
 31
0.0
  0
LINE
  5
1611
100
AcDbEntity
  8
10000_FRONT
370
    50
390
0
  6
CONTINUOUS
 62
     7
100
AcDbLine
 10
149.790038
 20
211.094564
 30
0.0
 11
150.336318
 21
209.796764
 31
0.0
  0
LINE
  5
1612
100
AcDbEntity
  8
10000_FRONT
370
    50
390
0
  6
CONTINUOUS
 62
     7
100
AcDbLine
 10
150.336318
 20
209.796764
 30
0.0
 11
150.887227
 21
211.094564
 31
0.0
  0
LINE
  5
1613
100
AcDbEntity
  8
10000_FRONT
370
    50
390
0
  6
CONTINUOUS
 62
     7
100
AcDbLine
 10
150.887227
 20
211.094564
 30
0.0
 11
151.651092
 21
211.094564
 31
0.0
  0
LINE
  5
1614
100
AcDbEntity
  8
10000_FRONT
370
    50
390
0
  6
CONTINUOUS
 62
     7
100
AcDbLine
 10
151.651092
 20
211.094564
 30
0.0
 11
151.651092
 21
208.965
 31
0.0
  0
LINE
  5
1615
100
AcDbEntity
  8
10000_FRONT
370
    50
390
0
  6
CONTINUOUS
 62
     7
100
AcDbLine
 10
151.651092
 20
208.965
 30
0.0
 11
151.032284
 21
208.965
 31
0.0
  0
LINE
  5
1616
100
AcDbEntity
  8
10000_FRONT
370
    50
390
0
  6
CONTINUOUS
 62
     7
100
AcDbLine
 10
151.032284
 20
208.965
 30
0.0
 11
151.032284
 21
210.372364
 31
0.0
  0
LINE
  5
1617
100
AcDbEntity
  8
10000_FRONT
370
    50
390
0
  6
CONTINUOUS
 62
     7
100
AcDbLine
 10
151.032284
 20
210.372364
 30
0.0
 11
150.433537
 21
208.965
 31
0.0
  0
LINE
  5
1618
100
AcDbEntity
  8
10000_FRONT
370
    50
390
0
  6
CONTINUOUS
 62
     7
100
AcDbLine
 10
150.433537
 20
208.965
 30
0.0
 11
150.029228
 21
208.965
 31
0.0
  0
LINE
  5
1619
100
AcDbEntity
  8
10000_FRONT
370
    50
390
0
  6
CONTINUOUS
 62
     7
100
AcDbLine
 10
150.029228
 20
208.965
 30
0.0
 11
149.435111
 21
210.367735
 31
0.0
  0
LINE
  5
161A
100
AcDbEntity
  8
10000_FRONT
370
    50
390
0
  6
CONTINUOUS
 62
     7
100
AcDbLine
 10
149.435111
 20
210.367735
 30
0.0
 11
149.435111
 21
208.965
 31
0.0
  0
LINE
  5
161B
100
AcDbEntity
  8
10000_FRONT
370
    50
390
0
  6
CONTINUOUS
 62
     7
100
AcDbLine
 10
149.435111
 20
208.965
 30
0.0
 11
149.02
 21
208.965
 31
0.0
  0
LINE
  5
161C
100
AcDbEntity
  8
10000_FRONT
370
    50
390
0
  6
CONTINUOUS
 62
     7
100
AcDbLine
 10
154.084
 20
208.965
 30
0.0
 11
154.084
 21
211.094564
 31
0.0
  0
LINE
  5
161D
100
AcDbEntity
  8
10000_FRONT
370
    50
390
0
  6
CONTINUOUS
 62
     7
100
AcDbLine
 10
154.084
 20
211.094564
 30
0.0
 11
154.775337
 21
211.094564
 31
0.0
  0
LINE
  5
161E
100
AcDbEntity
  8
10000_FRONT
370
    50
390
0
  6
CONTINUOUS
 62
     7
100
AcDbLine
 10
154.775337
 20
211.094564
 30
0.0
 11
155.540745
 21
209.76127
 31
0.0
  0
LINE
  5
161F
100
AcDbEntity
  8
10000_FRONT
370
    50
390
0
  6
CONTINUOUS
 62
     7
100
AcDbLine
 10
155.540745
 20
209.76127
 30
0.0
 11
155.540745
 21
211.094564
 31
0.0
  0
LINE
  5
1620
100
AcDbEntity
  8
10000_FRONT
370
    50
390
0
  6
CONTINUOUS
 62
     7
100
AcDbLine
 10
155.540745
 20
211.094564
 30
0.0
 11
155.951227
 21
211.094564
 31
0.0
  0
LINE
  5
1621
100
AcDbEntity
  8
10000_FRONT
370
    50
390
0
  6
CONTINUOUS
 62
     7
100
AcDbLine
 10
155.951227
 20
211.094564
 30
0.0
 11
155.951227
 21
208.965
 31
0.0
  0
LINE
  5
1622
100
AcDbEntity
  8
10000_FRONT
370
    50
390
0
  6
CONTINUOUS
 62
     7
100
AcDbLine
 10
155.951227
 20
208.965
 30
0.0
 11
155.281494
 21
208.965
 31
0.0
  0
LINE
  5
1623
100
AcDbEntity
  8
10000_FRONT
370
    50
390
0
  6
CONTINUOUS
 62
     7
100
AcDbLine
 10
155.281494
 20
208.965
 30
0.0
 11
154.517629
 21
210.315265
 31
0.0
  0
LINE
  5
1624
100
AcDbEntity
  8
10000_FRONT
370
    50
390
0
  6
CONTINUOUS
 62
     7
100
AcDbLine
 10
154.517629
 20
210.315265
 30
0.0
 11
154.517629
 21
208.965
 31
0.0
  0
LINE
  5
1625
100
AcDbEntity
  8
10000_FRONT
370
    50
390
0
  6
CONTINUOUS
 62
     7
100
AcDbLine
 10
154.517629
 20
208.965
 30
0.0
 11
154.084
 21
208.965
 31
0.0
  0
LINE
  5
1626
100
AcDbEntity
  8
10000_FRONT
370
    50
390
0
  6
CONTINUOUS
 62
     7
100
AcDbLine
 10
133.99
 20
222.014999
 30
0.0
 11
133.99
 21
222.064999
 31
0.0
  0
LINE
  5
1627
100
AcDbEntity
  8
10000_FRONT
370
    50
390
0
  6
CONTINUOUS
 62
     7
100
AcDbLine
 10
135.31
 20
222.014999
 30
0.0
 11
135.31
 21
222.064999
 31
0.0
  0
LINE
  5
1628
100
AcDbEntity
  8
10000_FRONT
370
    50
390
0
  6
CONTINUOUS
 62
     7
100
AcDbLine
 10
144.99
 20
222.014999
 30
0.0
 11
144.99
 21
222.064999
 31
0.0
  0
LINE
  5
1629
100
AcDbEntity
  8
10000_FRONT
370
    50
390
0
  6
CONTINUOUS
 62
     7
100
AcDbLine
 10
146.31
 20
222.014999
 30
0.0
 11
146.31
 21
222.064999
 31
0.0
  0
LINE
  5
162A
100
AcDbEntity
  8
10000_FRONT
370
    50
390
0
  6
CONTINUOUS
 62
     7
100
AcDbLine
 10
135.31
 20
229.064999
 30
0.0
 11
135.31
 21
229.114999
 31
0.0
  0
LINE
  5
162B
100
AcDbEntity
  8
10000_FRONT
370
    50
390
0
  6
CONTINUOUS
 62
     7
100
AcDbLine
 10
133.99
 20
229.064999
 30
0.0
 11
133.99
 21
229.114999
 31
0.0
  0
LINE
  5
162C
100
AcDbEntity
  8
10000_FRONT
370
    50
390
0
  6
CONTINUOUS
 62
     7
100
AcDbLine
 10
146.31
 20
229.064999
 30
0.0
 11
146.31
 21
229.114999
 31
0.0
  0
LINE
  5
162D
100
AcDbEntity
  8
10000_FRONT
370
    50
390
0
  6
CONTINUOUS
 62
     7
100
AcDbLine
 10
144.99
 20
229.064999
 30
0.0
 11
144.99
 21
229.114999
 31
0.0
  0
LINE
  5
162E
100
AcDbEntity
  8
10000_FRONT
370
    50
390
0
  6
CONTINUOUS
 62
     7
100
AcDbLine
 10
130.15
 20
229.064999
 30
0.0
 11
150.15
 21
229.064999
 31
0.0
  0
LINE
  5
162F
100
AcDbEntity
  8
10000_FRONT
370
    50
390
0
  6
CONTINUOUS
 62
     7
100
AcDbLine
 10
130.15
 20
222.064999
 30
0.0
 11
130.15
 21
229.064999
 31
0.0
  0
LINE
  5
1630
100
AcDbEntity
  8
10000_FRONT
370
    50
390
0
  6
CONTINUOUS
 62
     7
100
AcDbLine
 10
150.15
 20
222.064999
 30
0.0
 11
130.15
 21
222.064999
 31
0.0
  0
LINE
  5
1631
100
AcDbEntity
  8
10000_FRONT
370
    50
390
0
  6
CONTINUOUS
 62
     7
100
AcDbLine
 10
150.15
 20
229.064999
 30
0.0
 11
150.15
 21
222.064999
 31
0.0
  0
LINE
  5
1632
100
AcDbEntity
  8
10000_FRONT
370
    50
390
0
  6
CONTINUOUS
 62
     7
100
AcDbLine
 10
150.15
 20
228.014999
 30
0.0
 11
150.25
 21
228.014999
 31
0.0
  0
LINE
  5
1633
100
AcDbEntity
  8
10000_FRONT
370
    50
390
0
  6
CONTINUOUS
 62
     7
100
AcDbLine
 10
150.052
 20
222.014999
 30
0.0
 11
150.052
 21
222.064999
 31
0.0
  0
LINE
  5
1634
100
AcDbEntity
  8
10000_FRONT
370
    50
390
0
  6
CONTINUOUS
 62
     7
100
AcDbLine
 10
150.264
 20
222.014999
 30
0.0
 11
150.264
 21
228.014999
 31
0.0
  0
LINE
  5
1635
100
AcDbEntity
  8
10000_FRONT
370
    50
390
0
  6
CONTINUOUS
 62
     7
100
AcDbLine
 10
159.4
 20
224.205499
 30
0.0
 11
160.6
 21
223.364999
 31
0.0
  0
LINE
  5
1636
100
AcDbEntity
  8
10000_FRONT
370
    50
390
0
  6
CONTINUOUS
 62
     7
100
AcDbLine
 10
160.6
 20
223.364999
 30
0.0
 11
159.4
 21
222.524499
 31
0.0
  0
LINE
  5
1637
100
AcDbEntity
  8
10000_FRONT
370
    50
390
0
  6
CONTINUOUS
 62
     7
100
AcDbLine
 10
159.4
 20
222.524499
 30
0.0
 11
159.4
 21
224.205499
 31
0.0
  0
LINE
  5
1638
100
AcDbEntity
  8
10000_FRONT
370
    50
390
0
  6
CONTINUOUS
 62
     7
100
AcDbLine
 10
157.4
 20
224.164999
 30
0.0
 11
157.4
 21
225.864999
 31
0.0
  0
ARC
  5
1639
100
AcDbEntity
  8
10000_FRONT
370
    50
390
0
  6
CONTINUOUS
 62
     7
100
AcDbCircle
 10
157.1
 20
224.164999
 30
0.0
 40
0.3
100
AcDbArc
 50
269.999982
 51
0.0
  0
LINE
  5
163A
100
AcDbEntity
  8
10000_FRONT
370
    50
390
0
  6
CONTINUOUS
 62
     7
100
AcDbLine
 10
156.4
 20
223.864999
 30
0.0
 11
157.1
 21
223.864999
 31
0.0
  0
LINE
  5
163B
100
AcDbEntity
  8
10000_FRONT
370
    50
390
0
  6
CONTINUOUS
 62
     7
100
AcDbLine
 10
156.4
 20
222.864999
 30
0.0
 11
156.4
 21
223.864999
 31
0.0
  0
LINE
  5
163C
100
AcDbEntity
  8
10000_FRONT
370
    50
390
0
  6
CONTINUOUS
 62
     7
100
AcDbLine
 10
157.1
 20
222.864999
 30
0.0
 11
156.4
 21
222.864999
 31
0.0
  0
ARC
  5
163D
100
AcDbEntity
  8
10000_FRONT
370
    50
390
0
  6
CONTINUOUS
 62
     7
100
AcDbCircle
 10
157.1
 20
222.564999
 30
0.0
 40
0.3
100
AcDbArc
 50
0.0
 51
90.000018
  0
LINE
  5
163E
100
AcDbEntity
  8
10000_FRONT
370
    50
390
0
  6
CONTINUOUS
 62
     7
100
AcDbLine
 10
157.4
 20
220.864999
 30
0.0
 11
157.4
 21
222.564999
 31
0.0
  0
LINE
  5
163F
100
AcDbEntity
  8
10000_FRONT
370
    50
390
0
  6
CONTINUOUS
 62
     7
100
AcDbLine
 10
158.4
 20
220.864999
 30
0.0
 11
157.4
 21
220.864999
 31
0.0
  0
LINE
  5
1640
100
AcDbEntity
  8
10000_FRONT
370
    50
390
0
  6
CONTINUOUS
 62
     7
100
AcDbLine
 10
158.4
 20
222.564999
 30
0.0
 11
158.4
 21
220.864999
 31
0.0
  0
ARC
  5
1641
100
AcDbEntity
  8
10000_FRONT
370
    50
390
0
  6
CONTINUOUS
 62
     7
100
AcDbCircle
 10
158.7
 20
222.564999
 30
0.0
 40
0.3
100
AcDbArc
 50
90.000036
 51
180.0
  0
LINE
  5
1642
100
AcDbEntity
  8
10000_FRONT
370
    50
390
0
  6
CONTINUOUS
 62
     7
100
AcDbLine
 10
159.4
 20
222.864999
 30
0.0
 11
158.7
 21
222.864999
 31
0.0
  0
LINE
  5
1643
100
AcDbEntity
  8
10000_FRONT
370
    50
390
0
  6
CONTINUOUS
 62
     7
100
AcDbLine
 10
158.7
 20
223.864999
 30
0.0
 11
159.4
 21
223.864999
 31
0.0
  0
ARC
  5
1644
100
AcDbEntity
  8
10000_FRONT
370
    50
390
0
  6
CONTINUOUS
 62
     7
100
AcDbCircle
 10
158.7
 20
224.164999
 30
0.0
 40
0.3
100
AcDbArc
 50
180.0
 51
269.999964
  0
LINE
  5
1645
100
AcDbEntity
  8
10000_FRONT
370
    50
390
0
  6
CONTINUOUS
 62
     7
100
AcDbLine
 10
158.4
 20
225.864999
 30
0.0
 11
158.4
 21
224.164999
 31
0.0
  0
LINE
  5
1646
100
AcDbEntity
  8
10000_FRONT
370
    50
390
0
  6
CONTINUOUS
 62
     7
100
AcDbLine
 10
157.4
 20
225.864999
 30
0.0
 11
158.4
 21
225.864999
 31
0.0
  0
ARC
  5
1647
100
AcDbEntity
  8
10000_FRONT
370
    50
390
0
  6
CONTINUOUS
 62
     7
100
AcDbCircle
 10
157.9
 20
223.364999
 30
0.0
 40
3.0
100
AcDbArc
 50
0.0
 51
180.0
  0
ARC
  5
1648
100
AcDbEntity
  8
10000_FRONT
370
    50
390
0
  6
CONTINUOUS
 62
     7
100
AcDbCircle
 10
157.9
 20
223.364999
 30
0.0
 40
2.7
100
AcDbArc
 50
0.0
 51
180.0
  0
LINE
  5
1649
100
AcDbEntity
  8
10000_FRONT
370
    50
390
0
  6
CONTINUOUS
 62
     7
100
AcDbLine
 10
168.9
 20
221.505499
 30
0.0
 11
170.1
 21
220.664999
 31
0.0
  0
LINE
  5
164A
100
AcDbEntity
  8
10000_FRONT
370
    50
390
0
  6
CONTINUOUS
 62
     7
100
AcDbLine
 10
170.1
 20
220.664999
 30
0.0
 11
168.9
 21
219.824499
 31
0.0
  0
LINE
  5
164B
100
AcDbEntity
  8
10000_FRONT
370
    50
390
0
  6
CONTINUOUS
 62
     7
100
AcDbLine
 10
168.9
 20
219.824499
 30
0.0
 11
168.9
 21
221.505499
 31
0.0
  0
LINE
  5
164C
100
AcDbEntity
  8
10000_FRONT
370
    50
390
0
  6
CONTINUOUS
 62
     7
100
AcDbLine
 10
166.9
 20
221.464999
 30
0.0
 11
166.9
 21
223.164999
 31
0.0
  0
ARC
  5
164D
100
AcDbEntity
  8
10000_FRONT
370
    50
390
0
  6
CONTINUOUS
 62
     7
100
AcDbCircle
 10
166.6
 20
221.464999
 30
0.0
 40
0.3
100
AcDbArc
 50
270.000073
 51
0.0
  0
LINE
  5
164E
100
AcDbEntity
  8
10000_FRONT
370
    50
390
0
  6
CONTINUOUS
 62
     7
100
AcDbLine
 10
165.9
 20
221.164999
 30
0.0
 11
166.6
 21
221.164999
 31
0.0
  0
LINE
  5
164F
100
AcDbEntity
  8
10000_FRONT
370
    50
390
0
  6
CONTINUOUS
 62
     7
100
AcDbLine
 10
165.9
 20
220.164999
 30
0.0
 11
165.9
 21
221.164999
 31
0.0
  0
LINE
  5
1650
100
AcDbEntity
  8
10000_FRONT
370
    50
390
0
  6
CONTINUOUS
 62
     7
100
AcDbLine
 10
166.6
 20
220.164999
 30
0.0
 11
165.9
 21
220.164999
 31
0.0
  0
ARC
  5
1651
100
AcDbEntity
  8
10000_FRONT
370
    50
390
0
  6
CONTINUOUS
 62
     7
100
AcDbCircle
 10
166.6
 20
219.864999
 30
0.0
 40
0.3
100
AcDbArc
 50
359.99992
 51
89.999927
  0
LINE
  5
1652
100
AcDbEntity
  8
10000_FRONT
370
    50
390
0
  6
CONTINUOUS
 62
     7
100
AcDbLine
 10
166.9
 20
218.164999
 30
0.0
 11
166.9
 21
219.864999
 31
0.0
  0
LINE
  5
1653
100
AcDbEntity
  8
10000_FRONT
370
    50
390
0
  6
CONTINUOUS
 62
     7
100
AcDbLine
 10
167.9
 20
218.164999
 30
0.0
 11
166.9
 21
218.164999
 31
0.0
  0
LINE
  5
1654
100
AcDbEntity
  8
10000_FRONT
370
    50
390
0
  6
CONTINUOUS
 62
     7
100
AcDbLine
 10
167.9
 20
219.864999
 30
0.0
 11
167.9
 21
218.164999
 31
0.0
  0
ARC
  5
1655
100
AcDbEntity
  8
10000_FRONT
370
    50
390
0
  6
CONTINUOUS
 62
     7
100
AcDbCircle
 10
168.2
 20
219.864999
 30
0.0
 40
0.3
100
AcDbArc
 50
89.999854
 51
180.00008
  0
LINE
  5
1656
100
AcDbEntity
  8
10000_FRONT
370
    50
390
0
  6
CONTINUOUS
 62
     7
100
AcDbLine
 10
168.9
 20
220.164999
 30
0.0
 11
168.200001
 21
220.164999
 31
0.0
  0
LINE
  5
1657
100
AcDbEntity
  8
10000_FRONT
370
    50
390
0
  6
CONTINUOUS
 62
     7
100
AcDbLine
 10
168.200001
 20
221.164999
 30
0.0
 11
168.9
 21
221.164999
 31
0.0
  0
ARC
  5
1658
100
AcDbEntity
  8
10000_FRONT
370
    50
390
0
  6
CONTINUOUS
 62
     7
100
AcDbCircle
 10
168.2
 20
221.464999
 30
0.0
 40
0.3
100
AcDbArc
 50
180.0
 51
270.000146
  0
LINE
  5
1659
100
AcDbEntity
  8
10000_FRONT
370
    50
390
0
  6
CONTINUOUS
 62
     7
100
AcDbLine
 10
167.9
 20
223.164999
 30
0.0
 11
167.9
 21
221.464999
 31
0.0
  0
LINE
  5
165A
100
AcDbEntity
  8
10000_FRONT
370
    50
390
0
  6
CONTINUOUS
 62
     7
100
AcDbLine
 10
166.9
 20
223.164999
 30
0.0
 11
167.9
 21
223.164999
 31
0.0
  0
ARC
  5
165B
100
AcDbEntity
  8
10000_FRONT
370
    50
390
0
  6
CONTINUOUS
 62
     7
100
AcDbCircle
 10
167.4
 20
220.664999
 30
0.0
 40
3.0
100
AcDbArc
 50
0.0
 51
180.0
  0
ARC
  5
165C
100
AcDbEntity
  8
10000_FRONT
370
    50
390
0
  6
CONTINUOUS
 62
     7
100
AcDbCircle
 10
167.4
 20
220.664999
 30
0.0
 40
2.7
100
AcDbArc
 50
0.0
 51
180.0
  0
LINE
  5
165D
100
AcDbEntity
  8
10000_FRONT
370
    50
390
0
  6
CONTINUOUS
 62
     7
100
AcDbLine
 10
143.05
 20
207.865
 30
0.0
 11
143.05
 21
208.465
 31
0.0
  0
LINE
  5
165E
100
AcDbEntity
  8
10000_FRONT
370
    50
390
0
  6
CONTINUOUS
 62
     7
100
AcDbLine
 10
143.05
 20
207.865
 30
0.0
 11
139.45
 21
207.865
 31
0.0
  0
ARC
  5
165F
100
AcDbEntity
  8
10000_FRONT
370
    50
390
0
  6
CONTINUOUS
 62
     7
100
AcDbCircle
 10
129.1
 20
208.464999
 30
0.0
 40
0.6
100
AcDbArc
 50
179.999913
 51
259.524721
  0
ARC
  5
1660
100
AcDbEntity
  8
10000_FRONT
370
    50
390
0
  6
CONTINUOUS
 62
     7
100
AcDbCircle
 10
129.1
 20
230.314999
 30
0.0
 40
0.6
100
AcDbArc
 50
89.999964
 51
175.881624
  0
ARC
  5
1661
100
AcDbEntity
  8
10000_FRONT
370
    50
390
0
  6
CONTINUOUS
 62
     7
100
AcDbCircle
 10
172.9
 20
230.314999
 30
0.0
 40
0.6
100
AcDbArc
 50
4.118376
 51
90.000036
  0
LINE
  5
1662
100
AcDbEntity
  8
10000_FRONT
370
    50
390
0
  6
CONTINUOUS
 62
     7
100
AcDbLine
 10
151.027
 20
222.014999
 30
0.0
 11
151.027
 21
228.014999
 31
0.0
  0
LINE
  5
1663
100
AcDbEntity
  8
10000_FRONT
370
    50
390
0
  6
CONTINUOUS
 62
     7
100
AcDbLine
 10
150.049
 20
222.014999
 30
0.0
 11
150.049
 21
222.064999
 31
0.0
  0
LINE
  5
1664
100
AcDbEntity
  8
10000_FRONT
370
    50
390
0
  6
CONTINUOUS
 62
     7
100
AcDbLine
 10
150.767
 20
222.014999
 30
0.0
 11
150.767
 21
228.014999
 31
0.0
  0
LINE
  5
1665
100
AcDbEntity
  8
10000_FRONT
370
    50
390
0
  6
CONTINUOUS
 62
     7
100
AcDbLine
 10
172.9
 20
230.914999
 30
0.0
 11
129.1
 21
230.914999
 31
0.0
  0
LINE
  5
1666
100
AcDbEntity
  8
10000_FRONT
370
    50
390
0
  6
CONTINUOUS
 62
     7
100
AcDbLine
 10
151.575
 20
220.464999
 30
0.0
 11
151.575
 21
218.864999
 31
0.0
  0
ARC
  5
1667
100
AcDbEntity
  8
10000_FRONT
370
    50
390
0
  6
CONTINUOUS
 62
     7
100
AcDbCircle
 10
151.375
 20
218.864999
 30
0.0
 40
0.2
100
AcDbArc
 50
270.0
 51
359.99988
  0
LINE
  5
1668
100
AcDbEntity
  8
10000_FRONT
370
    50
390
0
  6
CONTINUOUS
 62
     7
100
AcDbLine
 10
151.375
 20
218.664999
 30
0.0
 11
148.125
 21
218.664999
 31
0.0
  0
ARC
  5
1669
100
AcDbEntity
  8
10000_FRONT
370
    50
390
0
  6
CONTINUOUS
 62
     7
100
AcDbCircle
 10
148.125
 20
218.864999
 30
0.0
 40
0.2
100
AcDbArc
 50
180.00012
 51
270.0
  0
LINE
  5
166A
100
AcDbEntity
  8
10000_FRONT
370
    50
390
0
  6
CONTINUOUS
 62
     7
100
AcDbLine
 10
147.925
 20
218.864999
 30
0.0
 11
147.925
 21
220.464999
 31
0.0
  0
ARC
  5
166B
100
AcDbEntity
  8
10000_FRONT
370
    50
390
0
  6
CONTINUOUS
 62
     7
100
AcDbCircle
 10
148.125
 20
220.464999
 30
0.0
 40
0.2
100
AcDbArc
 50
90.0
 51
180.0
  0
LINE
  5
166C
100
AcDbEntity
  8
10000_FRONT
370
    50
390
0
  6
CONTINUOUS
 62
     7
100
AcDbLine
 10
148.125
 20
220.664999
 30
0.0
 11
151.375
 21
220.664999
 31
0.0
  0
ARC
  5
166D
100
AcDbEntity
  8
10000_FRONT
370
    50
390
0
  6
CONTINUOUS
 62
     7
100
AcDbCircle
 10
151.375
 20
220.464999
 30
0.0
 40
0.2
100
AcDbArc
 50
0.0
 51
90.0
  0
ARC
  5
166E
100
AcDbEntity
  8
10000_FRONT
370
    50
390
0
  6
CONTINUOUS
 62
     7
100
AcDbCircle
 10
129.11
 20
230.324999
 30
0.0
 40
0.6
100
AcDbArc
 50
89.999942
 51
135.675269
  0
ARC
  5
166F
100
AcDbEntity
  8
10000_FRONT
370
    50
390
0
  6
CONTINUOUS
 62
     7
100
AcDbCircle
 10
172.89
 20
230.324999
 30
0.0
 40
0.6
100
AcDbArc
 50
44.338786
 51
90.000058
  0
LINE
  5
1670
100
AcDbEntity
  8
10000_FRONT
370
    50
390
0
  6
CONTINUOUS
 62
     7
100
AcDbLine
 10
172.889999
 20
230.924999
 30
0.0
 11
129.110001
 21
230.924999
 31
0.0
  0
LINE
  5
1671
100
AcDbEntity
  8
10000_FRONT
370
    50
390
0
  6
CONTINUOUS
 62
     7
100
AcDbLine
 10
173.49
 20
207.875
 30
0.0
 11
173.49
 21
208.355911
 31
0.0
  0
LINE
  5
1672
100
AcDbEntity
  8
10000_FRONT
370
    50
390
0
  6
CONTINUOUS
 62
     7
100
AcDbLine
 10
128.51
 20
208.355911
 30
0.0
 11
128.51
 21
207.875
 31
0.0
  0
ARC
  5
1673
100
AcDbEntity
  8
10000_FRONT
370
    50
390
0
  6
CONTINUOUS
 62
     7
100
AcDbCircle
 10
135.31
 20
222.155005
 30
0.0
 40
0.34
100
AcDbArc
 50
335.683181
 51
344.649447
  0
ARC
  5
1674
100
AcDbEntity
  8
10000_FRONT
370
    50
390
0
  6
CONTINUOUS
 62
     7
100
AcDbCircle
 10
146.31
 20
222.155005
 30
0.0
 40
0.34
100
AcDbArc
 50
335.683181
 51
344.649468
  0
ARC
  5
1675
100
AcDbEntity
  8
10000_FRONT
370
    50
390
0
  6
CONTINUOUS
 62
     7
100
AcDbCircle
 10
133.99
 20
228.974993
 30
0.0
 40
0.34
100
AcDbArc
 50
155.683144
 51
164.649463
  0
ARC
  5
1676
100
AcDbEntity
  8
10000_FRONT
370
    50
390
0
  6
CONTINUOUS
 62
     7
100
AcDbCircle
 10
144.99
 20
228.974993
 30
0.0
 40
0.34
100
AcDbArc
 50
155.683178
 51
164.649484
  0
ARC
  5
1677
100
AcDbEntity
  8
10000_FRONT
370
    50
390
0
  6
CONTINUOUS
 62
     7
100
AcDbCircle
 10
133.99
 20
222.155005
 30
0.0
 40
0.34
100
AcDbArc
 50
195.350561
 51
204.316832
  0
ARC
  5
1678
100
AcDbEntity
  8
10000_FRONT
370
    50
390
0
  6
CONTINUOUS
 62
     7
100
AcDbCircle
 10
144.99
 20
222.155005
 30
0.0
 40
0.34
100
AcDbArc
 50
195.35054
 51
204.316799
  0
ARC
  5
1679
100
AcDbEntity
  8
10000_FRONT
370
    50
390
0
  6
CONTINUOUS
 62
     7
100
AcDbCircle
 10
135.31
 20
228.974993
 30
0.0
 40
0.34
100
AcDbArc
 50
15.350529
 51
24.316842
  0
ARC
  5
167A
100
AcDbEntity
  8
10000_FRONT
370
    50
390
0
  6
CONTINUOUS
 62
     7
100
AcDbCircle
 10
146.31
 20
228.974993
 30
0.0
 40
0.34
100
AcDbArc
 50
15.350508
 51
24.316842
  0
LINE
  5
167B
100
AcDbEntity
  8
90000_FRAME
370
    13
  6
CONTINUOUS
 62
     7
100
AcDbLine
 10
50.704072
 20
59.496858
 30
0.0
 11
50.704072
 21
329.496858
 31
0.0
  0
LINE
  5
167C
100
AcDbEntity
  8
90000_FRAME
370
    13
  6
CONTINUOUS
 62
     7
100
AcDbLine
 10
250.704072
 20
329.496858
 30
0.0
 11
50.704072
 21
329.496858
 31
0.0
  0
LINE
  5
167D
100
AcDbEntity
  8
91000_TIP
370
    13
  6
CONTINUOUS
 62
     7
100
AcDbLine
 10
82.083533
 20
75.706949
 30
0.0
 11
92.083533
 21
78.206949
 31
0.0
  0
LINE
  5
167E
100
AcDbEntity
  8
91000_TIP
370
    13
  6
CONTINUOUS
 62
     7
100
AcDbLine
 10
80.804022
 20
73.206949
 30
0.0
 11
104.406012
 21
73.206949
 31
0.0
  0
LINE
  5
167F
100
AcDbEntity
  8
91000_TIP
370
    13
  6
CONTINUOUS
 62
     7
100
AcDbLine
 10
82.083533
 20
70.706949
 30
0.0
 11
92.083533
 21
68.206949
 31
0.0
  0
LINE
  5
1680
100
AcDbEntity
  8
91000_TIP
370
    13
  6
CONTINUOUS
 62
     7
100
AcDbLine
 10
82.083533
 20
75.706949
 30
0.0
 11
82.083533
 21
70.706949
 31
0.0
  0
LINE
  5
1681
100
AcDbEntity
  8
91000_TIP
370
    13
  6
CONTINUOUS
 62
     7
100
AcDbLine
 10
92.083533
 20
78.206949
 30
0.0
 11
92.083533
 21
68.206949
 31
0.0
  0
LINE
  5
1682
100
AcDbEntity
  8
91000_TIP
370
    13
  6
CONTINUOUS
 62
     7
100
AcDbLine
 10
98.583532
 20
67.485468
 30
0.0
 11
98.583532
 21
78.768854
 31
0.0
  0
CIRCLE
  5
1683
100
AcDbEntity
  8
91000_TIP
370
    13
  6
CONTINUOUS
 62
     7
100
AcDbCircle
 10
98.583532
 20
73.206949
 30
0.0
 40
5.0
  0
CIRCLE
  5
1684
100
AcDbEntity
  8
91000_TIP
370
    13
  6
CONTINUOUS
 62
     7
100
AcDbCircle
 10
98.583532
 20
73.206949
 30
0.0
 40
2.5
  0
TEXT
  5
1685
100
AcDbEntity
  8
90000_FRAME
370
    13
  6
CONTINUOUS
 62
     7
100
AcDbText
 10
111.263613
 20
84.274562
 30
0.0
 40
2.2
  1
All dimensions are in millimeters (mm)
 41
0.961374
100
AcDbText
  0
TEXT
  5
1686
100
AcDbEntity
  8
90000_FRAME
370
    13
  6
CONTINUOUS
 62
     7
100
AcDbText
 10
111.263613
 20
87.403585
 30
0.0
 40
2.2
  1
Alle Bemassungswerte sind in Millimeter (mm) angegeben.
 41
0.825144
100
AcDbText
  0
LINE
  5
1687
100
AcDbEntity
  8
90000_FRAME
370
    13
  6
CONTINUOUS
 62
     7
100
AcDbLine
 10
250.704072
 20
59.496858
 30
0.0
 11
250.704072
 21
329.496858
 31
0.0
  0
LINE
  5
1688
100
AcDbEntity
  8
90000_FRAME
370
    13
  6
CONTINUOUS
 62
     7
100
AcDbLine
 10
250.704072
 20
59.496858
 30
0.0
 11
50.704072
 21
59.496858
 31
0.0
  0
TEXT
  5
1689
100
AcDbEntity
  8
90000_FRAME
370
    13
  6
CONTINUOUS
 62
     7
100
AcDbText
 10
162.152155
 20
77.2
 30
0.0
 40
3.0
  1
3RA2812-2D...
 41
0.784213
100
AcDbText
  0
TEXT
  5
168A
100
AcDbEntity
  8
90000_FRAME
370
    13
  6
CONTINUOUS
 62
     7
100
AcDbText
 10
203.864072
 20
66.396858
 30
0.0
 40
2.2
  1
Massstab/Scale:
 41
0.9
100
AcDbText
  0
TEXT
  5
168B
100
AcDbEntity
  8
90000_FRAME
370
    13
  6
CONTINUOUS
 62
     7
100
AcDbText
 10
162.0
 20
66.396858
 30
0.0
 40
2.2
  1
Format/Size: DIN A4
 41
0.803258
100
AcDbText
  0
LINE
  5
168C
100
AcDbEntity
  8
90000_FRAME
370
    13
  6
CONTINUOUS
 62
     7
100
AcDbLine
 10
245.704072
 20
64.496858
 30
0.0
 11
245.704072
 21
82.496858
 31
0.0
  0
LINE
  5
168D
100
AcDbEntity
  8
90000_FRAME
370
    13
  6
CONTINUOUS
 62
     7
100
AcDbLine
 10
203.204072
 20
64.496858
 30
0.0
 11
203.204072
 21
70.496858
 31
0.0
  0
LINE
  5
168E
100
AcDbEntity
  8
90000_FRAME
370
    13
  6
CONTINUOUS
 62
     7
100
AcDbLine
 10
160.704072
 20
64.496858
 30
0.0
 11
160.704072
 21
82.496858
 31
0.0
  0
LINE
  5
168F
100
AcDbEntity
  8
90000_FRAME
370
    13
  6
CONTINUOUS
 62
     7
100
AcDbLine
 10
110.704072
 20
82.496858
 30
0.0
 11
245.704072
 21
82.496858
 31
0.0
  0
LINE
  5
1690
100
AcDbEntity
  8
90000_FRAME
370
    13
  6
CONTINUOUS
 62
     7
100
AcDbLine
 10
160.704072
 20
70.496858
 30
0.0
 11
245.704072
 21
70.496858
 31
0.0
  0
LINE
  5
1691
100
AcDbEntity
  8
90000_FRAME
370
    13
  6
CONTINUOUS
 62
     7
100
AcDbLine
 10
110.704072
 20
64.496858
 30
0.0
 11
110.704072
 21
82.496858
 31
0.0
  0
LINE
  5
1692
100
AcDbEntity
  8
90000_FRAME
370
    13
  6
CONTINUOUS
 62
     7
100
AcDbLine
 10
110.704072
 20
64.496858
 30
0.0
 11
245.704072
 21
64.496858
 31
0.0
  0
LINE
  5
1693
100
AcDbEntity
  8
90000_FRAME
370
    13
  6
CONTINUOUS
 62
     7
100
AcDbLine
 10
124.890272
 20
75.911406
 30
0.0
 11
124.890272
 21
71.158137
 31
0.0
  0
LINE
  5
1694
100
AcDbEntity
  8
90000_FRAME
370
    13
  6
CONTINUOUS
 62
     7
100
AcDbLine
 10
126.316253
 20
75.911406
 30
0.0
 11
126.316253
 21
71.158137
 31
0.0
  0
LINE
  5
1695
100
AcDbEntity
  8
90000_FRAME
370
    13
  6
CONTINUOUS
 62
     7
100
AcDbLine
 10
124.890272
 20
71.158137
 30
0.0
 11
126.316253
 21
71.158137
 31
0.0
  0
LINE
  5
1696
100
AcDbEntity
  8
90000_FRAME
370
    13
  6
CONTINUOUS
 62
     7
100
AcDbLine
 10
124.890272
 20
75.911406
 30
0.0
 11
126.316253
 21
75.911406
 31
0.0
  0
LINE
  5
1697
100
AcDbEntity
  8
90000_FRAME
370
    13
  6
CONTINUOUS
 62
     7
100
AcDbLine
 10
127.409505
 20
75.911406
 30
0.0
 11
127.409505
 21
71.158137
 31
0.0
  0
LINE
  5
1698
100
AcDbEntity
  8
90000_FRAME
370
    13
  6
CONTINUOUS
 62
     7
100
AcDbLine
 10
127.409505
 20
71.158137
 30
0.0
 11
130.974457
 21
71.158137
 31
0.0
  0
LINE
  5
1699
100
AcDbEntity
  8
90000_FRAME
370
    13
  6
CONTINUOUS
 62
     7
100
AcDbLine
 10
130.974457
 20
72.061258
 30
0.0
 11
128.787953
 21
72.061258
 31
0.0
  0
LINE
  5
169A
100
AcDbEntity
  8
90000_FRAME
370
    13
  6
CONTINUOUS
 62
     7
100
AcDbLine
 10
130.974457
 20
72.061258
 30
0.0
 11
130.974457
 21
71.158137
 31
0.0
  0
LINE
  5
169B
100
AcDbEntity
  8
90000_FRAME
370
    13
  6
CONTINUOUS
 62
     7
100
AcDbLine
 10
130.926924
 20
75.911406
 30
0.0
 11
127.409505
 21
75.911406
 31
0.0
  0
LINE
  5
169C
100
AcDbEntity
  8
90000_FRAME
370
    13
  6
CONTINUOUS
 62
     7
100
AcDbLine
 10
130.926924
 20
75.032051
 30
0.0
 11
128.787953
 21
75.032051
 31
0.0
  0
LINE
  5
169D
100
AcDbEntity
  8
90000_FRAME
370
    13
  6
CONTINUOUS
 62
     7
100
AcDbLine
 10
130.926924
 20
75.911406
 30
0.0
 11
130.926924
 21
75.032051
 31
0.0
  0
LINE
  5
169E
100
AcDbEntity
  8
90000_FRAME
370
    13
  6
CONTINUOUS
 62
     7
100
AcDbLine
 10
130.641728
 20
73.178276
 30
0.0
 11
128.787953
 21
73.178276
 31
0.0
  0
LINE
  5
169F
100
AcDbEntity
  8
90000_FRAME
370
    13
  6
CONTINUOUS
 62
     7
100
AcDbLine
 10
130.641728
 20
73.962566
 30
0.0
 11
130.641728
 21
73.178276
 31
0.0
  0
LINE
  5
16A0
100
AcDbEntity
  8
90000_FRAME
370
    13
  6
CONTINUOUS
 62
     7
100
AcDbLine
 10
130.641728
 20
73.962566
 30
0.0
 11
128.787953
 21
73.962566
 31
0.0
  0
LINE
  5
16A1
100
AcDbEntity
  8
90000_FRAME
370
    13
  6
CONTINUOUS
 62
     7
100
AcDbLine
 10
128.787953
 20
75.032051
 30
0.0
 11
128.787953
 21
73.962566
 31
0.0
  0
LINE
  5
16A2
100
AcDbEntity
  8
90000_FRAME
370
    13
  6
CONTINUOUS
 62
     7
100
AcDbLine
 10
128.787953
 20
73.178276
 30
0.0
 11
128.787953
 21
72.061258
 31
0.0
  0
LINE
  5
16A3
100
AcDbEntity
  8
90000_FRAME
370
    13
  6
CONTINUOUS
 62
     7
100
AcDbLine
 10
131.782513
 20
71.158137
 30
0.0
 11
131.782513
 21
75.911406
 31
0.0
  0
LINE
  5
16A4
100
AcDbEntity
  8
90000_FRAME
370
    13
  6
CONTINUOUS
 62
     7
100
AcDbLine
 10
131.782513
 20
71.158137
 30
0.0
 11
132.733166
 21
71.158137
 31
0.0
  0
LINE
  5
16A5
100
AcDbEntity
  8
90000_FRAME
370
    13
  6
CONTINUOUS
 62
     7
100
AcDbLine
 10
137.629034
 20
75.911406
 30
0.0
 11
137.629034
 21
71.158137
 31
0.0
  0
LINE
  5
16A6
100
AcDbEntity
  8
90000_FRAME
370
    13
  6
CONTINUOUS
 62
     7
100
AcDbLine
 10
137.629034
 20
71.158137
 30
0.0
 11
136.250586
 21
71.158137
 31
0.0
  0
LINE
  5
16A7
100
AcDbEntity
  8
90000_FRAME
370
    13
  6
CONTINUOUS
 62
     7
100
AcDbLine
 10
134.064082
 20
71.110604
 30
0.0
 11
134.91967
 21
71.110604
 31
0.0
  0
LINE
  5
16A8
100
AcDbEntity
  8
90000_FRAME
370
    13
  6
CONTINUOUS
 62
     7
100
AcDbLine
 10
134.064082
 20
71.110604
 30
0.0
 11
132.733166
 21
74.200229
 31
0.0
  0
LINE
  5
16A9
100
AcDbEntity
  8
90000_FRAME
370
    13
  6
CONTINUOUS
 62
     7
100
AcDbLine
 10
132.733166
 20
71.158137
 30
0.0
 11
132.733166
 21
74.200229
 31
0.0
  0
LINE
  5
16AA
100
AcDbEntity
  8
90000_FRAME
370
    13
  6
CONTINUOUS
 62
     7
100
AcDbLine
 10
136.250586
 20
74.247762
 30
0.0
 11
134.91967
 21
71.110604
 31
0.0
  0
LINE
  5
16AB
100
AcDbEntity
  8
90000_FRAME
370
    13
  6
CONTINUOUS
 62
     7
100
AcDbLine
 10
133.493689
 20
75.911406
 30
0.0
 11
131.782513
 21
75.911406
 31
0.0
  0
LINE
  5
16AC
100
AcDbEntity
  8
90000_FRAME
370
    13
  6
CONTINUOUS
 62
     7
100
AcDbLine
 10
137.629034
 20
75.911406
 30
0.0
 11
135.917857
 21
75.911406
 31
0.0
  0
LINE
  5
16AD
100
AcDbEntity
  8
90000_FRAME
370
    13
  6
CONTINUOUS
 62
     7
100
AcDbLine
 10
133.493689
 20
75.911406
 30
0.0
 11
134.729539
 21
73.011912
 31
0.0
  0
LINE
  5
16AE
100
AcDbEntity
  8
90000_FRAME
370
    13
  6
CONTINUOUS
 62
     7
100
AcDbLine
 10
135.917857
 20
75.911406
 30
0.0
 11
134.729539
 21
73.011912
 31
0.0
  0
LINE
  5
16AF
100
AcDbEntity
  8
90000_FRAME
370
    13
  6
CONTINUOUS
 62
     7
100
AcDbLine
 10
136.250586
 20
74.247762
 30
0.0
 11
136.250586
 21
71.158137
 31
0.0
  0
LINE
  5
16B0
100
AcDbEntity
  8
90000_FRAME
370
    13
  6
CONTINUOUS
 62
     7
100
AcDbLine
 10
138.722285
 20
75.911406
 30
0.0
 11
138.722285
 21
71.158137
 31
0.0
  0
LINE
  5
16B1
100
AcDbEntity
  8
90000_FRAME
370
    13
  6
CONTINUOUS
 62
     7
100
AcDbLine
 10
138.722285
 20
71.158137
 30
0.0
 11
142.287237
 21
71.158137
 31
0.0
  0
LINE
  5
16B2
100
AcDbEntity
  8
90000_FRAME
370
    13
  6
CONTINUOUS
 62
     7
100
AcDbLine
 10
142.287237
 20
72.061258
 30
0.0
 11
140.100733
 21
72.061258
 31
0.0
  0
LINE
  5
16B3
100
AcDbEntity
  8
90000_FRAME
370
    13
  6
CONTINUOUS
 62
     7
100
AcDbLine
 10
142.287237
 20
72.061258
 30
0.0
 11
142.287237
 21
71.158137
 31
0.0
  0
LINE
  5
16B4
100
AcDbEntity
  8
90000_FRAME
370
    13
  6
CONTINUOUS
 62
     7
100
AcDbLine
 10
142.239705
 20
75.911406
 30
0.0
 11
138.722285
 21
75.911406
 31
0.0
  0
LINE
  5
16B5
100
AcDbEntity
  8
90000_FRAME
370
    13
  6
CONTINUOUS
 62
     7
100
AcDbLine
 10
142.239705
 20
75.032051
 30
0.0
 11
140.100733
 21
75.032051
 31
0.0
  0
LINE
  5
16B6
100
AcDbEntity
  8
90000_FRAME
370
    13
  6
CONTINUOUS
 62
     7
100
AcDbLine
 10
142.239705
 20
75.911406
 30
0.0
 11
142.239705
 21
75.032051
 31
0.0
  0
LINE
  5
16B7
100
AcDbEntity
  8
90000_FRAME
370
    13
  6
CONTINUOUS
 62
     7
100
AcDbLine
 10
141.954508
 20
73.178276
 30
0.0
 11
140.100733
 21
73.178276
 31
0.0
  0
LINE
  5
16B8
100
AcDbEntity
  8
90000_FRAME
370
    13
  6
CONTINUOUS
 62
     7
100
AcDbLine
 10
141.954508
 20
73.962566
 30
0.0
 11
141.954508
 21
73.178276
 31
0.0
  0
LINE
  5
16B9
100
AcDbEntity
  8
90000_FRAME
370
    13
  6
CONTINUOUS
 62
     7
100
AcDbLine
 10
141.954508
 20
73.962566
 30
0.0
 11
140.100733
 21
73.962566
 31
0.0
  0
LINE
  5
16BA
100
AcDbEntity
  8
90000_FRAME
370
    13
  6
CONTINUOUS
 62
     7
100
AcDbLine
 10
140.100733
 20
75.032051
 30
0.0
 11
140.100733
 21
73.962566
 31
0.0
  0
LINE
  5
16BB
100
AcDbEntity
  8
90000_FRAME
370
    13
  6
CONTINUOUS
 62
     7
100
AcDbLine
 10
140.100733
 20
73.178276
 30
0.0
 11
140.100733
 21
72.061258
 31
0.0
  0
LINE
  5
16BC
100
AcDbEntity
  8
90000_FRAME
370
    13
  6
CONTINUOUS
 62
     7
100
AcDbLine
 10
143.071527
 20
71.158137
 30
0.0
 11
143.071527
 21
75.911406
 31
0.0
  0
LINE
  5
16BD
100
AcDbEntity
  8
90000_FRAME
370
    13
  6
CONTINUOUS
 62
     7
100
AcDbLine
 10
147.254403
 20
75.911406
 30
0.0
 11
147.254403
 21
71.158137
 31
0.0
  0
LINE
  5
16BE
100
AcDbEntity
  8
90000_FRAME
370
    13
  6
CONTINUOUS
 62
     7
100
AcDbLine
 10
143.071527
 20
71.158137
 30
0.0
 11
144.02218
 21
71.158137
 31
0.0
  0
LINE
  5
16BF
100
AcDbEntity
  8
90000_FRAME
370
    13
  6
CONTINUOUS
 62
     7
100
AcDbLine
 10
147.254403
 20
75.911406
 30
0.0
 11
146.30375
 21
75.911406
 31
0.0
  0
LINE
  5
16C0
100
AcDbEntity
  8
90000_FRAME
370
    13
  6
CONTINUOUS
 62
     7
100
AcDbLine
 10
144.616339
 20
75.911406
 30
0.0
 11
143.071527
 21
75.911406
 31
0.0
  0
LINE
  5
16C1
100
AcDbEntity
  8
90000_FRAME
370
    13
  6
CONTINUOUS
 62
     7
100
AcDbLine
 10
147.254403
 20
71.158137
 30
0.0
 11
145.733357
 21
71.158137
 31
0.0
  0
LINE
  5
16C2
100
AcDbEntity
  8
90000_FRAME
370
    13
  6
CONTINUOUS
 62
     7
100
AcDbLine
 10
145.733357
 20
71.158137
 30
0.0
 11
144.02218
 21
74.200229
 31
0.0
  0
LINE
  5
16C3
100
AcDbEntity
  8
90000_FRAME
370
    13
  6
CONTINUOUS
 62
     7
100
AcDbLine
 10
144.616339
 20
75.911406
 30
0.0
 11
146.30375
 21
72.964379
 31
0.0
  0
LINE
  5
16C4
100
AcDbEntity
  8
90000_FRAME
370
    13
  6
CONTINUOUS
 62
     7
100
AcDbLine
 10
146.30375
 20
75.911406
 30
0.0
 11
146.30375
 21
72.964379
 31
0.0
  0
LINE
  5
16C5
100
AcDbEntity
  8
90000_FRAME
370
    13
  6
CONTINUOUS
 62
     7
100
AcDbLine
 10
144.02218
 20
71.158137
 30
0.0
 11
144.02218
 21
74.200229
 31
0.0
  0
LINE
  5
16C6
100
AcDbEntity
  8
90000_FRAME
370
    13
  6
CONTINUOUS
 62
     7
100
AcDbLine
 10
148.062459
 20
71.253202
 30
0.0
 11
148.062459
 21
72.203856
 31
0.0
  0
LINE
  5
16C7
100
AcDbEntity
  8
90000_FRAME
370
    13
  6
CONTINUOUS
 62
     7
100
AcDbLine
 10
151.389748
 20
74.91322
 30
0.0
 11
151.389748
 21
75.863874
 31
0.0
  0
ARC
  5
16C8
100
AcDbEntity
  8
90000_FRAME
370
    13
  6
CONTINUOUS
 62
     7
100
AcDbCircle
 10
149.7671
 20
73.115296
 30
0.0
 40
1.111619
100
AcDbArc
 50
277.709996
 51
295.688493
  0
ARC
  5
16C9
100
AcDbEntity
  8
90000_FRAME
370
    13
  6
CONTINUOUS
 62
     7
100
AcDbCircle
 10
150.05141
 20
72.39047
 30
0.0
 40
0.340169
100
AcDbArc
 50
305.503221
 51
72.46529
  0
ARC
  5
16CA
100
AcDbEntity
  8
90000_FRAME
370
    13
  6
CONTINUOUS
 62
     7
100
AcDbCircle
 10
149.485416
 20
75.792177
 30
0.0
 40
4.756795
100
AcDbArc
 50
252.59392
 51
280.98166
  0
ARC
  5
16CB
100
AcDbEntity
  8
90000_FRAME
370
    13
  6
CONTINUOUS
 62
     7
100
AcDbCircle
 10
149.940252
 20
73.174163
 30
0.0
 40
2.100727
100
AcDbArc
 50
282.405836
 51
311.864443
  0
ARC
  5
16CC
100
AcDbEntity
  8
90000_FRAME
370
    13
  6
CONTINUOUS
 62
     7
100
AcDbCircle
 10
149.666688
 20
74.782505
 30
0.0
 40
0.302963
100
AcDbArc
 50
154.440035
 51
221.82017
  0
ARC
  5
16CD
100
AcDbEntity
  8
90000_FRAME
370
    13
  6
CONTINUOUS
 62
     7
100
AcDbCircle
 10
149.745909
 20
74.703284
 30
0.0
 40
0.410309
100
AcDbArc
 50
102.828783
 51
149.225964
  0
ARC
  5
16CE
100
AcDbEntity
  8
90000_FRAME
370
    13
  6
CONTINUOUS
 62
     7
100
AcDbCircle
 10
150.162935
 20
72.960948
 30
0.0
 40
2.201837
100
AcDbArc
 50
84.040006
 51
103.342766
  0
ARC
  5
16CF
100
AcDbEntity
  8
90000_FRAME
370
    13
  6
CONTINUOUS
 62
     7
100
AcDbCircle
 10
149.821972
 20
70.543584
 30
0.0
 40
4.642374
100
AcDbArc
 50
70.262586
 51
82.952419
  0
ARC
  5
16D0
100
AcDbEntity
  8
90000_FRAME
370
    13
  6
CONTINUOUS
 62
     7
100
AcDbCircle
 10
149.307953
 20
75.215207
 30
0.0
 40
3.258756
100
AcDbArc
 50
247.530021
 51
280.757952
  0
ARC
  5
16D1
100
AcDbEntity
  8
90000_FRAME
370
    13
  6
CONTINUOUS
 62
     7
100
AcDbCircle
 10
142.922987
 20
56.963687
 30
0.0
 40
17.331608
100
AcDbArc
 50
65.341467
 51
67.399777
  0
ARC
  5
16D2
100
AcDbEntity
  8
90000_FRAME
370
    13
  6
CONTINUOUS
 62
     7
100
AcDbCircle
 10
153.718849
 20
82.756114
 30
0.0
 40
10.629164
100
AcDbArc
 50
242.86201
 51
247.104203
  0
ARC
  5
16D3
100
AcDbEntity
  8
90000_FRAME
370
    13
  6
CONTINUOUS
 62
     7
100
AcDbCircle
 10
149.863948
 20
75.222182
 30
0.0
 40
2.166292
100
AcDbArc
 50
227.311928
 51
242.704032
  0
ARC
  5
16D4
100
AcDbEntity
  8
90000_FRAME
370
    13
  6
CONTINUOUS
 62
     7
100
AcDbCircle
 10
149.259917
 20
74.516505
 30
0.0
 40
1.238522
100
AcDbArc
 50
194.795219
 51
225.717655
  0
ARC
  5
16D5
100
AcDbEntity
  8
90000_FRAME
370
    13
  6
CONTINUOUS
 62
     7
100
AcDbCircle
 10
149.322075
 20
74.556725
 30
0.0
 40
1.309092
100
AcDbArc
 50
164.197486
 51
195.802514
  0
ARC
  5
16D6
100
AcDbEntity
  8
90000_FRAME
370
    13
  6
CONTINUOUS
 62
     7
100
AcDbCircle
 10
149.879099
 20
73.668457
 30
0.0
 40
2.366925
100
AcDbArc
 50
86.221802
 51
120.42726
  0
ARC
  5
16D7
100
AcDbEntity
  8
90000_FRAME
370
    13
  6
CONTINUOUS
 62
     7
100
AcDbCircle
 10
149.610242
 20
66.97229
 30
0.0
 40
9.067905
100
AcDbArc
 50
78.682705
 51
87.31476
  0
ARC
  5
16D8
100
AcDbEntity
  8
90000_FRAME
370
    13
  6
CONTINUOUS
 62
     7
100
AcDbCircle
 10
149.154173
 20
74.664232
 30
0.0
 40
1.119747
100
AcDbArc
 50
142.813918
 51
167.152295
  0
ARC
  5
16D9
100
AcDbEntity
  8
90000_FRAME
370
    13
  6
CONTINUOUS
 62
     7
100
AcDbCircle
 10
149.499483
 20
74.357651
 30
0.0
 40
1.580547
100
AcDbArc
 50
121.214095
 51
141.525477
  0
ARC
  5
16DA
100
AcDbEntity
  8
90000_FRAME
370
    13
  6
CONTINUOUS
 62
     7
100
AcDbCircle
 10
150.076657
 20
75.168708
 30
0.0
 40
0.866128
100
AcDbArc
 50
222.776039
 51
239.036243
  0
ARC
  5
16DB
100
AcDbEntity
  8
90000_FRAME
370
    13
  6
CONTINUOUS
 62
     7
100
AcDbCircle
 10
147.569947
 20
67.838436
 30
0.0
 40
6.858774
100
AcDbArc
 50
59.902027
 51
68.203648
  0
ARC
  5
16DC
100
AcDbEntity
  8
90000_FRAME
370
    13
  6
CONTINUOUS
 62
     7
100
AcDbCircle
 10
150.978442
 20
76.764322
 30
0.0
 40
2.698741
100
AcDbArc
 50
240.0482
 51
251.377967
  0
ARC
  5
16DD
100
AcDbEntity
  8
90000_FRAME
370
    13
  6
CONTINUOUS
 62
     7
100
AcDbCircle
 10
150.312985
 20
72.607424
 30
0.0
 40
1.433447
100
AcDbArc
 50
315.890455
 51
333.522926
  0
ARC
  5
16DE
100
AcDbEntity
  8
90000_FRAME
370
    13
  6
CONTINUOUS
 62
     7
100
AcDbCircle
 10
150.317623
 20
72.554016
 30
0.0
 40
1.406229
100
AcDbArc
 50
335.386797
 51
24.391512
  0
ARC
  5
16DF
100
AcDbEntity
  8
90000_FRAME
370
    13
  6
CONTINUOUS
 62
     7
100
AcDbCircle
 10
150.245418
 20
72.47616
 30
0.0
 40
1.504703
100
AcDbArc
 50
25.956292
 51
59.483483
  0
LINE
  5
16E0
100
AcDbEntity
  8
90000_FRAME
370
    13
  6
CONTINUOUS
 62
     7
100
AcDbLine
 10
120.469732
 20
71.253202
 30
0.0
 11
120.469732
 21
72.203856
 31
0.0
  0
LINE
  5
16E1
100
AcDbEntity
  8
90000_FRAME
370
    13
  6
CONTINUOUS
 62
     7
100
AcDbLine
 10
123.797021
 20
74.91322
 30
0.0
 11
123.797021
 21
75.863874
 31
0.0
  0
ARC
  5
16E2
100
AcDbEntity
  8
90000_FRAME
370
    13
  6
CONTINUOUS
 62
     7
100
AcDbCircle
 10
122.174373
 20
73.115296
 30
0.0
 40
1.111619
100
AcDbArc
 50
277.709996
 51
295.688493
  0
ARC
  5
16E3
100
AcDbEntity
  8
90000_FRAME
370
    13
  6
CONTINUOUS
 62
     7
100
AcDbCircle
 10
122.458683
 20
72.39047
 30
0.0
 40
0.340169
100
AcDbArc
 50
305.503221
 51
72.46529
  0
ARC
  5
16E4
100
AcDbEntity
  8
90000_FRAME
370
    13
  6
CONTINUOUS
 62
     7
100
AcDbCircle
 10
121.892689
 20
75.792177
 30
0.0
 40
4.756795
100
AcDbArc
 50
252.59392
 51
280.98166
  0
ARC
  5
16E5
100
AcDbEntity
  8
90000_FRAME
370
    13
  6
CONTINUOUS
 62
     7
100
AcDbCircle
 10
122.347525
 20
73.174163
 30
0.0
 40
2.100727
100
AcDbArc
 50
282.405836
 51
311.864443
  0
ARC
  5
16E6
100
AcDbEntity
  8
90000_FRAME
370
    13
  6
CONTINUOUS
 62
     7
100
AcDbCircle
 10
122.07396
 20
74.782505
 30
0.0
 40
0.302963
100
AcDbArc
 50
154.440035
 51
221.82017
  0
ARC
  5
16E7
100
AcDbEntity
  8
90000_FRAME
370
    13
  6
CONTINUOUS
 62
     7
100
AcDbCircle
 10
122.153182
 20
74.703284
 30
0.0
 40
0.410309
100
AcDbArc
 50
102.828783
 51
149.225964
  0
ARC
  5
16E8
100
AcDbEntity
  8
90000_FRAME
370
    13
  6
CONTINUOUS
 62
     7
100
AcDbCircle
 10
122.570208
 20
72.960948
 30
0.0
 40
2.201837
100
AcDbArc
 50
84.040006
 51
103.342766
  0
ARC
  5
16E9
100
AcDbEntity
  8
90000_FRAME
370
    13
  6
CONTINUOUS
 62
     7
100
AcDbCircle
 10
122.229245
 20
70.543584
 30
0.0
 40
4.642374
100
AcDbArc
 50
70.262586
 51
82.952419
  0
ARC
  5
16EA
100
AcDbEntity
  8
90000_FRAME
370
    13
  6
CONTINUOUS
 62
     7
100
AcDbCircle
 10
121.715226
 20
75.215207
 30
0.0
 40
3.258756
100
AcDbArc
 50
247.530021
 51
280.757952
  0
ARC
  5
16EB
100
AcDbEntity
  8
90000_FRAME
370
    13
  6
CONTINUOUS
 62
     7
100
AcDbCircle
 10
115.33026
 20
56.963687
 30
0.0
 40
17.331608
100
AcDbArc
 50
65.341467
 51
67.399777
  0
ARC
  5
16EC
100
AcDbEntity
  8
90000_FRAME
370
    13
  6
CONTINUOUS
 62
     7
100
AcDbCircle
 10
126.126122
 20
82.756114
 30
0.0
 40
10.629164
100
AcDbArc
 50
242.86201
 51
247.104203
  0
ARC
  5
16ED
100
AcDbEntity
  8
90000_FRAME
370
    13
  6
CONTINUOUS
 62
     7
100
AcDbCircle
 10
122.271221
 20
75.222182
 30
0.0
 40
2.166292
100
AcDbArc
 50
227.311928
 51
242.704032
  0
ARC
  5
16EE
100
AcDbEntity
  8
90000_FRAME
370
    13
  6
CONTINUOUS
 62
     7
100
AcDbCircle
 10
121.66719
 20
74.516505
 30
0.0
 40
1.238522
100
AcDbArc
 50
194.795219
 51
225.717655
  0
ARC
  5
16EF
100
AcDbEntity
  8
90000_FRAME
370
    13
  6
CONTINUOUS
 62
     7
100
AcDbCircle
 10
122.286372
 20
73.668457
 30
0.0
 40
2.366925
100
AcDbArc
 50
86.221802
 51
120.42726
  0
ARC
  5
16F0
100
AcDbEntity
  8
90000_FRAME
370
    13
  6
CONTINUOUS
 62
     7
100
AcDbCircle
 10
122.017515
 20
66.97229
 30
0.0
 40
9.067905
100
AcDbArc
 50
78.682705
 51
87.31476
  0
ARC
  5
16F1
100
AcDbEntity
  8
90000_FRAME
370
    13
  6
CONTINUOUS
 62
     7
100
AcDbCircle
 10
121.906756
 20
74.357651
 30
0.0
 40
1.580547
100
AcDbArc
 50
121.214095
 51
141.525477
  0
ARC
  5
16F2
100
AcDbEntity
  8
90000_FRAME
370
    13
  6
CONTINUOUS
 62
     7
100
AcDbCircle
 10
122.48393
 20
75.168708
 30
0.0
 40
0.866128
100
AcDbArc
 50
222.776039
 51
239.036243
  0
ARC
  5
16F3
100
AcDbEntity
  8
90000_FRAME
370
    13
  6
CONTINUOUS
 62
     7
100
AcDbCircle
 10
119.97722
 20
67.838436
 30
0.0
 40
6.858774
100
AcDbArc
 50
59.902027
 51
68.203648
  0
ARC
  5
16F4
100
AcDbEntity
  8
90000_FRAME
370
    13
  6
CONTINUOUS
 62
     7
100
AcDbCircle
 10
123.385715
 20
76.764322
 30
0.0
 40
2.698741
100
AcDbArc
 50
240.0482
 51
251.377967
  0
ARC
  5
16F5
100
AcDbEntity
  8
90000_FRAME
370
    13
  6
CONTINUOUS
 62
     7
100
AcDbCircle
 10
122.720258
 20
72.607424
 30
0.0
 40
1.433447
100
AcDbArc
 50
315.890455
 51
333.522926
  0
ARC
  5
16F6
100
AcDbEntity
  8
90000_FRAME
370
    13
  6
CONTINUOUS
 62
     7
100
AcDbCircle
 10
122.724896
 20
72.554016
 30
0.0
 40
1.406229
100
AcDbArc
 50
335.386797
 51
24.391512
  0
ARC
  5
16F7
100
AcDbEntity
  8
90000_FRAME
370
    13
  6
CONTINUOUS
 62
     7
100
AcDbCircle
 10
122.652691
 20
72.47616
 30
0.0
 40
1.504703
100
AcDbArc
 50
25.956292
 51
59.483483
  0
LINE
  5
16F8
100
AcDbEntity
  8
90000_FRAME
370
    13
  6
CONTINUOUS
 62
     7
100
AcDbLine
 10
120.661561
 20
75.330601
 30
0.0
 11
120.935627
 21
75.604674
 31
0.0
  0
ARC
  5
16F9
100
AcDbEntity
  8
90000_FRAME
370
    13
  6
CONTINUOUS
 62
     7
100
AcDbCircle
 10
121.729348
 20
74.556725
 30
0.0
 40
1.309092
100
AcDbArc
 50
164.197486
 51
195.802514
  0
ARC
  5
16FA
100
AcDbEntity
  8
90000_FRAME
370
    13
  6
CONTINUOUS
 62
     7
100
AcDbCircle
 10
121.561446
 20
74.664232
 30
0.0
 40
1.119747
100
AcDbArc
 50
142.813918
 51
167.152295
  0
TEXT
  5
16FB
100
AcDbEntity
  8
90000_FRAME
370
    13
  6
CONTINUOUS
 62
     7
100
AcDbText
 10
232.0
 20
66.3969
 30
0.0
 40
2.2
  1
1:1
 41
0.9
100
AcDbText
  0
TEXT
  5
16FC
100
AcDbEntity
  8
90000_FRAME
370
    13
  6
CONTINUOUS
 62
     7
100
AcDbText
 10
162.0
 20
72.2
 30
0.0
 40
2.2
  1

 41
0.784213
100
AcDbText
  0
ENDSEC
  0
SECTION
  2
OBJECTS
  0
DICTIONARY
  5
FE4
100
AcDbDictionary
280
     0
281
     1
  3
ACAD_GROUP
350
FE5
  3
ACAD_MLINESTYLE
350
FE6
  0
DICTIONARY
  5
FE5
102
{ACAD_REACTORS
330
FE4
102
}
100
AcDbDictionary
280
     0
281
     1
  0
DICTIONARY
  5
FE6
102
{ACAD_REACTORS
330
FE4
102
}
100
AcDbDictionary
280
     0
281
     1
  3
Standard
350
FE7
  0
MLINESTYLE
  5
FE7
102
{ACAD_REACTORS
330
FE6
102
}
100
AcDbMlineStyle
  2
Standard
 70
     0
  3

 62
     0
 51
90.0
 52
90.0
 71
     2
 49
0.5
 62
   256
  6
ByLayer
 49
-0.5
 62
   256
  6
ByLayer
  0
ENDSEC
  0
EOF
