  0
SECTION
  2
HEADER
  9
$ACADVER
  1
AC1015
  9
$ACADMAINTVER
 70
     6
  9
$DWGCODEPAGE
  3
ANSI_1252
  9
$INSBASE
 10
0.0
 20
0.0
 30
0.0
  9
$EXTMIN
 10
69.395417
 20
287.976483
 30
-1.0
  9
$EXTMAX
 10
1026.514554
 20
492.804657
 30
0.7
  9
$LIMMIN
 10
0.0
 20
0.0
  9
$LIMMAX
 10
12.0
 20
9.0
  9
$ORTHOMODE
 70
     0
  9
$REGENMODE
 70
     1
  9
$FILLMODE
 70
     1
  9
$QTEXTMODE
 70
     0
  9
$MIRRTEXT
 70
     0
  9
$LTSCALE
 40
5.0
  9
$ATTMODE
 70
     1
  9
$TEXTSIZE
 40
0.2
  9
$TRACEWID
 40
0.05
  9
$TEXTSTYLE
  7
STANDARD
  9
$CLAYER
  8
0
  9
$CELTYPE
  6
ByLayer
  9
$CECOLOR
 62
   256
  9
$CELTSCALE
 40
1.0
  9
$DISPSILH
 70
     0
  9
$DIMSCALE
 40
1.0
  9
$DIMASZ
 40
0.18
  9
$DIMEXO
 40
0.0625
  9
$DIMDLI
 40
0.38
  9
$DIMRND
 40
0.0
  9
$DIMDLE
 40
0.0
  9
$DIMEXE
 40
0.18
  9
$DIMTP
 40
0.0
  9
$DIMTM
 40
0.0
  9
$DIMTXT
 40
0.18
  9
$DIMCEN
 40
0.09
  9
$DIMTSZ
 40
0.0
  9
$DIMTOL
 70
     0
  9
$DIMLIM
 70
     0
  9
$DIMTIH
 70
     1
  9
$DIMTOH
 70
     1
  9
$DIMSE1
 70
     0
  9
$DIMSE2
 70
     0
  9
$DIMTAD
 70
     0
  9
$DIMZIN
 70
     0
  9
$DIMBLK
  1

  9
$DIMASO
 70
     1
  9
$DIMSHO
 70
     1
  9
$DIMPOST
  1

  9
$DIMAPOST
  1

  9
$DIMALT
 70
     0
  9
$DIMALTD
 70
     2
  9
$DIMALTF
 40
25.4
  9
$DIMLFAC
 40
1.0
  9
$DIMTOFL
 70
     0
  9
$DIMTVP
 40
0.0
  9
$DIMTIX
 70
     0
  9
$DIMSOXD
 70
     0
  9
$DIMSAH
 70
     0
  9
$DIMBLK1
  1

  9
$DIMBLK2
  1

  9
$DIMSTYLE
  2
STANDARD
  9
$DIMCLRD
 70
     0
  9
$DIMCLRE
 70
     0
  9
$DIMCLRT
 70
     0
  9
$DIMTFAC
 40
1.0
  9
$DIMGAP
 40
0.09
  9
$DIMJUST
 70
     0
  9
$DIMSD1
 70
     0
  9
$DIMSD2
 70
     0
  9
$DIMTOLJ
 70
     1
  9
$DIMTZIN
 70
     0
  9
$DIMALTZ
 70
     0
  9
$DIMALTTZ
 70
     0
  9
$DIMUPT
 70
     0
  9
$DIMDEC
 70
     4
  9
$DIMTDEC
 70
     4
  9
$DIMALTU
 70
     2
  9
$DIMALTTD
 70
     2
  9
$DIMTXSTY
  7
STANDARD
  9
$DIMAUNIT
 70
     0
  9
$DIMADEC
 70
     0
  9
$DIMALTRND
 40
0.0
  9
$DIMAZIN
 70
     0
  9
$DIMDSEP
 70
     0
  9
$DIMATFIT
 70
     3
  9
$DIMFRAC
 70
     0
  9
$DIMLDRBLK
  1

  9
$DIMLUNIT
 70
     2
  9
$DIMLWD
 70
     0
  9
$DIMLWE
 70
     0
  9
$DIMTMOVE
 70
     0
  9
$LUNITS
 70
     2
  9
$LUPREC
 70
     4
  9
$SKETCHINC
 40
0.1
  9
$FILLETRAD
 40
0.0
  9
$AUNITS
 70
     0
  9
$AUPREC
 70
     0
  9
$MENU
  1
.
  9
$ELEVATION
 40
0.0
  9
$PELEVATION
 40
0.0
  9
$THICKNESS
 40
0.0
  9
$LIMCHECK
 70
     0
  9
$CHAMFERA
 40
0.0
  9
$CHAMFERB
 40
0.0
  9
$CHAMFERC
 40
0.0
  9
$CHAMFERD
 40
0.0
  9
$SKPOLY
 70
     0
  9
$TDCREATE
 40
2453353.758792454
  9
$TDUCREATE
 40
0.000000000
  9
$TDUPDATE
 40
0.000000000
  9
$TDUUPDATE
 40
2447892.958333334
  9
$TDINDWG
 40
78332576.0667047050
  9
$TDUSRTIMER
 40
0.0000000000
  9
$USRTIMER
 70
     1
  9
$ANGBASE
 50
0.0
  9
$ANGDIR
 70
     0
  9
$PDMODE
 70
     0
  9
$PDSIZE
 40
0.0
  9
$PLINEWID
 40
0.0
  9
$SPLFRAME
 70
     0
  9
$SPLINETYPE
 70
     6
  9
$SPLINESEGS
 70
     8
  9
$HANDSEED
  5
1704
  9
$SURFTAB1
 70
     6
  9
$SURFTAB2
 70
     6
  9
$SURFTYPE
 70
     6
  9
$SURFU
 70
     6
  9
$SURFV
 70
     6
  9
$UCSBASE
  2

  9
$UCSNAME
  2

  9
$UCSORG
 10
0.0
 20
0.0
 30
0.0
  9
$UCSXDIR
 10
1.0
 20
0.0
 30
0.0
  9
$UCSYDIR
 10
0.0
 20
1.0
 30
0.0
  9
$UCSORTHOREF
  2

  9
$UCSORTHOVIEW
 70
     0
  9
$UCSORGTOP
 10
0.0
 20
0.0
 30
0.0
  9
$UCSORGBOTTOM
 10
0.0
 20
0.0
 30
0.0
  9
$UCSORGLEFT
 10
0.0
 20
0.0
 30
0.0
  9
$UCSORGRIGHT
 10
0.0
 20
0.0
 30
0.0
  9
$UCSORGFRONT
 10
0.0
 20
0.0
 30
0.0
  9
$UCSORGBACK
 10
0.0
 20
0.0
 30
0.0
  9
$PUCSBASE
  2

  9
$PUCSNAME
  2

  9
$PUCSORG
 10
0.0
 20
0.0
 30
0.0
  9
$PUCSXDIR
 10
1.0
 20
0.0
 30
0.0
  9
$PUCSYDIR
 10
0.0
 20
1.0
 30
0.0
  9
$PUCSORTHOREF
  2

  9
$PUCSORTHOVIEW
 70
     0
  9
$PUCSORGTOP
 10
0.0
 20
0.0
 30
0.0
  9
$PUCSORGBOTTOM
 10
0.0
 20
0.0
 30
0.0
  9
$PUCSORGLEFT
 10
0.0
 20
0.0
 30
0.0
  9
$PUCSORGRIGHT
 10
0.0
 20
0.0
 30
0.0
  9
$PUCSORGFRONT
 10
0.0
 20
0.0
 30
0.0
  9
$PUCSORGBACK
 10
0.0
 20
0.0
 30
0.0
  9
$USERI1
 70
     0
  9
$USERI2
 70
     0
  9
$USERI3
 70
     0
  9
$USERI4
 70
     0
  9
$USERI5
 70
     0
  9
$USERR1
 40
0.0
  9
$USERR2
 40
0.0
  9
$USERR3
 40
0.0
  9
$USERR4
 40
0.0
  9
$USERR5
 40
0.0
  9
$WORLDVIEW
 70
     1
  9
$SHADEDGE
 70
     3
  9
$SHADEDIF
 70
    70
  9
$TILEMODE
 70
     1
  9
$MAXACTVP
 70
    64
  9
$PINSBASE
 10
0.0
 20
0.0
 30
0.0
  9
$PLIMCHECK
 70
     0
  9
$PEXTMIN
 10
0.0
 20
0.0
 30
0.0
  9
$PEXTMAX
 10
0.0
 20
0.0
 30
0.0
  9
$PLIMMIN
 10
0.0
 20
0.0
  9
$PLIMMAX
 10
0.0
 20
0.0
  9
$UNITMODE
 70
     0
  9
$VISRETAIN
 70
     1
  9
$PLINEGEN
 70
     0
  9
$PSLTSCALE
 70
     1
  9
$TREEDEPTH
 70
  3020
  9
$CMLSTYLE
  2
Standard
  9
$CMLJUST
 70
     0
  9
$CMLSCALE
 40
1.0
  9
$PROXYGRAPHICS
 70
     0
  9
$MEASUREMENT
 70
     0
  9
$CELWEIGHT
370
     0
  9
$ENDCAPS
280
     0
  9
$JOINSTYLE
280
     0
  9
$LWDISPLAY
290
     0
  9
$INSUNITS
 70
     0
  9
$HYPERLINKBASE
  1

  9
$STYLESHEET
  1

  9
$XEDIT
290
     1
  9
$CEPSNTYPE
380
     0
  9
$PSTYLEMODE
290
     1
  9
$FINGERPRINTGUID
  2

  9
$VERSIONGUID
  2

  9
$EXTNAMES
290
     1
  9
$PSVPSCALE
 40
0.0
  0
ENDSEC
  0
SECTION
  2
CLASSES
  0
CLASS
  1
LWPOLYLINE
  2
AcDbPolyline
  3
AutoCAD 2000
 90
        0
280
     0
281
     1
  0
CLASS
  1
IMAGE
  2
AcDbRasterImage
  3
ISM
 90
      127
280
     0
281
     1
  0
CLASS
  1
OLE2FRAME
  2
AcDbOle2Frame
  3
AutoCAD 2000
 90
        0
280
     0
281
     1
  0
CLASS
  1
HATCH
  2
AcDbHatch
  3
AutoCAD 2000
 90
        0
280
     0
281
     1
  0
CLASS
  1
DICTIONARYVAR
  2
AcDbDictionaryVar
  3
AutoCAD 2000
 90
        0
280
     0
281
     0
  0
CLASS
  1
RASTERVARIABLES
  2
AcDbRasterVariables
  3
ISM
 90
        0
280
     0
281
     0
  0
CLASS
  1
IMAGEDEF
  2
AcDbRasterImageDef
  3
ISM
 90
        0
280
     0
281
     0
  0
CLASS
  1
IMAGEDEF_REACTOR
  2
AcDbRasterImageDefReactor
  3
ISM
 90
        1
280
     0
281
     0
  0
CLASS
  1
IDBUFFER
  2
AcDbIdBuffer
  3
AutoCAD 2000
 90
        0
280
     0
281
     0
  0
CLASS
  1
SPATIAL_FILTER
  2
AcDbSpatialFilter
  3
AutoCAD 2000
 90
        0
280
     0
281
     0
  0
CLASS
  1
XRECORD
  2
AcDbXrecord
  3
AutoCAD 2000
 90
        0
280
     0
281
     0
  0
CLASS
  1
SORTENTSTABLE
  2
AcDbSortentsTable
  3
AutoCAD 2000
 90
        0
280
     0
281
     0
  0
CLASS
  1
LAYER_INDEX
  2
AcDbLayerIndex
  3
AutoCAD 2000
 90
        0
280
     0
281
     0
  0
CLASS
  1
SPATIAL_INDEX
  2
AcDbSpatialIndex
  3
AutoCAD 2000
 90
        0
280
     0
281
     0
  0
CLASS
  1
OBJECT_PTR
  2
CAseDLPNTableRecord
  3
"ASE-LPNTableRecord"
 90
        1
280
     0
281
     0
  0
CLASS
  1
LAYOUT
  2
AcDbLayout
  3
AutoCAD 2000
 90
        0
280
     0
281
     0
  0
CLASS
  1
PLOTSETTINGS
  2
AcDbPlotSettings
  3
AutoCAD 2000
 90
        0
280
     0
281
     0
  0
CLASS
  1
ACDBDICTIONARYWDFLT
  2
AcDbDictionaryWithDefault
  3
AutoCAD 2000
 90
        0
280
     0
281
     0
  0
CLASS
  1
ACDBPLACEHOLDER
  2
AcDbPlaceHolder
  3
AutoCAD 2000
 90
        0
280
     0
281
     0
  0
CLASS
  1
VBA_PROJECT
  2
AcDbVbaProject
  3
acadvba
 90
        0
280
     0
281
     0
  0
CLASS
  1
WIPEOUT
  2
AcDbWipeout
  3
WipeOut|AutoCAD Express Tool|expresstools@autodesk.com
 90
      127
280
     0
281
     1
  0
CLASS
  1
WIPEOUTVARIABLES
  2
AcDbWipeoutVariables
  3
WipeOut|AutoCAD Express Tool|expresstools@autodesk.com
 90
        0
280
     0
281
     0
  0
CLASS
  1
RTEXT
  2
RText
  3
RText|AutoCAD Express Tool|expresstools@autodesk.com
 90
        0
280
     0
281
     1
  0
CLASS
  1
ARCALIGNEDTEXT
  2
AcDbArcAlignedText
  3
ATEXT|AutoCAD Express Tool|expresstools@autodesk.com
 90
        0
280
     0
281
     1
  0
ENDSEC
  0
SECTION
  2
TABLES
  0
TABLE
  2
VPORT
  5
1094
100
AcDbSymbolTable
 70
     1
  0
VPORT
  5
10BB
100
AcDbSymbolTableRecord
100
AcDbViewportTableRecord
  2
*ACTIVE
 70
     0
 10
0.0
 20
0.0
 11
1.0
 21
1.0
 12
450.328833
 22
266.374849
 13
0.0
 23
0.0
 14
0.5
 24
0.5
 15
0.5
 25
0.5
 16
0.0
 26
0.0
 36
1.0
 17
0.0
 27
0.0
 37
0.0
 40
620.078606
 41
1.701534
 42
50.0
 43
0.0
 44
0.0
 50
0.0
 51
0.0
 71
    16
 72
  1000
 73
     1
 74
     3
 75
     0
 76
     0
 77
     0
 78
     0
281
     0
 65
     0
110
0.0
120
0.0
130
0.0
111
1.0
121
0.0
131
0.0
112
0.0
122
1.0
132
0.0
345
0
346
0
 79
     0
146
0.0
  0
ENDTAB
  0
TABLE
  2
LTYPE
  5
1091
100
AcDbSymbolTable
 70
     6
  0
LTYPE
  5
109A
100
AcDbSymbolTableRecord
100
AcDbLinetypeTableRecord
  2
ByBlock
 70
    64
  3

 72
    65
 73
     0
 40
0.0
  0
LTYPE
  5
109B
100
AcDbSymbolTableRecord
100
AcDbLinetypeTableRecord
  2
ByLayer
 70
    64
  3

 72
    65
 73
     0
 40
0.0
  0
LTYPE
  5
109C
100
AcDbSymbolTableRecord
100
AcDbLinetypeTableRecord
  2
CONTINUOUS
 70
     0
  3
Solid line
 72
    65
 73
     0
 40
0.0
  0
LTYPE
  5
109D
100
AcDbSymbolTableRecord
100
AcDbLinetypeTableRecord
  2
CENTER
 70
     0
  3
____ _ ____ _ ____ _ ____ _ ____ _ ____ _ ____
 72
    65
 73
     4
 40
0.6
 49
0.375
 74
     0
 49
-0.075
 74
     0
 49
0.075
 74
     0
 49
-0.075
 74
     0
  0
LTYPE
  5
109E
100
AcDbSymbolTableRecord
100
AcDbLinetypeTableRecord
  2
ACAD_ISO02W100
 70
     0
  3
ISO Strichlinie __ __ __ __ __ __ __ __ __ __ _
 72
    65
 73
     2
 40
15.0
 49
12.0
 74
     0
 49
-3.0
 74
     0
  0
LTYPE
  5
109F
100
AcDbSymbolTableRecord
100
AcDbLinetypeTableRecord
  2
DASHED
 70
     0
  3
_ _ _ _ _ _ _ _ _ _ _ _ _ _ _ _ _ _ _ _ _ _ _ _
 72
    65
 73
     2
 40
0.375
 49
0.25
 74
     0
 49
-0.125
 74
     0
  0
ENDTAB
  0
TABLE
  2
LAYER
  5
108F
100
AcDbSymbolTable
 70
     8
  0
LAYER
  5
10A0
100
AcDbSymbolTableRecord
100
AcDbLayerTableRecord
  2
0
 70
     0
 62
     7
  6
CONTINUOUS
290
     1
370
    -3
390
0
  0
LAYER
  5
10A1
100
AcDbSymbolTableRecord
100
AcDbLayerTableRecord
  2
90000_FRAME
 70
     0
 62
     7
  6
CONTINUOUS
290
     1
370
    -3
390
0
  0
LAYER
  5
10A2
100
AcDbSymbolTableRecord
100
AcDbLayerTableRecord
  2
91000_TIP
 70
     0
 62
     7
  6
CONTINUOUS
290
     1
370
    -3
390
0
  0
LAYER
  5
10A3
100
AcDbSymbolTableRecord
100
AcDbLayerTableRecord
  2
10000_FRONT
 70
     0
 62
     7
  6
CONTINUOUS
290
     1
370
    -3
390
0
  0
LAYER
  5
10A4
100
AcDbSymbolTableRecord
100
AcDbLayerTableRecord
  2
11000_LEFT
 70
     0
 62
     7
  6
CONTINUOUS
290
     1
370
    -3
390
0
  0
LAYER
  5
10A7
100
AcDbSymbolTableRecord
100
AcDbLayerTableRecord
  2
DEFPOINTS
 70
     0
 62
     7
  6
CONTINUOUS
290
     0
370
    -3
390
0
  0
LAYER
  5
10A8
100
AcDbSymbolTableRecord
100
AcDbLayerTableRecord
  2
10100_FRONT_DIM
 70
     0
 62
     7
  6
CONTINUOUS
290
     1
370
    -3
390
0
  0
LAYER
  5
10A9
100
AcDbSymbolTableRecord
100
AcDbLayerTableRecord
  2
11100_LEFT_DIM
 70
     0
 62
     7
  6
CONTINUOUS
290
     1
370
    -3
390
0
  0
ENDTAB
  0
TABLE
  2
STYLE
  5
1090
100
AcDbSymbolTable
 70
     1
  0
STYLE
  5
10C0
100
AcDbSymbolTableRecord
100
AcDbTextStyleTableRecord
  2
STANDARD
 70
     0
 40
0.0
 41
1.0
 50
0.0
 71
     0
 42
0.2
  3
txt.shx
  4

  0
ENDTAB
  0
TABLE
  2
VIEW
  5
1092
100
AcDbSymbolTable
 70
     0
  0
ENDTAB
  0
TABLE
  2
UCS
  5
1093
100
AcDbSymbolTable
 70
     0
  0
ENDTAB
  0
TABLE
  2
APPID
  5
1095
100
AcDbSymbolTable
 70
     4
  0
APPID
  5
10BC
100
AcDbSymbolTableRecord
100
AcDbRegAppTableRecord
  2
ACAD
 70
     0
  0
APPID
  5
10BD
100
AcDbSymbolTableRecord
100
AcDbRegAppTableRecord
  2
AUSTER_ANSICHT
 70
     0
  0
APPID
  5
10BE
100
AcDbSymbolTableRecord
100
AcDbRegAppTableRecord
  2
AUSTER_FOLIE
 70
     0
  0
APPID
  5
10BF
100
AcDbSymbolTableRecord
100
AcDbRegAppTableRecord
  2
ACAECLAYERSTANDARD
 70
     0
  0
ENDTAB
  0
TABLE
  2
DIMSTYLE
  5
1096
100
AcDbSymbolTable
 70
     3
100
AcDbDimStyleTable
 71
     0
  0
DIMSTYLE
105
10CA
100
AcDbSymbolTableRecord
100
AcDbDimStyleTableRecord
  2
STANDARD
 70
     0
  3

  4

 40
1.0
 41
0.18
 42
0.0625
 43
0.38
 44
0.18
 45
0.0
 46
0.0
 47
0.0
 48
0.0
 71
     0
 72
     0
 73
     1
 74
     1
 75
     0
 76
     0
 77
     0
 78
     0
 79
     0
140
0.18
141
0.09
142
0.0
143
25.4
144
1.0
145
0.0
146
1.0
147
0.09
148
0.0
170
     0
171
     2
172
     0
173
     0
174
     0
175
     0
176
     0
177
     0
178
     0
179
     0
271
     4
272
     4
273
     2
274
     2
275
     0
276
     0
277
     2
278
    46
279
     0
280
     0
281
     0
282
     0
283
     1
284
     0
285
     0
286
     0
288
     0
289
     3
340
10C0
341
0
342
0
343
0
344
0
371
    -2
372
    -2
  0
DIMSTYLE
105
10CB
100
AcDbSymbolTableRecord
100
AcDbDimStyleTableRecord
  2
DSTYLE1
 70
     0
  3

  4

 40
1.0
 41
3.0
 42
0.0
 43
0.38
 44
1.0
 45
0.0
 46
0.0
 47
0.0
 48
0.0
 71
     0
 72
     0
 73
     0
 74
     0
 75
     0
 76
     0
 77
     1
 78
     3
 79
     0
140
2.5
141
0.09
142
0.0
143
0.03937
144
1.0
145
0.0
146
1.0
147
1.0
148
0.0
170
     0
171
     2
172
     0
173
     0
174
     0
175
     0
176
     0
177
     0
178
     0
179
     0
271
     4
272
     4
273
     2
274
     2
275
     0
276
     0
277
     2
278
    46
279
     0
280
     0
281
     0
282
     0
283
     1
284
     0
285
     0
286
     0
288
     0
289
     3
340
10C0
341
0
342
0
343
0
344
0
371
    -2
372
    -2
  0
DIMSTYLE
105
10CC
100
AcDbSymbolTableRecord
100
AcDbDimStyleTableRecord
  2
H035
 70
     0
  3

  4

 40
0.0
 41
3.5
 42
0.0
 43
3.75
 44
2.0
 45
0.0
 46
0.0
 47
0.0
 48
0.0
 71
     0
 72
     0
 73
     0
 74
     0
 75
     0
 76
     0
 77
     1
 78
     8
 79
     0
140
3.5
141
2.5
142
0.0
143
0.039
144
1.0
145
0.0
146
1.0
147
0.5
148
0.0
170
     0
171
     4
172
     1
173
     0
174
     0
175
     0
176
   256
177
     7
178
     7
179
     0
271
     4
272
     4
273
     2
274
     2
275
     0
276
     0
277
     2
278
    46
279
     0
280
     0
281
     0
282
     0
283
     1
284
     0
285
     0
286
     0
288
     0
289
     3
340
10C0
341
0
342
0
343
0
344
0
371
    -2
372
    -2
  0
ENDTAB
  0
TABLE
  2
BLOCK_RECORD
  5
10C5
100
AcDbSymbolTable
 70
     2
  0
BLOCK_RECORD
  5
10C3
100
AcDbSymbolTableRecord
100
AcDbBlockTableRecord
  2
*Model_Space
340
0
  0
BLOCK_RECORD
  5
10C4
100
AcDbSymbolTableRecord
100
AcDbBlockTableRecord
  2
*Paper_Space
340
0
  0
BLOCK_RECORD
  5
10C1
100
AcDbSymbolTableRecord
100
AcDbBlockTableRecord
  2
$MODEL_SPACE
340
0
  0
BLOCK_RECORD
  5
10C2
100
AcDbSymbolTableRecord
100
AcDbBlockTableRecord
  2
$PAPER_SPACE
340
0
  0
ENDTAB
  0
ENDSEC
  0
SECTION
  2
BLOCKS
  0
BLOCK
  5
10C6
100
AcDbEntity
  8
0
390
0
100
AcDbBlockBegin
  2
*Model_Space
 70
     0
 10
0.0
 20
0.0
 30
0.0
  3
*Model_Space
  1

  0
ENDBLK
  5
10C7
100
AcDbEntity
  8
0
390
0
100
AcDbBlockEnd
  0
BLOCK
  5
10C8
100
AcDbEntity
 67
     1
  8
0
390
0
100
AcDbBlockBegin
  2
*Paper_Space
 70
     0
 10
0.0
 20
0.0
 30
0.0
  3
*Paper_Space
  1

  0
ENDBLK
  5
10C9
100
AcDbEntity
 67
     1
  8
0
390
0
100
AcDbBlockEnd
  0
BLOCK
  5
10CD
100
AcDbEntity
  8
0
100
AcDbBlockBegin
  2
$MODEL_SPACE
 70
     0
 10
0.0
 20
0.0
 30
0.0
  3
$MODEL_SPACE
  1

  0
ENDBLK
  5
21
100
AcDbEntity
  8
0
100
AcDbBlockEnd
  0
BLOCK
  5
10CE
100
AcDbEntity
  8
0
100
AcDbBlockBegin
  2
$PAPER_SPACE
 70
     0
 10
0.0
 20
0.0
 30
0.0
  3
$PAPER_SPACE
  1

  0
ENDBLK
  5
76
100
AcDbEntity
  8
0
100
AcDbBlockEnd
  0
ENDSEC
  0
SECTION
  2
ENTITIES
  0
LINE
  5
10D4
100
AcDbEntity
  8
10000_FRONT
370
    25
390
0
  6
CONTINUOUS
 62
     7
100
AcDbLine
 10
64.046757
 20
168.718172
 30
0.0
 11
64.046689
 21
169.660261
 31
0.0
  0
LINE
  5
10D5
100
AcDbEntity
  8
10000_FRONT
370
    25
390
0
  6
CONTINUOUS
 62
     7
100
AcDbLine
 10
67.670665
 20
165.030746
 30
0.0
 11
67.670266
 21
165.19793
 31
0.0
  0
LINE
  5
10D6
100
AcDbEntity
  8
10000_FRONT
370
    25
390
0
  6
CONTINUOUS
 62
     7
100
AcDbLine
 10
77.206111
 20
162.856646
 30
0.0
 11
77.20528
 21
163.037768
 31
0.0
  0
LINE
  5
10D7
100
AcDbEntity
  8
10000_FRONT
370
    25
390
0
  6
CONTINUOUS
 62
     7
100
AcDbLine
 10
34.676343
 20
135.512664
 30
0.0
 11
34.675004
 21
135.574997
 31
0.0
  0
LINE
  5
10D8
100
AcDbEntity
  8
10000_FRONT
370
    25
390
0
  6
CONTINUOUS
 62
     7
100
AcDbLine
 10
79.575004
 20
172.314995
 30
0.0
 11
79.573484
 21
172.357673
 31
0.0
  0
LINE
  5
10D9
100
AcDbEntity
  8
10000_FRONT
370
    25
390
0
  6
CONTINUOUS
 62
     7
100
AcDbLine
 10
60.286441
 20
164.863697
 30
0.0
 11
60.279343
 21
165.030746
 31
0.0
  0
LINE
  5
10DA
100
AcDbEntity
  8
10000_FRONT
370
    25
390
0
  6
CONTINUOUS
 62
     7
100
AcDbLine
 10
69.752623
 20
162.664995
 30
0.0
 11
69.743896
 21
162.856646
 31
0.0
  0
LINE
  5
10DB
100
AcDbEntity
  8
10000_FRONT
370
    25
390
0
  6
CONTINUOUS
 62
     7
100
AcDbLine
 10
67.670266
 20
165.19793
 30
0.0
 11
67.662368
 21
165.364995
 31
0.0
  0
LINE
  5
10DC
100
AcDbEntity
  8
10000_FRONT
370
    25
390
0
  6
CONTINUOUS
 62
     7
100
AcDbLine
 10
77.20528
 20
163.037768
 30
0.0
 11
77.196494
 21
163.207735
 31
0.0
  0
LINE
  5
10DD
100
AcDbEntity
  8
10000_FRONT
370
    25
390
0
  6
CONTINUOUS
 62
     7
100
AcDbLine
 10
34.680414
 20
135.449199
 30
0.0
 11
34.676343
 21
135.512664
 31
0.0
  0
LINE
  5
10DE
100
AcDbEntity
  8
10000_FRONT
370
    25
390
0
  6
CONTINUOUS
 62
     7
100
AcDbLine
 10
67.662368
 20
165.364995
 30
0.0
 11
67.65588
 21
165.44544
 31
0.0
  0
LINE
  5
10DF
100
AcDbEntity
  8
10000_FRONT
370
    25
390
0
  6
CONTINUOUS
 62
     7
100
AcDbLine
 10
60.301037
 20
164.697038
 30
0.0
 11
60.286441
 21
164.863697
 31
0.0
  0
LINE
  5
10E0
100
AcDbEntity
  8
10000_FRONT
370
    25
390
0
  6
CONTINUOUS
 62
     7
100
AcDbLine
 10
77.196494
 20
163.207735
 30
0.0
 11
77.181297
 21
163.365926
 31
0.0
  0
LINE
  5
10E1
100
AcDbEntity
  8
10000_FRONT
370
    25
390
0
  6
CONTINUOUS
 62
     7
100
AcDbLine
 10
67.65588
 20
165.44544
 30
0.0
 11
67.647651
 21
165.525754
 31
0.0
  0
LINE
  5
10E2
100
AcDbEntity
  8
10000_FRONT
370
    25
390
0
  6
CONTINUOUS
 62
     7
100
AcDbLine
 10
69.778132
 20
162.418456
 30
0.0
 11
69.752623
 21
162.664995
 31
0.0
  0
LINE
  5
10E3
100
AcDbEntity
  8
10000_FRONT
370
    25
390
0
  6
CONTINUOUS
 62
     7
100
AcDbLine
 10
34.687299
 20
135.38475
 30
0.0
 11
34.680414
 21
135.449199
 31
0.0
  0
LINE
  5
10E4
100
AcDbEntity
  8
10000_FRONT
370
    25
390
0
  6
CONTINUOUS
 62
     7
100
AcDbLine
 10
79.573484
 20
172.357673
 30
0.0
 11
79.568914
 21
172.400259
 31
0.0
  0
LINE
  5
10E5
100
AcDbEntity
  8
10000_FRONT
370
    25
390
0
  6
CONTINUOUS
 62
     7
100
AcDbLine
 10
67.647651
 20
165.525754
 30
0.0
 11
67.637695
 21
165.605813
 31
0.0
  0
LINE
  5
10E6
100
AcDbEntity
  8
10000_FRONT
370
    25
390
0
  6
CONTINUOUS
 62
     7
100
AcDbLine
 10
60.322869
 20
164.532664
 30
0.0
 11
60.301037
 21
164.697038
 31
0.0
  0
LINE
  5
10E7
100
AcDbEntity
  8
10000_FRONT
370
    25
390
0
  6
CONTINUOUS
 62
     7
100
AcDbLine
 10
77.181297
 20
163.365926
 30
0.0
 11
77.161224
 21
163.511722
 31
0.0
  0
LINE
  5
10E8
100
AcDbEntity
  8
10000_FRONT
370
    25
390
0
  6
CONTINUOUS
 62
     7
100
AcDbLine
 10
67.637695
 20
165.605813
 30
0.0
 11
67.62602
 21
165.685573
 31
0.0
  0
LINE
  5
10E9
100
AcDbEntity
  8
10000_FRONT
370
    25
390
0
  6
CONTINUOUS
 62
     7
100
AcDbLine
 10
34.697082
 20
135.319622
 30
0.0
 11
34.687299
 21
135.38475
 31
0.0
  0
LINE
  5
10EA
100
AcDbEntity
  8
10000_FRONT
370
    25
390
0
  6
CONTINUOUS
 62
     7
100
AcDbLine
 10
67.62602
 20
165.685573
 30
0.0
 11
67.612635
 21
165.765007
 31
0.0
  0
LINE
  5
10EB
100
AcDbEntity
  8
10000_FRONT
370
    25
390
0
  6
CONTINUOUS
 62
     7
100
AcDbLine
 10
67.298156
 20
165.870786
 30
0.0
 11
67.294567
 21
165.892081
 31
0.0
  0
LINE
  5
10EC
100
AcDbEntity
  8
10000_FRONT
370
    25
390
0
  6
CONTINUOUS
 62
     7
100
AcDbLine
 10
69.820955
 20
162.168583
 30
0.0
 11
69.778132
 21
162.418456
 31
0.0
  0
LINE
  5
10ED
100
AcDbEntity
  8
10000_FRONT
370
    25
390
0
  6
CONTINUOUS
 62
     7
100
AcDbLine
 10
67.294567
 20
165.892081
 30
0.0
 11
67.290902
 21
165.91324
 31
0.0
  0
LINE
  5
10EE
100
AcDbEntity
  8
10000_FRONT
370
    25
390
0
  6
CONTINUOUS
 62
     7
100
AcDbLine
 10
77.161224
 20
163.511722
 30
0.0
 11
77.137817
 21
163.644501
 31
0.0
  0
LINE
  5
10EF
100
AcDbEntity
  8
10000_FRONT
370
    25
390
0
  6
CONTINUOUS
 62
     7
100
AcDbLine
 10
68.21905
 20
166.035355
 30
0.0
 11
68.193381
 21
166.180868
 31
0.0
  0
LINE
  5
10F0
100
AcDbEntity
  8
10000_FRONT
370
    25
390
0
  6
CONTINUOUS
 62
     7
100
AcDbLine
 10
60.350323
 20
164.377696
 30
0.0
 11
60.322869
 21
164.532664
 31
0.0
  0
LINE
  5
10F1
100
AcDbEntity
  8
10000_FRONT
370
    25
390
0
  6
CONTINUOUS
 62
     7
100
AcDbLine
 10
67.290902
 20
165.91324
 30
0.0
 11
67.28712
 21
165.934251
 31
0.0
  0
LINE
  5
10F2
100
AcDbEntity
  8
10000_FRONT
370
    25
390
0
  6
CONTINUOUS
 62
     7
100
AcDbLine
 10
79.568914
 20
172.400259
 30
0.0
 11
79.561281
 21
172.44259
 31
0.0
  0
LINE
  5
10F3
100
AcDbEntity
  8
10000_FRONT
370
    25
390
0
  6
CONTINUOUS
 62
     7
100
AcDbLine
 10
67.28712
 20
165.934251
 30
0.0
 11
67.28322
 21
165.95513
 31
0.0
  0
LINE
  5
10F4
100
AcDbEntity
  8
10000_FRONT
370
    25
390
0
  6
CONTINUOUS
 62
     7
100
AcDbLine
 10
67.612635
 20
165.765007
 30
0.0
 11
67.597548
 21
165.844086
 31
0.0
  0
LINE
  5
10F5
100
AcDbEntity
  8
10000_FRONT
370
    25
390
0
  6
CONTINUOUS
 62
     7
100
AcDbLine
 10
67.28322
 20
165.95513
 30
0.0
 11
67.279165
 21
165.976065
 31
0.0
  0
LINE
  5
10F6
100
AcDbEntity
  8
10000_FRONT
370
    25
390
0
  6
CONTINUOUS
 62
     7
100
AcDbLine
 10
34.709844
 20
135.254123
 30
0.0
 11
34.697082
 21
135.319622
 31
0.0
  0
LINE
  5
10F7
100
AcDbEntity
  8
10000_FRONT
370
    25
390
0
  6
CONTINUOUS
 62
     7
100
AcDbLine
 10
67.279165
 20
165.976065
 30
0.0
 11
67.274948
 21
165.997098
 31
0.0
  0
LINE
  5
10F8
100
AcDbEntity
  8
10000_FRONT
370
    25
390
0
  6
CONTINUOUS
 62
     7
100
AcDbLine
 10
67.274948
 20
165.997098
 30
0.0
 11
67.270607
 21
166.01823
 31
0.0
  0
LINE
  5
10F9
100
AcDbEntity
  8
10000_FRONT
370
    25
390
0
  6
CONTINUOUS
 62
     7
100
AcDbLine
 10
77.137817
 20
163.644501
 30
0.0
 11
77.11231
 21
163.764995
 31
0.0
  0
LINE
  5
10FA
100
AcDbEntity
  8
10000_FRONT
370
    25
390
0
  6
CONTINUOUS
 62
     7
100
AcDbLine
 10
67.597548
 20
165.844086
 30
0.0
 11
67.580769
 21
165.922785
 31
0.0
  0
LINE
  5
10FB
100
AcDbEntity
  8
10000_FRONT
370
    25
390
0
  6
CONTINUOUS
 62
     7
100
AcDbLine
 10
60.382087
 20
164.233202
 30
0.0
 11
60.350323
 21
164.377696
 31
0.0
  0
LINE
  5
10FC
100
AcDbEntity
  8
10000_FRONT
370
    25
390
0
  6
CONTINUOUS
 62
     7
100
AcDbLine
 10
34.725671
 20
135.188564
 30
0.0
 11
34.709844
 21
135.254123
 31
0.0
  0
LINE
  5
10FD
100
AcDbEntity
  8
10000_FRONT
370
    25
390
0
  6
CONTINUOUS
 62
     7
100
AcDbLine
 10
69.88039
 20
161.922559
 30
0.0
 11
69.820955
 21
162.168583
 31
0.0
  0
LINE
  5
10FE
100
AcDbEntity
  8
10000_FRONT
370
    25
390
0
  6
CONTINUOUS
 62
     7
100
AcDbLine
 10
79.561281
 20
172.44259
 30
0.0
 11
79.550533
 21
172.484608
 31
0.0
  0
LINE
  5
10FF
100
AcDbEntity
  8
10000_FRONT
370
    25
390
0
  6
CONTINUOUS
 62
     7
100
AcDbLine
 10
60.416938
 20
164.099497
 30
0.0
 11
60.382087
 21
164.233202
 31
0.0
  0
LINE
  5
1100
100
AcDbEntity
  8
10000_FRONT
370
    25
390
0
  6
CONTINUOUS
 62
     7
100
AcDbLine
 10
72.513249
 20
165.966157
 30
0.0
 11
72.289802
 21
166.800038
 31
0.0
  0
LINE
  5
1101
100
AcDbEntity
  8
10000_FRONT
370
    25
390
0
  6
CONTINUOUS
 62
     7
100
AcDbLine
 10
72.470466
 20
166.125062
 30
0.0
 11
72.462727
 21
166.153864
 31
0.0
  0
LINE
  5
1102
100
AcDbEntity
  8
10000_FRONT
370
    25
390
0
  6
CONTINUOUS
 62
     7
100
AcDbLine
 10
72.615872
 20
166.161965
 30
0.0
 11
72.608266
 21
166.190268
 31
0.0
  0
LINE
  5
1103
100
AcDbEntity
  8
10000_FRONT
370
    25
390
0
  6
CONTINUOUS
 62
     7
100
AcDbLine
 10
72.623112
 20
166.135033
 30
0.0
 11
72.615872
 21
166.161965
 31
0.0
  0
LINE
  5
1104
100
AcDbEntity
  8
10000_FRONT
370
    25
390
0
  6
CONTINUOUS
 62
     7
100
AcDbLine
 10
72.477838
 20
166.097643
 30
0.0
 11
72.470466
 21
166.125062
 31
0.0
  0
LINE
  5
1105
100
AcDbEntity
  8
10000_FRONT
370
    25
390
0
  6
CONTINUOUS
 62
     7
100
AcDbLine
 10
72.484977
 20
166.071102
 30
0.0
 11
72.477838
 21
166.097643
 31
0.0
  0
LINE
  5
1106
100
AcDbEntity
  8
10000_FRONT
370
    25
390
0
  6
CONTINUOUS
 62
     7
100
AcDbLine
 10
72.630152
 20
166.108861
 30
0.0
 11
72.623112
 21
166.135033
 31
0.0
  0
LINE
  5
1107
100
AcDbEntity
  8
10000_FRONT
370
    25
390
0
  6
CONTINUOUS
 62
     7
100
AcDbLine
 10
72.492202
 20
166.044257
 30
0.0
 11
72.484977
 21
166.071102
 31
0.0
  0
LINE
  5
1108
100
AcDbEntity
  8
10000_FRONT
370
    25
390
0
  6
CONTINUOUS
 62
     7
100
AcDbLine
 10
72.637276
 20
166.082394
 30
0.0
 11
72.630152
 21
166.108861
 31
0.0
  0
LINE
  5
1109
100
AcDbEntity
  8
10000_FRONT
370
    25
390
0
  6
CONTINUOUS
 62
     7
100
AcDbLine
 10
72.64437
 20
166.05605
 30
0.0
 11
72.637276
 21
166.082394
 31
0.0
  0
LINE
  5
110A
100
AcDbEntity
  8
10000_FRONT
370
    25
390
0
  6
CONTINUOUS
 62
     7
100
AcDbLine
 10
72.499401
 20
166.017527
 30
0.0
 11
72.492202
 21
166.044257
 31
0.0
  0
LINE
  5
110B
100
AcDbEntity
  8
10000_FRONT
370
    25
390
0
  6
CONTINUOUS
 62
     7
100
AcDbLine
 10
72.506452
 20
165.991361
 30
0.0
 11
72.499401
 21
166.017527
 31
0.0
  0
LINE
  5
110C
100
AcDbEntity
  8
10000_FRONT
370
    25
390
0
  6
CONTINUOUS
 62
     7
100
AcDbLine
 10
72.651321
 20
166.030259
 30
0.0
 11
72.64437
 21
166.05605
 31
0.0
  0
LINE
  5
110D
100
AcDbEntity
  8
10000_FRONT
370
    25
390
0
  6
CONTINUOUS
 62
     7
100
AcDbLine
 10
72.658024
 20
166.005401
 30
0.0
 11
72.651321
 21
166.030259
 31
0.0
  0
LINE
  5
110E
100
AcDbEntity
  8
10000_FRONT
370
    25
390
0
  6
CONTINUOUS
 62
     7
100
AcDbLine
 10
72.513249
 20
165.966157
 30
0.0
 11
72.506452
 21
165.991361
 31
0.0
  0
LINE
  5
110F
100
AcDbEntity
  8
10000_FRONT
370
    25
390
0
  6
CONTINUOUS
 62
     7
100
AcDbLine
 10
34.744647
 20
135.123249
 30
0.0
 11
34.725671
 21
135.188564
 31
0.0
  0
LINE
  5
1110
100
AcDbEntity
  8
10000_FRONT
370
    25
390
0
  6
CONTINUOUS
 62
     7
100
AcDbLine
 10
60.453652
 20
163.976899
 30
0.0
 11
60.416938
 21
164.099497
 31
0.0
  0
LINE
  5
1111
100
AcDbEntity
  8
10000_FRONT
370
    25
390
0
  6
CONTINUOUS
 62
     7
100
AcDbLine
 10
67.544897
 20
166.068751
 30
0.0
 11
67.47199
 21
166.308912
 31
0.0
  0
LINE
  5
1112
100
AcDbEntity
  8
10000_FRONT
370
    25
390
0
  6
CONTINUOUS
 62
     7
100
AcDbLine
 10
69.956173
 20
161.681217
 30
0.0
 11
69.88039
 21
161.922559
 31
0.0
  0
LINE
  5
1113
100
AcDbEntity
  8
10000_FRONT
370
    25
390
0
  6
CONTINUOUS
 62
     7
100
AcDbLine
 10
79.550533
 20
172.484608
 30
0.0
 11
79.536617
 21
172.526168
 31
0.0
  0
LINE
  5
1114
100
AcDbEntity
  8
10000_FRONT
370
    25
390
0
  6
CONTINUOUS
 62
     7
100
AcDbLine
 10
60.491003
 20
163.865724
 30
0.0
 11
60.453652
 21
163.976899
 31
0.0
  0
LINE
  5
1115
100
AcDbEntity
  8
10000_FRONT
370
    25
390
0
  6
CONTINUOUS
 62
     7
100
AcDbLine
 10
34.766807
 20
135.058467
 30
0.0
 11
34.744647
 21
135.123249
 31
0.0
  0
LINE
  5
1116
100
AcDbEntity
  8
10000_FRONT
370
    25
390
0
  6
CONTINUOUS
 62
     7
100
AcDbLine
 10
60.028777
 20
155.598601
 30
0.0
 11
59.974801
 21
155.755885
 31
0.0
  0
LINE
  5
1117
100
AcDbEntity
  8
10000_FRONT
370
    25
390
0
  6
CONTINUOUS
 62
     7
100
AcDbLine
 10
53.380777
 20
155.598601
 30
0.0
 11
53.326801
 21
155.755885
 31
0.0
  0
LINE
  5
1118
100
AcDbEntity
  8
10000_FRONT
370
    25
390
0
  6
CONTINUOUS
 62
     7
100
AcDbLine
 10
60.528266
 20
163.764995
 30
0.0
 11
60.491003
 21
163.865724
 31
0.0
  0
LINE
  5
1119
100
AcDbEntity
  8
10000_FRONT
370
    25
390
0
  6
CONTINUOUS
 62
     7
100
AcDbLine
 10
67.47199
 20
166.308912
 30
0.0
 11
67.383058
 21
166.54376
 31
0.0
  0
LINE
  5
111A
100
AcDbEntity
  8
10000_FRONT
370
    25
390
0
  6
CONTINUOUS
 62
     7
100
AcDbLine
 10
56.129556
 20
155.008261
 30
0.0
 11
55.966477
 21
155.427685
 31
0.0
  0
LINE
  5
111B
100
AcDbEntity
  8
10000_FRONT
370
    25
390
0
  6
CONTINUOUS
 62
     7
100
AcDbLine
 10
70.048046
 20
161.445389
 30
0.0
 11
69.956173
 21
161.681217
 31
0.0
  0
LINE
  5
111C
100
AcDbEntity
  8
10000_FRONT
370
    25
390
0
  6
CONTINUOUS
 62
     7
100
AcDbLine
 10
55.921689
 20
155.545125
 30
0.0
 11
55.564524
 21
156.461305
 31
0.0
  0
LINE
  5
111D
100
AcDbEntity
  8
10000_FRONT
370
    25
390
0
  6
CONTINUOUS
 62
     7
100
AcDbLine
 10
34.792043
 20
134.994487
 30
0.0
 11
34.766807
 21
135.058467
 31
0.0
  0
LINE
  5
111E
100
AcDbEntity
  8
10000_FRONT
370
    25
390
0
  6
CONTINUOUS
 62
     7
100
AcDbLine
 10
77.11231
 20
163.764995
 30
0.0
 11
77.035858
 21
163.953281
 31
0.0
  0
LINE
  5
111F
100
AcDbEntity
  8
10000_FRONT
370
    25
390
0
  6
CONTINUOUS
 62
     7
100
AcDbLine
 10
79.536617
 20
172.526168
 30
0.0
 11
79.519491
 21
172.567064
 31
0.0
  0
LINE
  5
1120
100
AcDbEntity
  8
10000_FRONT
370
    25
390
0
  6
CONTINUOUS
 62
     7
100
AcDbLine
 10
56.411322
 20
151.79676
 30
0.0
 11
55.865042
 21
153.09456
 31
0.0
  0
LINE
  5
1121
100
AcDbEntity
  8
10000_FRONT
370
    25
390
0
  6
CONTINUOUS
 62
     7
100
AcDbLine
 10
56.104232
 20
150.964996
 30
0.0
 11
55.510115
 21
152.367731
 31
0.0
  0
LINE
  5
1122
100
AcDbEntity
  8
10000_FRONT
370
    25
390
0
  6
CONTINUOUS
 62
     7
100
AcDbLine
 10
34.820226
 20
134.931564
 30
0.0
 11
34.792043
 21
134.994487
 31
0.0
  0
LINE
  5
1123
100
AcDbEntity
  8
10000_FRONT
370
    25
390
0
  6
CONTINUOUS
 62
     7
100
AcDbLine
 10
67.383058
 20
166.54376
 30
0.0
 11
67.278349
 21
166.772462
 31
0.0
  0
LINE
  5
1124
100
AcDbEntity
  8
10000_FRONT
370
    25
390
0
  6
CONTINUOUS
 62
     7
100
AcDbLine
 10
70.155742
 20
161.21591
 30
0.0
 11
70.048046
 21
161.445389
 31
0.0
  0
LINE
  5
1125
100
AcDbEntity
  8
10000_FRONT
370
    25
390
0
  6
CONTINUOUS
 62
     7
100
AcDbLine
 10
77.035858
 20
163.953281
 30
0.0
 11
76.934589
 21
164.167171
 31
0.0
  0
LINE
  5
1126
100
AcDbEntity
  8
10000_FRONT
370
    25
390
0
  6
CONTINUOUS
 62
     7
100
AcDbLine
 10
58.61649
 20
156.482538
 30
0.0
 11
58.56481
 21
156.588181
 31
0.0
  0
LINE
  5
1127
100
AcDbEntity
  8
10000_FRONT
370
    25
390
0
  6
CONTINUOUS
 62
     7
100
AcDbLine
 10
57.795357
 20
156.165086
 30
0.0
 11
57.711292
 21
156.33574
 31
0.0
  0
LINE
  5
1128
100
AcDbEntity
  8
10000_FRONT
370
    25
390
0
  6
CONTINUOUS
 62
     7
100
AcDbLine
 10
58.701704
 20
155.57763
 30
0.0
 11
58.63831
 21
155.706078
 31
0.0
  0
LINE
  5
1129
100
AcDbEntity
  8
10000_FRONT
370
    25
390
0
  6
CONTINUOUS
 62
     7
100
AcDbLine
 10
57.28689
 20
156.419624
 30
0.0
 11
57.209944
 21
156.574549
 31
0.0
  0
LINE
  5
112A
100
AcDbEntity
  8
10000_FRONT
370
    25
390
0
  6
CONTINUOUS
 62
     7
100
AcDbLine
 10
61.27569
 20
156.419624
 30
0.0
 11
61.198744
 21
156.574549
 31
0.0
  0
LINE
  5
112B
100
AcDbEntity
  8
10000_FRONT
370
    25
390
0
  6
CONTINUOUS
 62
     7
100
AcDbLine
 10
59.043418
 20
155.17839
 30
0.0
 11
58.947581
 21
155.371104
 31
0.0
  0
LINE
  5
112C
100
AcDbEntity
  8
10000_FRONT
370
    25
390
0
  6
CONTINUOUS
 62
     7
100
AcDbLine
 10
52.395418
 20
155.17839
 30
0.0
 11
52.299581
 21
155.371104
 31
0.0
  0
LINE
  5
112D
100
AcDbEntity
  8
10000_FRONT
370
    25
390
0
  6
CONTINUOUS
 62
     7
100
AcDbLine
 10
57.713589
 20
155.179964
 30
0.0
 11
57.628604
 21
155.350616
 31
0.0
  0
LINE
  5
112E
100
AcDbEntity
  8
10000_FRONT
370
    25
390
0
  6
CONTINUOUS
 62
     7
100
AcDbLine
 10
34.851221
 20
134.869968
 30
0.0
 11
34.820226
 21
134.931564
 31
0.0
  0
LINE
  5
112F
100
AcDbEntity
  8
10000_FRONT
370
    25
390
0
  6
CONTINUOUS
 62
     7
100
AcDbLine
 10
79.519491
 20
172.567064
 30
0.0
 11
79.499107
 21
172.607086
 31
0.0
  0
LINE
  5
1130
100
AcDbEntity
  8
10000_FRONT
370
    25
390
0
  6
CONTINUOUS
 62
     7
100
AcDbLine
 10
54.712904
 20
156.4191
 30
0.0
 11
54.63481
 21
156.571928
 31
0.0
  0
LINE
  5
1131
100
AcDbEntity
  8
10000_FRONT
370
    25
390
0
  6
CONTINUOUS
 62
     7
100
AcDbLine
 10
67.278349
 20
166.772462
 30
0.0
 11
67.158328
 21
166.993818
 31
0.0
  0
LINE
  5
1132
100
AcDbEntity
  8
10000_FRONT
370
    25
390
0
  6
CONTINUOUS
 62
     7
100
AcDbLine
 10
70.278705
 20
160.994112
 30
0.0
 11
70.155742
 21
161.21591
 31
0.0
  0
LINE
  5
1133
100
AcDbEntity
  8
10000_FRONT
370
    25
390
0
  6
CONTINUOUS
 62
     7
100
AcDbLine
 10
76.934589
 20
164.167171
 30
0.0
 11
76.804094
 21
164.402031
 31
0.0
  0
LINE
  5
1134
100
AcDbEntity
  8
10000_FRONT
370
    25
390
0
  6
CONTINUOUS
 62
     7
100
AcDbLine
 10
34.884891
 20
134.809955
 30
0.0
 11
34.851221
 21
134.869968
 31
0.0
  0
LINE
  5
1135
100
AcDbEntity
  8
10000_FRONT
370
    25
390
0
  6
CONTINUOUS
 62
     7
100
AcDbLine
 10
61.356498
 20
150.964996
 30
0.0
 11
60.592633
 21
152.315261
 31
0.0
  0
LINE
  5
1136
100
AcDbEntity
  8
10000_FRONT
370
    25
390
0
  6
CONTINUOUS
 62
     7
100
AcDbLine
 10
60.610199
 20
163.621076
 30
0.0
 11
60.528266
 21
163.764995
 31
0.0
  0
LINE
  5
1137
100
AcDbEntity
  8
10000_FRONT
370
    25
390
0
  6
CONTINUOUS
 62
     7
100
AcDbLine
 10
61.615749
 20
151.761266
 30
0.0
 11
60.850341
 21
153.09456
 31
0.0
  0
LINE
  5
1138
100
AcDbEntity
  8
10000_FRONT
370
    25
390
0
  6
CONTINUOUS
 62
     7
100
AcDbLine
 10
54.718187
 20
155.008261
 30
0.0
 11
54.225737
 21
155.830333
 31
0.0
  0
LINE
  5
1139
100
AcDbEntity
  8
10000_FRONT
370
    25
390
0
  6
CONTINUOUS
 62
     7
100
AcDbLine
 10
79.499107
 20
172.607086
 30
0.0
 11
79.475412
 21
172.646042
 31
0.0
  0
LINE
  5
113A
100
AcDbEntity
  8
10000_FRONT
370
    25
390
0
  6
CONTINUOUS
 62
     7
100
AcDbLine
 10
34.921106
 20
134.751792
 30
0.0
 11
34.884891
 21
134.809955
 31
0.0
  0
LINE
  5
113B
100
AcDbEntity
  8
10000_FRONT
370
    25
390
0
  6
CONTINUOUS
 62
     7
100
AcDbLine
 10
60.709025
 20
163.464151
 30
0.0
 11
60.610199
 21
163.621076
 31
0.0
  0
LINE
  5
113C
100
AcDbEntity
  8
10000_FRONT
370
    25
390
0
  6
CONTINUOUS
 62
     7
100
AcDbLine
 10
67.158328
 20
166.993818
 30
0.0
 11
67.023916
 21
167.206156
 31
0.0
  0
LINE
  5
113D
100
AcDbEntity
  8
10000_FRONT
370
    25
390
0
  6
CONTINUOUS
 62
     7
100
AcDbLine
 10
70.416054
 20
160.781518
 30
0.0
 11
70.278705
 21
160.994112
 31
0.0
  0
LINE
  5
113E
100
AcDbEntity
  8
10000_FRONT
370
    25
390
0
  6
CONTINUOUS
 62
     7
100
AcDbLine
 10
76.804094
 20
164.402031
 30
0.0
 11
76.641015
 21
164.651129
 31
0.0
  0
LINE
  5
113F
100
AcDbEntity
  8
10000_FRONT
370
    25
390
0
  6
CONTINUOUS
 62
     7
100
AcDbLine
 10
59.974801
 20
155.755885
 30
0.0
 11
59.901301
 21
155.867295
 31
0.0
  0
LINE
  5
1140
100
AcDbEntity
  8
10000_FRONT
370
    25
390
0
  6
CONTINUOUS
 62
     7
100
AcDbLine
 10
53.326801
 20
155.755885
 30
0.0
 11
53.253301
 21
155.867295
 31
0.0
  0
LINE
  5
1141
100
AcDbEntity
  8
10000_FRONT
370
    25
390
0
  6
CONTINUOUS
 62
     7
100
AcDbLine
 10
34.959848
 20
134.695579
 30
0.0
 11
34.921106
 21
134.751792
 31
0.0
  0
LINE
  5
1142
100
AcDbEntity
  8
10000_FRONT
370
    25
390
0
  6
CONTINUOUS
 62
     7
100
AcDbLine
 10
60.826944
 20
163.296114
 30
0.0
 11
60.709025
 21
163.464151
 31
0.0
  0
LINE
  5
1143
100
AcDbEntity
  8
10000_FRONT
370
    25
390
0
  6
CONTINUOUS
 62
     7
100
AcDbLine
 10
79.475412
 20
172.646042
 30
0.0
 11
79.448268
 21
172.683809
 31
0.0
  0
LINE
  5
1144
100
AcDbEntity
  8
10000_FRONT
370
    25
390
0
  6
CONTINUOUS
 62
     7
100
AcDbLine
 10
67.023916
 20
167.206156
 30
0.0
 11
66.875654
 21
167.408735
 31
0.0
  0
LINE
  5
1145
100
AcDbEntity
  8
10000_FRONT
370
    25
390
0
  6
CONTINUOUS
 62
     7
100
AcDbLine
 10
70.56726
 20
160.578836
 30
0.0
 11
70.416054
 21
160.781518
 31
0.0
  0
LINE
  5
1146
100
AcDbEntity
  8
10000_FRONT
370
    25
390
0
  6
CONTINUOUS
 62
     7
100
AcDbLine
 10
35.002664
 20
134.639392
 30
0.0
 11
34.959848
 21
134.695579
 31
0.0
  0
LINE
  5
1147
100
AcDbEntity
  8
10000_FRONT
370
    25
390
0
  6
CONTINUOUS
 62
     7
100
AcDbLine
 10
66.55004
 20
164.553089
 30
0.0
 11
65.658323
 21
165.715535
 31
0.0
  0
LINE
  5
1148
100
AcDbEntity
  8
10000_FRONT
370
    25
390
0
  6
CONTINUOUS
 62
     7
100
AcDbLine
 10
76.050041
 20
161.853089
 30
0.0
 11
75.158323
 21
163.015535
 31
0.0
  0
LINE
  5
1149
100
AcDbEntity
  8
10000_FRONT
370
    25
390
0
  6
CONTINUOUS
 62
     7
100
AcDbLine
 10
76.641015
 20
164.651129
 30
0.0
 11
76.454511
 21
164.893002
 31
0.0
  0
LINE
  5
114A
100
AcDbEntity
  8
10000_FRONT
370
    25
390
0
  6
CONTINUOUS
 62
     7
100
AcDbLine
 10
60.965501
 20
163.120058
 30
0.0
 11
60.826944
 21
163.296114
 31
0.0
  0
LINE
  5
114B
100
AcDbEntity
  8
10000_FRONT
370
    25
390
0
  6
CONTINUOUS
 62
     7
100
AcDbLine
 10
35.049878
 20
134.583187
 30
0.0
 11
35.002664
 21
134.639392
 31
0.0
  0
LINE
  5
114C
100
AcDbEntity
  8
10000_FRONT
370
    25
390
0
  6
CONTINUOUS
 62
     7
100
AcDbLine
 10
66.875654
 20
167.408735
 30
0.0
 11
66.714066
 21
167.600857
 31
0.0
  0
LINE
  5
114D
100
AcDbEntity
  8
10000_FRONT
370
    25
390
0
  6
CONTINUOUS
 62
     7
100
AcDbLine
 10
79.448268
 20
172.683809
 30
0.0
 11
79.417617
 21
172.720087
 31
0.0
  0
LINE
  5
114E
100
AcDbEntity
  8
10000_FRONT
370
    25
390
0
  6
CONTINUOUS
 62
     7
100
AcDbLine
 10
70.731799
 20
160.386764
 30
0.0
 11
70.56726
 21
160.578836
 31
0.0
  0
LINE
  5
114F
100
AcDbEntity
  8
10000_FRONT
370
    25
390
0
  6
CONTINUOUS
 62
     7
100
AcDbLine
 10
61.126244
 20
162.939075
 30
0.0
 11
60.965501
 21
163.120058
 31
0.0
  0
LINE
  5
1150
100
AcDbEntity
  8
10000_FRONT
370
    25
390
0
  6
CONTINUOUS
 62
     7
100
AcDbLine
 10
76.454511
 20
164.893002
 30
0.0
 11
76.249771
 21
165.119424
 31
0.0
  0
LINE
  5
1151
100
AcDbEntity
  8
10000_FRONT
370
    25
390
0
  6
CONTINUOUS
 62
     7
100
AcDbLine
 10
35.101236
 20
134.52774
 30
0.0
 11
35.049878
 21
134.583187
 31
0.0
  0
LINE
  5
1152
100
AcDbEntity
  8
10000_FRONT
370
    25
390
0
  6
CONTINUOUS
 62
     7
100
AcDbLine
 10
66.714066
 20
167.600857
 30
0.0
 11
66.539672
 21
167.781825
 31
0.0
  0
LINE
  5
1153
100
AcDbEntity
  8
10000_FRONT
370
    25
390
0
  6
CONTINUOUS
 62
     7
100
AcDbLine
 10
71.045916
 20
160.313279
 30
0.0
 11
71.030833
 21
160.328724
 31
0.0
  0
LINE
  5
1154
100
AcDbEntity
  8
10000_FRONT
370
    25
390
0
  6
CONTINUOUS
 62
     7
100
AcDbLine
 10
70.909143
 20
160.206003
 30
0.0
 11
70.731799
 21
160.386764
 31
0.0
  0
LINE
  5
1155
100
AcDbEntity
  8
10000_FRONT
370
    25
390
0
  6
CONTINUOUS
 62
     7
100
AcDbLine
 10
71.060984
 20
160.297988
 30
0.0
 11
71.045916
 21
160.313279
 31
0.0
  0
LINE
  5
1156
100
AcDbEntity
  8
10000_FRONT
370
    25
390
0
  6
CONTINUOUS
 62
     7
100
AcDbLine
 10
79.417617
 20
172.720087
 30
0.0
 11
79.38342
 21
172.754536
 31
0.0
  0
LINE
  5
1157
100
AcDbEntity
  8
10000_FRONT
370
    25
390
0
  6
CONTINUOUS
 62
     7
100
AcDbLine
 10
71.076064
 20
160.282886
 30
0.0
 11
71.060984
 21
160.297988
 31
0.0
  0
LINE
  5
1158
100
AcDbEntity
  8
10000_FRONT
370
    25
390
0
  6
CONTINUOUS
 62
     7
100
AcDbLine
 10
70.487478
 20
159.573266
 30
0.0
 11
70.381876
 21
159.678863
 31
0.0
  0
LINE
  5
1159
100
AcDbEntity
  8
10000_FRONT
370
    25
390
0
  6
CONTINUOUS
 62
     7
100
AcDbLine
 10
35.175004
 20
172.35796
 30
0.0
 11
35.135963
 21
172.396907
 31
0.0
  0
LINE
  5
115A
100
AcDbEntity
  8
10000_FRONT
370
    25
390
0
  6
CONTINUOUS
 62
     7
100
AcDbLine
 10
57.882639
 20
156.078056
 30
0.0
 11
57.795357
 21
156.165086
 31
0.0
  0
LINE
  5
115B
100
AcDbEntity
  8
10000_FRONT
370
    25
390
0
  6
CONTINUOUS
 62
     7
100
AcDbLine
 10
58.63831
 20
155.706078
 30
0.0
 11
58.496364
 21
155.84711
 31
0.0
  0
LINE
  5
115C
100
AcDbEntity
  8
10000_FRONT
370
    25
390
0
  6
CONTINUOUS
 62
     7
100
AcDbLine
 10
35.135963
 20
172.396907
 30
0.0
 11
35.096992
 21
172.435598
 31
0.0
  0
LINE
  5
115D
100
AcDbEntity
  8
10000_FRONT
370
    25
390
0
  6
CONTINUOUS
 62
     7
100
AcDbLine
 10
61.310677
 20
162.756296
 30
0.0
 11
61.126244
 21
162.939075
 31
0.0
  0
LINE
  5
115E
100
AcDbEntity
  8
10000_FRONT
370
    25
390
0
  6
CONTINUOUS
 62
     7
100
AcDbLine
 10
71.091172
 20
160.267955
 30
0.0
 11
71.076064
 21
160.282886
 31
0.0
  0
LINE
  5
115F
100
AcDbEntity
  8
10000_FRONT
370
    25
390
0
  6
CONTINUOUS
 62
     7
100
AcDbLine
 10
35.096992
 20
172.435598
 30
0.0
 11
35.058204
 21
172.473921
 31
0.0
  0
LINE
  5
1160
100
AcDbEntity
  8
10000_FRONT
370
    25
390
0
  6
CONTINUOUS
 62
     7
100
AcDbLine
 10
35.058204
 20
172.473921
 30
0.0
 11
35.019597
 21
172.51187
 31
0.0
  0
LINE
  5
1161
100
AcDbEntity
  8
10000_FRONT
370
    25
390
0
  6
CONTINUOUS
 62
     7
100
AcDbLine
 10
35.019597
 20
172.51187
 30
0.0
 11
34.981296
 21
172.549317
 31
0.0
  0
LINE
  5
1162
100
AcDbEntity
  8
10000_FRONT
370
    25
390
0
  6
CONTINUOUS
 62
     7
100
AcDbLine
 10
35.156486
 20
134.473819
 30
0.0
 11
35.101236
 21
134.52774
 31
0.0
  0
LINE
  5
1163
100
AcDbEntity
  8
10000_FRONT
370
    25
390
0
  6
CONTINUOUS
 62
     7
100
AcDbLine
 10
71.106444
 20
160.25306
 30
0.0
 11
71.091172
 21
160.267955
 31
0.0
  0
LINE
  5
1164
100
AcDbEntity
  8
10000_FRONT
370
    25
390
0
  6
CONTINUOUS
 62
     7
100
AcDbLine
 10
34.981296
 20
172.549317
 30
0.0
 11
34.943466
 21
172.586096
 31
0.0
  0
LINE
  5
1165
100
AcDbEntity
  8
10000_FRONT
370
    25
390
0
  6
CONTINUOUS
 62
     7
100
AcDbLine
 10
57.803396
 20
155.092933
 30
0.0
 11
57.713589
 21
155.179964
 31
0.0
  0
LINE
  5
1166
100
AcDbEntity
  8
10000_FRONT
370
    25
390
0
  6
CONTINUOUS
 62
     7
100
AcDbLine
 10
34.943466
 20
172.586096
 30
0.0
 11
34.906263
 21
172.622041
 31
0.0
  0
LINE
  5
1167
100
AcDbEntity
  8
10000_FRONT
370
    25
390
0
  6
CONTINUOUS
 62
     7
100
AcDbLine
 10
59.132996
 20
155.091884
 30
0.0
 11
59.043418
 21
155.17839
 31
0.0
  0
LINE
  5
1168
100
AcDbEntity
  8
10000_FRONT
370
    25
390
0
  6
CONTINUOUS
 62
     7
100
AcDbLine
 10
52.484996
 20
155.091884
 30
0.0
 11
52.395418
 21
155.17839
 31
0.0
  0
LINE
  5
1169
100
AcDbEntity
  8
10000_FRONT
370
    25
390
0
  6
CONTINUOUS
 62
     7
100
AcDbLine
 10
71.121905
 20
160.238179
 30
0.0
 11
71.106444
 21
160.25306
 31
0.0
  0
LINE
  5
116A
100
AcDbEntity
  8
10000_FRONT
370
    25
390
0
  6
CONTINUOUS
 62
     7
100
AcDbLine
 10
34.906263
 20
172.622041
 30
0.0
 11
34.86985
 21
172.65699
 31
0.0
  0
LINE
  5
116B
100
AcDbEntity
  8
10000_FRONT
370
    25
390
0
  6
CONTINUOUS
 62
     7
100
AcDbLine
 10
71.137522
 20
160.223285
 30
0.0
 11
71.121905
 21
160.238179
 31
0.0
  0
LINE
  5
116C
100
AcDbEntity
  8
10000_FRONT
370
    25
390
0
  6
CONTINUOUS
 62
     7
100
AcDbLine
 10
34.86985
 20
172.65699
 30
0.0
 11
34.834365
 21
172.690795
 31
0.0
  0
LINE
  5
116D
100
AcDbEntity
  8
10000_FRONT
370
    25
390
0
  6
CONTINUOUS
 62
     7
100
AcDbLine
 10
76.249771
 20
165.119424
 30
0.0
 11
76.027725
 21
165.329322
 31
0.0
  0
LINE
  5
116E
100
AcDbEntity
  8
10000_FRONT
370
    25
390
0
  6
CONTINUOUS
 62
     7
100
AcDbLine
 10
34.834365
 20
172.690795
 30
0.0
 11
34.799861
 21
172.723396
 31
0.0
  0
LINE
  5
116F
100
AcDbEntity
  8
10000_FRONT
370
    25
390
0
  6
CONTINUOUS
 62
     7
100
AcDbLine
 10
34.799861
 20
172.723396
 30
0.0
 11
34.766588
 21
172.754536
 31
0.0
  0
LINE
  5
1170
100
AcDbEntity
  8
10000_FRONT
370
    25
390
0
  6
CONTINUOUS
 62
     7
100
AcDbLine
 10
66.539672
 20
167.781825
 30
0.0
 11
66.353064
 21
167.950884
 31
0.0
  0
LINE
  5
1171
100
AcDbEntity
  8
10000_FRONT
370
    25
390
0
  6
CONTINUOUS
 62
     7
100
AcDbLine
 10
35.215366
 20
134.422184
 30
0.0
 11
35.156486
 21
134.473819
 31
0.0
  0
LINE
  5
1172
100
AcDbEntity
  8
10000_FRONT
370
    25
390
0
  6
CONTINUOUS
 62
     7
100
AcDbLine
 10
61.512222
 20
162.581605
 30
0.0
 11
61.310677
 21
162.756296
 31
0.0
  0
LINE
  5
1173
100
AcDbEntity
  8
10000_FRONT
370
    25
390
0
  6
CONTINUOUS
 62
     7
100
AcDbLine
 10
71.179467
 20
159.972066
 30
0.0
 11
71.0199
 21
160.10465
 31
0.0
  0
LINE
  5
1174
100
AcDbEntity
  8
10000_FRONT
370
    25
390
0
  6
CONTINUOUS
 62
     7
100
AcDbLine
 10
76.027725
 20
165.329322
 30
0.0
 11
75.790077
 21
165.521046
 31
0.0
  0
LINE
  5
1175
100
AcDbEntity
  8
10000_FRONT
370
    25
390
0
  6
CONTINUOUS
 62
     7
100
AcDbLine
 10
66.353064
 20
167.950884
 30
0.0
 11
66.155679
 21
168.106681
 31
0.0
  0
LINE
  5
1176
100
AcDbEntity
  8
10000_FRONT
370
    25
390
0
  6
CONTINUOUS
 62
     7
100
AcDbLine
 10
35.277374
 20
134.373401
 30
0.0
 11
35.215366
 21
134.422184
 31
0.0
  0
LINE
  5
1177
100
AcDbEntity
  8
10000_FRONT
370
    25
390
0
  6
CONTINUOUS
 62
     7
100
AcDbLine
 10
61.724697
 20
162.421317
 30
0.0
 11
61.512222
 21
162.581605
 31
0.0
  0
LINE
  5
1178
100
AcDbEntity
  8
10000_FRONT
370
    25
390
0
  6
CONTINUOUS
 62
     7
100
AcDbLine
 10
71.345859
 20
159.848737
 30
0.0
 11
71.179467
 21
159.972066
 31
0.0
  0
LINE
  5
1179
100
AcDbEntity
  8
10000_FRONT
370
    25
390
0
  6
CONTINUOUS
 62
     7
100
AcDbLine
 10
35.341796
 20
134.327888
 30
0.0
 11
35.277374
 21
134.373401
 31
0.0
  0
LINE
  5
117A
100
AcDbEntity
  8
10000_FRONT
370
    25
390
0
  6
CONTINUOUS
 62
     7
100
AcDbLine
 10
75.790077
 20
165.521046
 30
0.0
 11
75.538637
 21
165.69323
 31
0.0
  0
LINE
  5
117B
100
AcDbEntity
  8
10000_FRONT
370
    25
390
0
  6
CONTINUOUS
 62
     7
100
AcDbLine
 10
66.155679
 20
168.106681
 30
0.0
 11
65.948492
 21
168.248509
 31
0.0
  0
LINE
  5
117C
100
AcDbEntity
  8
10000_FRONT
370
    25
390
0
  6
CONTINUOUS
 62
     7
100
AcDbLine
 10
71.518672
 20
159.734923
 30
0.0
 11
71.345859
 21
159.848737
 31
0.0
  0
LINE
  5
117D
100
AcDbEntity
  8
10000_FRONT
370
    25
390
0
  6
CONTINUOUS
 62
     7
100
AcDbLine
 10
59.901301
 20
155.867295
 30
0.0
 11
59.791051
 21
155.939645
 31
0.0
  0
LINE
  5
117E
100
AcDbEntity
  8
10000_FRONT
370
    25
390
0
  6
CONTINUOUS
 62
     7
100
AcDbLine
 10
53.253301
 20
155.867295
 30
0.0
 11
53.143051
 21
155.939645
 31
0.0
  0
LINE
  5
117F
100
AcDbEntity
  8
10000_FRONT
370
    25
390
0
  6
CONTINUOUS
 62
     7
100
AcDbLine
 10
61.947324
 20
162.275926
 30
0.0
 11
61.724697
 21
162.421317
 31
0.0
  0
LINE
  5
1180
100
AcDbEntity
  8
10000_FRONT
370
    25
390
0
  6
CONTINUOUS
 62
     7
100
AcDbLine
 10
35.407913
 20
134.286068
 30
0.0
 11
35.341796
 21
134.327888
 31
0.0
  0
LINE
  5
1181
100
AcDbEntity
  8
10000_FRONT
370
    25
390
0
  6
CONTINUOUS
 62
     7
100
AcDbLine
 10
65.948492
 20
168.248509
 30
0.0
 11
65.732236
 21
168.375897
 31
0.0
  0
LINE
  5
1182
100
AcDbEntity
  8
10000_FRONT
370
    25
390
0
  6
CONTINUOUS
 62
     7
100
AcDbLine
 10
71.697503
 20
159.630881
 30
0.0
 11
71.518672
 21
159.734923
 31
0.0
  0
LINE
  5
1183
100
AcDbEntity
  8
10000_FRONT
370
    25
390
0
  6
CONTINUOUS
 62
     7
100
AcDbLine
 10
75.538637
 20
165.69323
 30
0.0
 11
75.274602
 21
165.845132
 31
0.0
  0
LINE
  5
1184
100
AcDbEntity
  8
10000_FRONT
370
    25
390
0
  6
CONTINUOUS
 62
     7
100
AcDbLine
 10
35.475004
 20
134.248344
 30
0.0
 11
35.407913
 21
134.286068
 31
0.0
  0
LINE
  5
1185
100
AcDbEntity
  8
10000_FRONT
370
    25
390
0
  6
CONTINUOUS
 62
     7
100
AcDbLine
 10
62.179323
 20
162.145931
 30
0.0
 11
61.947324
 21
162.275926
 31
0.0
  0
LINE
  5
1186
100
AcDbEntity
  8
10000_FRONT
370
    25
390
0
  6
CONTINUOUS
 62
     7
100
AcDbLine
 10
71.88195
 20
159.536869
 30
0.0
 11
71.697503
 21
159.630881
 31
0.0
  0
LINE
  5
1187
100
AcDbEntity
  8
10000_FRONT
370
    25
390
0
  6
CONTINUOUS
 62
     7
100
AcDbLine
 10
65.732236
 20
168.375897
 30
0.0
 11
65.507643
 21
168.488372
 31
0.0
  0
LINE
  5
1188
100
AcDbEntity
  8
10000_FRONT
370
    25
390
0
  6
CONTINUOUS
 62
     7
100
AcDbLine
 10
57.209944
 20
156.574549
 30
0.0
 11
57.053757
 21
156.652404
 31
0.0
  0
LINE
  5
1189
100
AcDbEntity
  8
10000_FRONT
370
    25
390
0
  6
CONTINUOUS
 62
     7
100
AcDbLine
 10
61.198744
 20
156.574549
 30
0.0
 11
61.042557
 21
156.652404
 31
0.0
  0
LINE
  5
118A
100
AcDbEntity
  8
10000_FRONT
370
    25
390
0
  6
CONTINUOUS
 62
     7
100
AcDbLine
 10
58.496364
 20
155.84711
 30
0.0
 11
58.259785
 21
155.962976
 31
0.0
  0
LINE
  5
118B
100
AcDbEntity
  8
10000_FRONT
370
    25
390
0
  6
CONTINUOUS
 62
     7
100
AcDbLine
 10
58.017006
 20
156.012783
 30
0.0
 11
57.882639
 21
156.078056
 31
0.0
  0
LINE
  5
118C
100
AcDbEntity
  8
10000_FRONT
370
    25
390
0
  6
CONTINUOUS
 62
     7
100
AcDbLine
 10
75.274602
 20
165.845132
 30
0.0
 11
74.999174
 21
165.976008
 31
0.0
  0
LINE
  5
118D
100
AcDbEntity
  8
10000_FRONT
370
    25
390
0
  6
CONTINUOUS
 62
     7
100
AcDbLine
 10
62.419917
 20
162.031828
 30
0.0
 11
62.179323
 21
162.145931
 31
0.0
  0
LINE
  5
118E
100
AcDbEntity
  8
10000_FRONT
370
    25
390
0
  6
CONTINUOUS
 62
     7
100
AcDbLine
 10
51.223117
 20
152.228845
 30
0.0
 11
50.840413
 21
152.40168
 31
0.0
  0
LINE
  5
118F
100
AcDbEntity
  8
10000_FRONT
370
    25
390
0
  6
CONTINUOUS
 62
     7
100
AcDbLine
 10
63.559117
 20
152.228845
 30
0.0
 11
63.176412
 21
152.40168
 31
0.0
  0
LINE
  5
1190
100
AcDbEntity
  8
10000_FRONT
370
    25
390
0
  6
CONTINUOUS
 62
     7
100
AcDbLine
 10
72.071608
 20
159.453146
 30
0.0
 11
71.88195
 21
159.536869
 31
0.0
  0
LINE
  5
1191
100
AcDbEntity
  8
10000_FRONT
370
    25
390
0
  6
CONTINUOUS
 62
     7
100
AcDbLine
 10
65.507643
 20
168.488372
 30
0.0
 11
65.275444
 21
168.585465
 31
0.0
  0
LINE
  5
1192
100
AcDbEntity
  8
10000_FRONT
370
    25
390
0
  6
CONTINUOUS
 62
     7
100
AcDbLine
 10
62.668286
 20
161.934126
 30
0.0
 11
62.419917
 21
162.031828
 31
0.0
  0
LINE
  5
1193
100
AcDbEntity
  8
10000_FRONT
370
    25
390
0
  6
CONTINUOUS
 62
     7
100
AcDbLine
 10
74.999174
 20
165.976008
 30
0.0
 11
74.713729
 21
166.085056
 31
0.0
  0
LINE
  5
1194
100
AcDbEntity
  8
10000_FRONT
370
    25
390
0
  6
CONTINUOUS
 62
     7
100
AcDbLine
 10
72.265917
 20
159.380024
 30
0.0
 11
72.071608
 21
159.453146
 31
0.0
  0
LINE
  5
1195
100
AcDbEntity
  8
10000_FRONT
370
    25
390
0
  6
CONTINUOUS
 62
     7
100
AcDbLine
 10
54.63481
 20
156.571928
 30
0.0
 11
54.39961
 21
156.652404
 31
0.0
  0
LINE
  5
1196
100
AcDbEntity
  8
10000_FRONT
370
    25
390
0
  6
CONTINUOUS
 62
     7
100
AcDbLine
 10
59.791051
 20
155.939645
 30
0.0
 11
59.633715
 21
155.993384
 31
0.0
  0
LINE
  5
1197
100
AcDbEntity
  8
10000_FRONT
370
    25
390
0
  6
CONTINUOUS
 62
     7
100
AcDbLine
 10
53.143051
 20
155.939645
 30
0.0
 11
52.985715
 21
155.993384
 31
0.0
  0
LINE
  5
1198
100
AcDbEntity
  8
10000_FRONT
370
    25
390
0
  6
CONTINUOUS
 62
     7
100
AcDbLine
 10
65.275444
 20
168.585465
 30
0.0
 11
65.037178
 21
168.666458
 31
0.0
  0
LINE
  5
1199
100
AcDbEntity
  8
10000_FRONT
370
    25
390
0
  6
CONTINUOUS
 62
     7
100
AcDbLine
 10
58.057201
 20
155.008261
 30
0.0
 11
57.803396
 21
155.092933
 31
0.0
  0
LINE
  5
119A
100
AcDbEntity
  8
10000_FRONT
370
    25
390
0
  6
CONTINUOUS
 62
     7
100
AcDbLine
 10
58.56481
 20
156.588181
 30
0.0
 11
58.371873
 21
156.652404
 31
0.0
  0
LINE
  5
119B
100
AcDbEntity
  8
10000_FRONT
370
    25
390
0
  6
CONTINUOUS
 62
     7
100
AcDbLine
 10
59.386801
 20
155.008261
 30
0.0
 11
59.132996
 21
155.091884
 31
0.0
  0
LINE
  5
119C
100
AcDbEntity
  8
10000_FRONT
370
    25
390
0
  6
CONTINUOUS
 62
     7
100
AcDbLine
 10
52.738801
 20
155.008261
 30
0.0
 11
52.484996
 21
155.091884
 31
0.0
  0
LINE
  5
119D
100
AcDbEntity
  8
10000_FRONT
370
    25
390
0
  6
CONTINUOUS
 62
     7
100
AcDbLine
 10
62.922513
 20
161.853637
 30
0.0
 11
62.668286
 21
161.934126
 31
0.0
  0
LINE
  5
119E
100
AcDbEntity
  8
10000_FRONT
370
    25
390
0
  6
CONTINUOUS
 62
     7
100
AcDbLine
 10
73.200097
 20
160.13035
 30
0.0
 11
72.246381
 21
160.431056
 31
0.0
  0
LINE
  5
119F
100
AcDbEntity
  8
10000_FRONT
370
    25
390
0
  6
CONTINUOUS
 62
     7
100
AcDbLine
 10
72.561677
 20
162.428701
 30
0.0
 11
71.894076
 21
162.639195
 31
0.0
  0
LINE
  5
11A0
100
AcDbEntity
  8
10000_FRONT
370
    25
390
0
  6
CONTINUOUS
 62
     7
100
AcDbLine
 10
74.755227
 20
161.737078
 30
0.0
 11
74.087625
 21
161.947572
 31
0.0
  0
LINE
  5
11A1
100
AcDbEntity
  8
10000_FRONT
370
    25
390
0
  6
CONTINUOUS
 62
     7
100
AcDbLine
 10
75.055932
 20
162.690795
 30
0.0
 11
74.38833
 21
162.901289
 31
0.0
  0
LINE
  5
11A2
100
AcDbEntity
  8
10000_FRONT
370
    25
390
0
  6
CONTINUOUS
 62
     7
100
AcDbLine
 10
63.700098
 20
162.830349
 30
0.0
 11
62.746381
 21
163.131055
 31
0.0
  0
LINE
  5
11A3
100
AcDbEntity
  8
10000_FRONT
370
    25
390
0
  6
CONTINUOUS
 62
     7
100
AcDbLine
 10
72.862383
 20
163.382418
 30
0.0
 11
72.194782
 21
163.592912
 31
0.0
  0
LINE
  5
11A4
100
AcDbEntity
  8
10000_FRONT
370
    25
390
0
  6
CONTINUOUS
 62
     7
100
AcDbLine
 10
74.703626
 20
164.898934
 30
0.0
 11
73.74991
 21
165.19964
 31
0.0
  0
LINE
  5
11A5
100
AcDbEntity
  8
10000_FRONT
370
    25
390
0
  6
CONTINUOUS
 62
     7
100
AcDbLine
 10
63.061677
 20
165.128701
 30
0.0
 11
62.394076
 21
165.339195
 31
0.0
  0
LINE
  5
11A6
100
AcDbEntity
  8
10000_FRONT
370
    25
390
0
  6
CONTINUOUS
 62
     7
100
AcDbLine
 10
65.255227
 20
164.437078
 30
0.0
 11
64.587624
 21
164.647572
 31
0.0
  0
LINE
  5
11A7
100
AcDbEntity
  8
10000_FRONT
370
    25
390
0
  6
CONTINUOUS
 62
     7
100
AcDbLine
 10
63.362383
 20
166.082418
 30
0.0
 11
62.694782
 21
166.292912
 31
0.0
  0
LINE
  5
11A8
100
AcDbEntity
  8
10000_FRONT
370
    25
390
0
  6
CONTINUOUS
 62
     7
100
AcDbLine
 10
65.555932
 20
165.390795
 30
0.0
 11
64.88833
 21
165.601289
 31
0.0
  0
LINE
  5
11A9
100
AcDbEntity
  8
10000_FRONT
370
    25
390
0
  6
CONTINUOUS
 62
     7
100
AcDbLine
 10
65.203627
 20
167.598934
 30
0.0
 11
64.24991
 21
167.89964
 31
0.0
  0
LINE
  5
11AA
100
AcDbEntity
  8
10000_FRONT
370
    25
390
0
  6
CONTINUOUS
 62
     7
100
AcDbLine
 10
72.463677
 20
159.31796
 30
0.0
 11
72.265917
 21
159.380024
 31
0.0
  0
LINE
  5
11AB
100
AcDbEntity
  8
10000_FRONT
370
    25
390
0
  6
CONTINUOUS
 62
     7
100
AcDbLine
 10
74.713729
 20
166.085056
 30
0.0
 11
74.421087
 21
166.171163
 31
0.0
  0
LINE
  5
11AC
100
AcDbEntity
  8
10000_FRONT
370
    25
390
0
  6
CONTINUOUS
 62
     7
100
AcDbLine
 10
76.752874
 20
161.710675
 30
0.0
 11
76.73356
 21
161.716003
 31
0.0
  0
LINE
  5
11AD
100
AcDbEntity
  8
10000_FRONT
370
    25
390
0
  6
CONTINUOUS
 62
     7
100
AcDbLine
 10
76.793586
 20
161.855048
 30
0.0
 11
76.773652
 21
161.860547
 31
0.0
  0
LINE
  5
11AE
100
AcDbEntity
  8
10000_FRONT
370
    25
390
0
  6
CONTINUOUS
 62
     7
100
AcDbLine
 10
76.773328
 20
161.705045
 30
0.0
 11
76.752874
 21
161.710675
 31
0.0
  0
LINE
  5
11AF
100
AcDbEntity
  8
10000_FRONT
370
    25
390
0
  6
CONTINUOUS
 62
     7
100
AcDbLine
 10
76.814721
 20
161.849233
 30
0.0
 11
76.793586
 21
161.855048
 31
0.0
  0
LINE
  5
11B0
100
AcDbEntity
  8
10000_FRONT
370
    25
390
0
  6
CONTINUOUS
 62
     7
100
AcDbLine
 10
76.794757
 20
161.699161
 30
0.0
 11
76.773328
 21
161.705045
 31
0.0
  0
LINE
  5
11B1
100
AcDbEntity
  8
10000_FRONT
370
    25
390
0
  6
CONTINUOUS
 62
     7
100
AcDbLine
 10
76.83686
 20
161.843155
 30
0.0
 11
76.814721
 21
161.849233
 31
0.0
  0
LINE
  5
11B2
100
AcDbEntity
  8
10000_FRONT
370
    25
390
0
  6
CONTINUOUS
 62
     7
100
AcDbLine
 10
76.816982
 20
161.693073
 30
0.0
 11
76.794757
 21
161.699161
 31
0.0
  0
LINE
  5
11B3
100
AcDbEntity
  8
10000_FRONT
370
    25
390
0
  6
CONTINUOUS
 62
     7
100
AcDbLine
 10
76.859802
 20
161.836874
 30
0.0
 11
76.83686
 21
161.843155
 31
0.0
  0
LINE
  5
11B4
100
AcDbEntity
  8
10000_FRONT
370
    25
390
0
  6
CONTINUOUS
 62
     7
100
AcDbLine
 10
76.839759
 20
161.686846
 30
0.0
 11
76.816982
 21
161.693073
 31
0.0
  0
LINE
  5
11B5
100
AcDbEntity
  8
10000_FRONT
370
    25
390
0
  6
CONTINUOUS
 62
     7
100
AcDbLine
 10
76.883275
 20
161.830459
 30
0.0
 11
76.859802
 21
161.836874
 31
0.0
  0
LINE
  5
11B6
100
AcDbEntity
  8
10000_FRONT
370
    25
390
0
  6
CONTINUOUS
 62
     7
100
AcDbLine
 10
76.862806
 20
161.680559
 30
0.0
 11
76.839759
 21
161.686846
 31
0.0
  0
LINE
  5
11B7
100
AcDbEntity
  8
10000_FRONT
370
    25
390
0
  6
CONTINUOUS
 62
     7
100
AcDbLine
 10
76.90697
 20
161.823997
 30
0.0
 11
76.883275
 21
161.830459
 31
0.0
  0
LINE
  5
11B8
100
AcDbEntity
  8
10000_FRONT
370
    25
390
0
  6
CONTINUOUS
 62
     7
100
AcDbLine
 10
76.885837
 20
161.674287
 30
0.0
 11
76.862806
 21
161.680559
 31
0.0
  0
LINE
  5
11B9
100
AcDbEntity
  8
10000_FRONT
370
    25
390
0
  6
CONTINUOUS
 62
     7
100
AcDbLine
 10
76.93058
 20
161.817571
 30
0.0
 11
76.90697
 21
161.823997
 31
0.0
  0
LINE
  5
11BA
100
AcDbEntity
  8
10000_FRONT
370
    25
390
0
  6
CONTINUOUS
 62
     7
100
AcDbLine
 10
76.908609
 20
161.668097
 30
0.0
 11
76.885837
 21
161.674287
 31
0.0
  0
LINE
  5
11BB
100
AcDbEntity
  8
10000_FRONT
370
    25
390
0
  6
CONTINUOUS
 62
     7
100
AcDbLine
 10
76.954029
 20
161.8112
 30
0.0
 11
76.93058
 21
161.817571
 31
0.0
  0
LINE
  5
11BC
100
AcDbEntity
  8
10000_FRONT
370
    25
390
0
  6
CONTINUOUS
 62
     7
100
AcDbLine
 10
76.932115
 20
161.661718
 30
0.0
 11
76.908609
 21
161.668097
 31
0.0
  0
LINE
  5
11BD
100
AcDbEntity
  8
10000_FRONT
370
    25
390
0
  6
CONTINUOUS
 62
     7
100
AcDbLine
 10
76.97853
 20
161.804554
 30
0.0
 11
76.954029
 21
161.8112
 31
0.0
  0
LINE
  5
11BE
100
AcDbEntity
  8
10000_FRONT
370
    25
390
0
  6
CONTINUOUS
 62
     7
100
AcDbLine
 10
76.956685
 20
161.65506
 30
0.0
 11
76.932115
 21
161.661718
 31
0.0
  0
LINE
  5
11BF
100
AcDbEntity
  8
10000_FRONT
370
    25
390
0
  6
CONTINUOUS
 62
     7
100
AcDbLine
 10
77.00407
 20
161.797638
 30
0.0
 11
76.97853
 21
161.804554
 31
0.0
  0
LINE
  5
11C0
100
AcDbEntity
  8
10000_FRONT
370
    25
390
0
  6
CONTINUOUS
 62
     7
100
AcDbLine
 10
76.982068
 20
161.648195
 30
0.0
 11
76.956685
 21
161.65506
 31
0.0
  0
LINE
  5
11C1
100
AcDbEntity
  8
10000_FRONT
370
    25
390
0
  6
CONTINUOUS
 62
     7
100
AcDbLine
 10
77.03037
 20
161.790528
 30
0.0
 11
77.00407
 21
161.797638
 31
0.0
  0
LINE
  5
11C2
100
AcDbEntity
  8
10000_FRONT
370
    25
390
0
  6
CONTINUOUS
 62
     7
100
AcDbLine
 10
77.609073
 20
161.481419
 30
0.0
 11
76.73356
 21
161.716003
 31
0.0
  0
LINE
  5
11C3
100
AcDbEntity
  8
10000_FRONT
370
    25
390
0
  6
CONTINUOUS
 62
     7
100
AcDbLine
 10
65.037178
 20
168.666458
 30
0.0
 11
64.794416
 21
168.730853
 31
0.0
  0
LINE
  5
11C4
100
AcDbEntity
  8
10000_FRONT
370
    25
390
0
  6
CONTINUOUS
 62
     7
100
AcDbLine
 10
72.664317
 20
159.267091
 30
0.0
 11
72.463677
 21
159.31796
 31
0.0
  0
LINE
  5
11C5
100
AcDbEntity
  8
10000_FRONT
370
    25
390
0
  6
CONTINUOUS
 62
     7
100
AcDbLine
 10
63.181204
 20
161.79074
 30
0.0
 11
62.922513
 21
161.853637
 31
0.0
  0
LINE
  5
11C6
100
AcDbEntity
  8
10000_FRONT
370
    25
390
0
  6
CONTINUOUS
 62
     7
100
AcDbLine
 10
74.421087
 20
166.171163
 30
0.0
 11
74.122989
 21
166.233915
 31
0.0
  0
LINE
  5
11C7
100
AcDbEntity
  8
10000_FRONT
370
    25
390
0
  6
CONTINUOUS
 62
     7
100
AcDbLine
 10
72.867367
 20
159.227506
 30
0.0
 11
72.664317
 21
159.267091
 31
0.0
  0
LINE
  5
11C8
100
AcDbEntity
  8
10000_FRONT
370
    25
390
0
  6
CONTINUOUS
 62
     7
100
AcDbLine
 10
64.794416
 20
168.730853
 30
0.0
 11
64.548011
 21
168.778484
 31
0.0
  0
LINE
  5
11C9
100
AcDbEntity
  8
10000_FRONT
370
    25
390
0
  6
CONTINUOUS
 62
     7
100
AcDbLine
 10
60.607759
 20
166.030263
 30
0.0
 11
60.590742
 21
166.03347
 31
0.0
  0
LINE
  5
11CA
100
AcDbEntity
  8
10000_FRONT
370
    25
390
0
  6
CONTINUOUS
 62
     7
100
AcDbLine
 10
60.578848
 20
165.883066
 30
0.0
 11
60.561243
 21
165.886381
 31
0.0
  0
LINE
  5
11CB
100
AcDbEntity
  8
10000_FRONT
370
    25
390
0
  6
CONTINUOUS
 62
     7
100
AcDbLine
 10
60.590742
 20
166.03347
 30
0.0
 11
60.573205
 21
166.03676
 31
0.0
  0
LINE
  5
11CC
100
AcDbEntity
  8
10000_FRONT
370
    25
390
0
  6
CONTINUOUS
 62
     7
100
AcDbLine
 10
60.561243
 20
165.886381
 30
0.0
 11
60.543107
 21
165.88978
 31
0.0
  0
LINE
  5
11CD
100
AcDbEntity
  8
10000_FRONT
370
    25
390
0
  6
CONTINUOUS
 62
     7
100
AcDbLine
 10
60.573205
 20
166.03676
 30
0.0
 11
60.555226
 21
166.040117
 31
0.0
  0
LINE
  5
11CE
100
AcDbEntity
  8
10000_FRONT
370
    25
390
0
  6
CONTINUOUS
 62
     7
100
AcDbLine
 10
60.543107
 20
165.88978
 30
0.0
 11
60.524534
 21
165.893243
 31
0.0
  0
LINE
  5
11CF
100
AcDbEntity
  8
10000_FRONT
370
    25
390
0
  6
CONTINUOUS
 62
     7
100
AcDbLine
 10
60.555226
 20
166.040117
 30
0.0
 11
60.536938
 21
166.043517
 31
0.0
  0
LINE
  5
11D0
100
AcDbEntity
  8
10000_FRONT
370
    25
390
0
  6
CONTINUOUS
 62
     7
100
AcDbLine
 10
60.524534
 20
165.893243
 30
0.0
 11
60.505675
 21
165.896745
 31
0.0
  0
LINE
  5
11D1
100
AcDbEntity
  8
10000_FRONT
370
    25
390
0
  6
CONTINUOUS
 62
     7
100
AcDbLine
 10
60.536938
 20
166.043517
 30
0.0
 11
60.518482
 21
166.046933
 31
0.0
  0
LINE
  5
11D2
100
AcDbEntity
  8
10000_FRONT
370
    25
390
0
  6
CONTINUOUS
 62
     7
100
AcDbLine
 10
60.505675
 20
165.896745
 30
0.0
 11
60.486683
 21
165.900257
 31
0.0
  0
LINE
  5
11D3
100
AcDbEntity
  8
10000_FRONT
370
    25
390
0
  6
CONTINUOUS
 62
     7
100
AcDbLine
 10
60.518482
 20
166.046933
 30
0.0
 11
60.5
 21
166.050342
 31
0.0
  0
LINE
  5
11D4
100
AcDbEntity
  8
10000_FRONT
370
    25
390
0
  6
CONTINUOUS
 62
     7
100
AcDbLine
 10
60.486683
 20
165.900257
 30
0.0
 11
60.46771
 21
165.903751
 31
0.0
  0
LINE
  5
11D5
100
AcDbEntity
  8
10000_FRONT
370
    25
390
0
  6
CONTINUOUS
 62
     7
100
AcDbLine
 10
60.5
 20
166.050342
 30
0.0
 11
60.481632
 21
166.053716
 31
0.0
  0
LINE
  5
11D6
100
AcDbEntity
  8
10000_FRONT
370
    25
390
0
  6
CONTINUOUS
 62
     7
100
AcDbLine
 10
60.46771
 20
165.903751
 30
0.0
 11
60.448911
 21
165.9072
 31
0.0
  0
LINE
  5
11D7
100
AcDbEntity
  8
10000_FRONT
370
    25
390
0
  6
CONTINUOUS
 62
     7
100
AcDbLine
 10
60.481632
 20
166.053716
 30
0.0
 11
60.463388
 21
166.057056
 31
0.0
  0
LINE
  5
11D8
100
AcDbEntity
  8
10000_FRONT
370
    25
390
0
  6
CONTINUOUS
 62
     7
100
AcDbLine
 10
60.448911
 20
165.9072
 30
0.0
 11
60.429981
 21
165.91066
 31
0.0
  0
LINE
  5
11D9
100
AcDbEntity
  8
10000_FRONT
370
    25
390
0
  6
CONTINUOUS
 62
     7
100
AcDbLine
 10
60.463388
 20
166.057056
 30
0.0
 11
60.444503
 21
166.060501
 31
0.0
  0
LINE
  5
11DA
100
AcDbEntity
  8
10000_FRONT
370
    25
390
0
  6
CONTINUOUS
 62
     7
100
AcDbLine
 10
60.429981
 20
165.91066
 30
0.0
 11
60.410267
 21
165.914251
 31
0.0
  0
LINE
  5
11DB
100
AcDbEntity
  8
10000_FRONT
370
    25
390
0
  6
CONTINUOUS
 62
     7
100
AcDbLine
 10
60.444503
 20
166.060501
 30
0.0
 11
60.424938
 21
166.064056
 31
0.0
  0
LINE
  5
11DC
100
AcDbEntity
  8
10000_FRONT
370
    25
390
0
  6
CONTINUOUS
 62
     7
100
AcDbLine
 10
60.410267
 20
165.914251
 30
0.0
 11
60.389893
 21
165.917948
 31
0.0
  0
LINE
  5
11DD
100
AcDbEntity
  8
10000_FRONT
370
    25
390
0
  6
CONTINUOUS
 62
     7
100
AcDbLine
 10
60.424938
 20
166.064056
 30
0.0
 11
60.40483
 21
166.067699
 31
0.0
  0
LINE
  5
11DE
100
AcDbEntity
  8
10000_FRONT
370
    25
390
0
  6
CONTINUOUS
 62
     7
100
AcDbLine
 10
60.389893
 20
165.917948
 30
0.0
 11
60.369001
 21
165.921727
 31
0.0
  0
LINE
  5
11DF
100
AcDbEntity
  8
10000_FRONT
370
    25
390
0
  6
CONTINUOUS
 62
     7
100
AcDbLine
 10
60.607759
 20
166.030263
 30
0.0
 11
59.751195
 21
166.18135
 31
0.0
  0
LINE
  5
11E0
100
AcDbEntity
  8
10000_FRONT
370
    25
390
0
  6
CONTINUOUS
 62
     7
100
AcDbLine
 10
63.443453
 20
161.745603
 30
0.0
 11
63.181204
 21
161.79074
 31
0.0
  0
LINE
  5
11E1
100
AcDbEntity
  8
10000_FRONT
370
    25
390
0
  6
CONTINUOUS
 62
     7
100
AcDbLine
 10
73.072359
 20
159.199298
 30
0.0
 11
72.867367
 21
159.227506
 31
0.0
  0
LINE
  5
11E2
100
AcDbEntity
  8
10000_FRONT
370
    25
390
0
  6
CONTINUOUS
 62
     7
100
AcDbLine
 10
74.122989
 20
166.233915
 30
0.0
 11
73.820815
 21
166.273052
 31
0.0
  0
LINE
  5
11E3
100
AcDbEntity
  8
10000_FRONT
370
    25
390
0
  6
CONTINUOUS
 62
     7
100
AcDbLine
 10
64.548011
 20
168.778484
 30
0.0
 11
64.298817
 21
168.809181
 31
0.0
  0
LINE
  5
11E4
100
AcDbEntity
  8
10000_FRONT
370
    25
390
0
  6
CONTINUOUS
 62
     7
100
AcDbLine
 10
63.708355
 20
161.718397
 30
0.0
 11
63.443453
 21
161.745603
 31
0.0
  0
LINE
  5
11E5
100
AcDbEntity
  8
10000_FRONT
370
    25
390
0
  6
CONTINUOUS
 62
     7
100
AcDbLine
 10
73.278823
 20
159.18256
 30
0.0
 11
73.072359
 21
159.199298
 31
0.0
  0
LINE
  5
11E6
100
AcDbEntity
  8
10000_FRONT
370
    25
390
0
  6
CONTINUOUS
 62
     7
100
AcDbLine
 10
64.298817
 20
168.809181
 30
0.0
 11
64.047686
 21
168.822776
 31
0.0
  0
LINE
  5
11E7
100
AcDbEntity
  8
10000_FRONT
370
    25
390
0
  6
CONTINUOUS
 62
     7
100
AcDbLine
 10
73.820815
 20
166.273052
 30
0.0
 11
73.515951
 21
166.288312
 31
0.0
  0
LINE
  5
11E8
100
AcDbEntity
  8
10000_FRONT
370
    25
390
0
  6
CONTINUOUS
 62
     7
100
AcDbLine
 10
63.975004
 20
161.70929
 30
0.0
 11
63.708355
 21
161.718397
 31
0.0
  0
LINE
  5
11E9
100
AcDbEntity
  8
10000_FRONT
370
    25
390
0
  6
CONTINUOUS
 62
     7
100
AcDbLine
 10
64.046757
 20
168.718172
 30
0.0
 11
64.025308
 21
168.718745
 31
0.0
  0
LINE
  5
11EA
100
AcDbEntity
  8
10000_FRONT
370
    25
390
0
  6
CONTINUOUS
 62
     7
100
AcDbLine
 10
73.486289
 20
159.177381
 30
0.0
 11
73.278823
 21
159.18256
 31
0.0
  0
LINE
  5
11EB
100
AcDbEntity
  8
10000_FRONT
370
    25
390
0
  6
CONTINUOUS
 62
     7
100
AcDbLine
 10
64.025308
 20
168.718745
 30
0.0
 11
64.003859
 21
168.719176
 31
0.0
  0
LINE
  5
11EC
100
AcDbEntity
  8
10000_FRONT
370
    25
390
0
  6
CONTINUOUS
 62
     7
100
AcDbLine
 10
64.003859
 20
168.719176
 30
0.0
 11
63.982414
 21
168.719467
 31
0.0
  0
LINE
  5
11ED
100
AcDbEntity
  8
10000_FRONT
370
    25
390
0
  6
CONTINUOUS
 62
     7
100
AcDbLine
 10
63.982414
 20
168.719467
 30
0.0
 11
63.960978
 21
168.719619
 31
0.0
  0
LINE
  5
11EE
100
AcDbEntity
  8
10000_FRONT
370
    25
390
0
  6
CONTINUOUS
 62
     7
100
AcDbLine
 10
63.960978
 20
168.719619
 30
0.0
 11
63.939556
 21
168.719633
 31
0.0
  0
LINE
  5
11EF
100
AcDbEntity
  8
10000_FRONT
370
    25
390
0
  6
CONTINUOUS
 62
     7
100
AcDbLine
 10
64.046689
 20
169.660261
 30
0.0
 11
63.897355
 21
169.660272
 31
0.0
  0
LINE
  5
11F0
100
AcDbEntity
  8
10000_FRONT
370
    25
390
0
  6
CONTINUOUS
 62
     7
100
AcDbLine
 10
36.175004
 20
134.074997
 30
0.0
 11
77.975004
 21
134.074997
 31
0.0
  0
LINE
  5
11F1
100
AcDbEntity
  8
10000_FRONT
370
    25
390
0
  6
CONTINUOUS
 62
     7
100
AcDbLine
 10
79.349599
 20
134.974994
 30
0.0
 11
79.575004
 21
134.974994
 31
0.0
  0
LINE
  5
11F2
100
AcDbEntity
  8
10000_FRONT
370
    25
390
0
  6
CONTINUOUS
 62
     7
100
AcDbLine
 10
34.575004
 20
134.974994
 30
0.0
 11
34.800409
 21
134.974994
 31
0.0
  0
LINE
  5
11F3
100
AcDbEntity
  8
10000_FRONT
370
    25
390
0
  6
CONTINUOUS
 62
     7
100
AcDbLine
 10
79.475004
 20
135.574997
 30
0.0
 11
79.575004
 21
135.574997
 31
0.0
  0
LINE
  5
11F4
100
AcDbEntity
  8
10000_FRONT
370
    25
390
0
  6
CONTINUOUS
 62
     7
100
AcDbLine
 10
34.575004
 20
135.574997
 30
0.0
 11
34.675004
 21
135.574997
 31
0.0
  0
LINE
  5
11F5
100
AcDbEntity
  8
10000_FRONT
370
    25
390
0
  6
CONTINUOUS
 62
     7
100
AcDbLine
 10
35.925004
 20
142.424995
 30
0.0
 11
38.925004
 21
142.424995
 31
0.0
  0
LINE
  5
11F6
100
AcDbEntity
  8
10000_FRONT
370
    25
390
0
  6
CONTINUOUS
 62
     7
100
AcDbLine
 10
43.125004
 20
142.424995
 30
0.0
 11
46.125004
 21
142.424995
 31
0.0
  0
LINE
  5
11F7
100
AcDbEntity
  8
10000_FRONT
370
    25
390
0
  6
CONTINUOUS
 62
     7
100
AcDbLine
 10
50.325004
 20
142.424995
 30
0.0
 11
53.325004
 21
142.424995
 31
0.0
  0
LINE
  5
11F8
100
AcDbEntity
  8
10000_FRONT
370
    25
390
0
  6
CONTINUOUS
 62
     7
100
AcDbLine
 10
57.525004
 20
142.424995
 30
0.0
 11
60.525004
 21
142.424995
 31
0.0
  0
LINE
  5
11F9
100
AcDbEntity
  8
10000_FRONT
370
    25
390
0
  6
CONTINUOUS
 62
     7
100
AcDbLine
 10
64.725004
 20
142.424995
 30
0.0
 11
67.725004
 21
142.424995
 31
0.0
  0
LINE
  5
11FA
100
AcDbEntity
  8
10000_FRONT
370
    25
390
0
  6
CONTINUOUS
 62
     7
100
AcDbLine
 10
71.925004
 20
142.424995
 30
0.0
 11
74.925004
 21
142.424995
 31
0.0
  0
LINE
  5
11FB
100
AcDbEntity
  8
10000_FRONT
370
    25
390
0
  6
CONTINUOUS
 62
     7
100
AcDbLine
 10
39.275005
 20
142.424995
 30
0.0
 11
42.275004
 21
142.424995
 31
0.0
  0
LINE
  5
11FC
100
AcDbEntity
  8
10000_FRONT
370
    25
390
0
  6
CONTINUOUS
 62
     7
100
AcDbLine
 10
46.475004
 20
142.424995
 30
0.0
 11
49.475004
 21
142.424995
 31
0.0
  0
LINE
  5
11FD
100
AcDbEntity
  8
10000_FRONT
370
    25
390
0
  6
CONTINUOUS
 62
     7
100
AcDbLine
 10
53.675004
 20
142.424995
 30
0.0
 11
56.675004
 21
142.424995
 31
0.0
  0
LINE
  5
11FE
100
AcDbEntity
  8
10000_FRONT
370
    25
390
0
  6
CONTINUOUS
 62
     7
100
AcDbLine
 10
60.875004
 20
142.424995
 30
0.0
 11
63.875004
 21
142.424995
 31
0.0
  0
LINE
  5
11FF
100
AcDbEntity
  8
10000_FRONT
370
    25
390
0
  6
CONTINUOUS
 62
     7
100
AcDbLine
 10
68.075004
 20
142.424995
 30
0.0
 11
71.075004
 21
142.424995
 31
0.0
  0
LINE
  5
1200
100
AcDbEntity
  8
10000_FRONT
370
    25
390
0
  6
CONTINUOUS
 62
     7
100
AcDbLine
 10
75.275005
 20
142.424995
 30
0.0
 11
78.275005
 21
142.424995
 31
0.0
  0
LINE
  5
1201
100
AcDbEntity
  8
10000_FRONT
370
    25
390
0
  6
CONTINUOUS
 62
     7
100
AcDbLine
 10
35.925004
 20
144.022707
 30
0.0
 11
38.925004
 21
144.022707
 31
0.0
  0
LINE
  5
1202
100
AcDbEntity
  8
10000_FRONT
370
    25
390
0
  6
CONTINUOUS
 62
     7
100
AcDbLine
 10
43.125004
 20
144.022707
 30
0.0
 11
46.125004
 21
144.022707
 31
0.0
  0
LINE
  5
1203
100
AcDbEntity
  8
10000_FRONT
370
    25
390
0
  6
CONTINUOUS
 62
     7
100
AcDbLine
 10
50.325004
 20
144.022707
 30
0.0
 11
53.325004
 21
144.022707
 31
0.0
  0
LINE
  5
1204
100
AcDbEntity
  8
10000_FRONT
370
    25
390
0
  6
CONTINUOUS
 62
     7
100
AcDbLine
 10
57.525004
 20
144.022707
 30
0.0
 11
60.525004
 21
144.022707
 31
0.0
  0
LINE
  5
1205
100
AcDbEntity
  8
10000_FRONT
370
    25
390
0
  6
CONTINUOUS
 62
     7
100
AcDbLine
 10
64.725004
 20
144.022707
 30
0.0
 11
67.725004
 21
144.022707
 31
0.0
  0
LINE
  5
1206
100
AcDbEntity
  8
10000_FRONT
370
    25
390
0
  6
CONTINUOUS
 62
     7
100
AcDbLine
 10
71.925004
 20
144.022707
 30
0.0
 11
74.925004
 21
144.022707
 31
0.0
  0
LINE
  5
1207
100
AcDbEntity
  8
10000_FRONT
370
    25
390
0
  6
CONTINUOUS
 62
     7
100
AcDbLine
 10
39.275005
 20
144.022707
 30
0.0
 11
42.275004
 21
144.022707
 31
0.0
  0
LINE
  5
1208
100
AcDbEntity
  8
10000_FRONT
370
    25
390
0
  6
CONTINUOUS
 62
     7
100
AcDbLine
 10
46.475004
 20
144.022707
 30
0.0
 11
49.475004
 21
144.022707
 31
0.0
  0
LINE
  5
1209
100
AcDbEntity
  8
10000_FRONT
370
    25
390
0
  6
CONTINUOUS
 62
     7
100
AcDbLine
 10
53.675004
 20
144.022707
 30
0.0
 11
56.675004
 21
144.022707
 31
0.0
  0
LINE
  5
120A
100
AcDbEntity
  8
10000_FRONT
370
    25
390
0
  6
CONTINUOUS
 62
     7
100
AcDbLine
 10
60.875004
 20
144.022707
 30
0.0
 11
63.875004
 21
144.022707
 31
0.0
  0
LINE
  5
120B
100
AcDbEntity
  8
10000_FRONT
370
    25
390
0
  6
CONTINUOUS
 62
     7
100
AcDbLine
 10
68.075004
 20
144.022707
 30
0.0
 11
71.075004
 21
144.022707
 31
0.0
  0
LINE
  5
120C
100
AcDbEntity
  8
10000_FRONT
370
    25
390
0
  6
CONTINUOUS
 62
     7
100
AcDbLine
 10
75.275005
 20
144.022707
 30
0.0
 11
78.275005
 21
144.022707
 31
0.0
  0
LINE
  5
120D
100
AcDbEntity
  8
10000_FRONT
370
    25
390
0
  6
CONTINUOUS
 62
     7
100
AcDbLine
 10
35.925004
 20
146.064745
 30
0.0
 11
38.925004
 21
146.064745
 31
0.0
  0
LINE
  5
120E
100
AcDbEntity
  8
10000_FRONT
370
    25
390
0
  6
CONTINUOUS
 62
     7
100
AcDbLine
 10
43.125004
 20
146.064745
 30
0.0
 11
46.125004
 21
146.064745
 31
0.0
  0
LINE
  5
120F
100
AcDbEntity
  8
10000_FRONT
370
    25
390
0
  6
CONTINUOUS
 62
     7
100
AcDbLine
 10
50.325004
 20
146.064745
 30
0.0
 11
53.325004
 21
146.064745
 31
0.0
  0
LINE
  5
1210
100
AcDbEntity
  8
10000_FRONT
370
    25
390
0
  6
CONTINUOUS
 62
     7
100
AcDbLine
 10
57.525004
 20
146.064745
 30
0.0
 11
60.525004
 21
146.064745
 31
0.0
  0
LINE
  5
1211
100
AcDbEntity
  8
10000_FRONT
370
    25
390
0
  6
CONTINUOUS
 62
     7
100
AcDbLine
 10
64.725004
 20
146.064745
 30
0.0
 11
67.725004
 21
146.064745
 31
0.0
  0
LINE
  5
1212
100
AcDbEntity
  8
10000_FRONT
370
    25
390
0
  6
CONTINUOUS
 62
     7
100
AcDbLine
 10
71.925004
 20
146.064745
 30
0.0
 11
74.925004
 21
146.064745
 31
0.0
  0
LINE
  5
1213
100
AcDbEntity
  8
10000_FRONT
370
    25
390
0
  6
CONTINUOUS
 62
     7
100
AcDbLine
 10
39.275005
 20
146.064745
 30
0.0
 11
42.275004
 21
146.064745
 31
0.0
  0
LINE
  5
1214
100
AcDbEntity
  8
10000_FRONT
370
    25
390
0
  6
CONTINUOUS
 62
     7
100
AcDbLine
 10
46.475004
 20
146.064745
 30
0.0
 11
49.475004
 21
146.064745
 31
0.0
  0
LINE
  5
1215
100
AcDbEntity
  8
10000_FRONT
370
    25
390
0
  6
CONTINUOUS
 62
     7
100
AcDbLine
 10
53.675004
 20
146.064745
 30
0.0
 11
56.675004
 21
146.064745
 31
0.0
  0
LINE
  5
1216
100
AcDbEntity
  8
10000_FRONT
370
    25
390
0
  6
CONTINUOUS
 62
     7
100
AcDbLine
 10
60.875004
 20
146.064745
 30
0.0
 11
63.875004
 21
146.064745
 31
0.0
  0
LINE
  5
1217
100
AcDbEntity
  8
10000_FRONT
370
    25
390
0
  6
CONTINUOUS
 62
     7
100
AcDbLine
 10
68.075004
 20
146.064745
 30
0.0
 11
71.075004
 21
146.064745
 31
0.0
  0
LINE
  5
1218
100
AcDbEntity
  8
10000_FRONT
370
    25
390
0
  6
CONTINUOUS
 62
     7
100
AcDbLine
 10
75.275005
 20
146.064745
 30
0.0
 11
78.275005
 21
146.064745
 31
0.0
  0
LINE
  5
1219
100
AcDbEntity
  8
10000_FRONT
370
    25
390
0
  6
CONTINUOUS
 62
     7
100
AcDbLine
 10
45.625004
 20
146.846996
 30
0.0
 11
61.325004
 21
146.846996
 31
0.0
  0
LINE
  5
121A
100
AcDbEntity
  8
10000_FRONT
370
    25
390
0
  6
CONTINUOUS
 62
     7
100
AcDbLine
 10
45.625004
 20
147.04986
 30
0.0
 11
61.325004
 21
147.04986
 31
0.0
  0
LINE
  5
121B
100
AcDbEntity
  8
10000_FRONT
370
    25
390
0
  6
CONTINUOUS
 62
     7
100
AcDbLine
 10
45.625005
 20
147.050136
 30
0.0
 11
61.325005
 21
147.050136
 31
0.0
  0
LINE
  5
121C
100
AcDbEntity
  8
10000_FRONT
370
    25
390
0
  6
CONTINUOUS
 62
     7
100
AcDbLine
 10
45.625011
 20
148.531282
 30
0.0
 11
61.325011
 21
148.531282
 31
0.0
  0
LINE
  5
121D
100
AcDbEntity
  8
10000_FRONT
370
    25
390
0
  6
CONTINUOUS
 62
     7
100
AcDbLine
 10
51.475004
 20
148.740732
 30
0.0
 11
55.475004
 21
148.740732
 31
0.0
  0
LINE
  5
121E
100
AcDbEntity
  8
10000_FRONT
370
    25
390
0
  6
CONTINUOUS
 62
     7
100
AcDbLine
 10
55.475008
 20
148.826725
 30
0.0
 11
61.325011
 21
148.826725
 31
0.0
  0
LINE
  5
121F
100
AcDbEntity
  8
10000_FRONT
370
    25
390
0
  6
CONTINUOUS
 62
     7
100
AcDbLine
 10
45.625011
 20
148.826725
 30
0.0
 11
51.475008
 21
148.826725
 31
0.0
  0
LINE
  5
1220
100
AcDbEntity
  8
10000_FRONT
370
    25
390
0
  6
CONTINUOUS
 62
     7
100
AcDbLine
 10
46.370359
 20
149.074995
 30
0.0
 11
60.579649
 21
149.074995
 31
0.0
  0
LINE
  5
1221
100
AcDbEntity
  8
10000_FRONT
370
    25
390
0
  6
CONTINUOUS
 62
     7
100
AcDbLine
 10
59.168792
 20
149.864996
 30
0.0
 11
61.325004
 21
149.864996
 31
0.0
  0
LINE
  5
1222
100
AcDbEntity
  8
10000_FRONT
370
    25
390
0
  6
CONTINUOUS
 62
     7
100
AcDbLine
 10
45.625004
 20
149.864996
 30
0.0
 11
47.968306
 21
149.864996
 31
0.0
  0
LINE
  5
1223
100
AcDbEntity
  8
10000_FRONT
370
    25
390
0
  6
CONTINUOUS
 62
     7
100
AcDbLine
 10
48.092986
 20
149.874996
 30
0.0
 11
59.168792
 21
149.874996
 31
0.0
  0
LINE
  5
1224
100
AcDbEntity
  8
10000_FRONT
370
    25
390
0
  6
CONTINUOUS
 62
     7
100
AcDbLine
 10
61.325004
 20
149.874996
 30
0.0
 11
78.675004
 21
149.874996
 31
0.0
  0
LINE
  5
1225
100
AcDbEntity
  8
10000_FRONT
370
    25
390
0
  6
CONTINUOUS
 62
     7
100
AcDbLine
 10
78.675004
 20
149.874996
 30
0.0
 11
79.475004
 21
149.874996
 31
0.0
  0
LINE
  5
1226
100
AcDbEntity
  8
10000_FRONT
370
    25
390
0
  6
CONTINUOUS
 62
     7
100
AcDbLine
 10
79.475004
 20
149.874996
 30
0.0
 11
79.575004
 21
149.874996
 31
0.0
  0
LINE
  5
1227
100
AcDbEntity
  8
10000_FRONT
370
    25
390
0
  6
CONTINUOUS
 62
     7
100
AcDbLine
 10
34.575004
 20
149.874996
 30
0.0
 11
34.675004
 21
149.874996
 31
0.0
  0
LINE
  5
1228
100
AcDbEntity
  8
10000_FRONT
370
    25
390
0
  6
CONTINUOUS
 62
     7
100
AcDbLine
 10
34.675004
 20
149.874996
 30
0.0
 11
35.475004
 21
149.874996
 31
0.0
  0
LINE
  5
1229
100
AcDbEntity
  8
10000_FRONT
370
    25
390
0
  6
CONTINUOUS
 62
     7
100
AcDbLine
 10
35.475004
 20
149.874996
 30
0.0
 11
45.625004
 21
149.874996
 31
0.0
  0
LINE
  5
122A
100
AcDbEntity
  8
10000_FRONT
370
    25
390
0
  6
CONTINUOUS
 62
     7
100
AcDbLine
 10
51.475004
 20
149.894033
 30
0.0
 11
55.475004
 21
149.894033
 31
0.0
  0
LINE
  5
122B
100
AcDbEntity
  8
10000_FRONT
370
    25
390
0
  6
CONTINUOUS
 62
     7
100
AcDbLine
 10
49.475004
 20
149.964996
 30
0.0
 11
64.675004
 21
149.964996
 31
0.0
  0
LINE
  5
122C
100
AcDbEntity
  8
10000_FRONT
370
    25
390
0
  6
CONTINUOUS
 62
     7
100
AcDbLine
 10
49.275004
 20
150.164995
 30
0.0
 11
64.875004
 21
150.164995
 31
0.0
  0
LINE
  5
122D
100
AcDbEntity
  8
10000_FRONT
370
    25
390
0
  6
CONTINUOUS
 62
     7
100
AcDbLine
 10
65.025004
 20
150.464996
 30
0.0
 11
79.575004
 21
150.464996
 31
0.0
  0
LINE
  5
122E
100
AcDbEntity
  8
10000_FRONT
370
    25
390
0
  6
CONTINUOUS
 62
     7
100
AcDbLine
 10
35.175004
 20
150.464996
 30
0.0
 11
49.125004
 21
150.464996
 31
0.0
  0
LINE
  5
122F
100
AcDbEntity
  8
10000_FRONT
370
    25
390
0
  6
CONTINUOUS
 62
     7
100
AcDbLine
 10
34.575004
 20
150.464996
 30
0.0
 11
35.175004
 21
150.464996
 31
0.0
  0
LINE
  5
1230
100
AcDbEntity
  8
10000_FRONT
370
    25
390
0
  6
CONTINUOUS
 62
     7
100
AcDbLine
 10
58.203004
 20
150.964996
 30
0.0
 11
59.77703
 21
150.964996
 31
0.0
  0
LINE
  5
1231
100
AcDbEntity
  8
10000_FRONT
370
    25
390
0
  6
CONTINUOUS
 62
     7
100
AcDbLine
 10
53.139004
 20
150.964996
 30
0.0
 11
54.71303
 21
150.964996
 31
0.0
  0
LINE
  5
1232
100
AcDbEntity
  8
10000_FRONT
370
    25
390
0
  6
CONTINUOUS
 62
     7
100
AcDbLine
 10
52.015004
 20
150.964996
 30
0.0
 11
52.636898
 21
150.964996
 31
0.0
  0
LINE
  5
1233
100
AcDbEntity
  8
10000_FRONT
370
    25
390
0
  6
CONTINUOUS
 62
     7
100
AcDbLine
 10
57.107288
 20
150.964996
 30
0.0
 11
57.726096
 21
150.964996
 31
0.0
  0
LINE
  5
1234
100
AcDbEntity
  8
10000_FRONT
370
    25
390
0
  6
CONTINUOUS
 62
     7
100
AcDbLine
 10
56.104232
 20
150.964996
 30
0.0
 11
56.508541
 21
150.964996
 31
0.0
  0
LINE
  5
1235
100
AcDbEntity
  8
10000_FRONT
370
    25
390
0
  6
CONTINUOUS
 62
     7
100
AcDbLine
 10
55.095004
 20
150.964996
 30
0.0
 11
55.510115
 21
150.964996
 31
0.0
  0
LINE
  5
1236
100
AcDbEntity
  8
10000_FRONT
370
    25
390
0
  6
CONTINUOUS
 62
     7
100
AcDbLine
 10
61.356498
 20
150.964996
 30
0.0
 11
62.026231
 21
150.964996
 31
0.0
  0
LINE
  5
1237
100
AcDbEntity
  8
10000_FRONT
370
    25
390
0
  6
CONTINUOUS
 62
     7
100
AcDbLine
 10
60.159004
 20
150.964996
 30
0.0
 11
60.592633
 21
150.964996
 31
0.0
  0
LINE
  5
1238
100
AcDbEntity
  8
10000_FRONT
370
    25
390
0
  6
CONTINUOUS
 62
     7
100
AcDbLine
 10
58.824898
 20
151.36313
 30
0.0
 11
59.77703
 21
151.36313
 31
0.0
  0
LINE
  5
1239
100
AcDbEntity
  8
10000_FRONT
370
    25
390
0
  6
CONTINUOUS
 62
     7
100
AcDbLine
 10
53.760898
 20
151.36313
 30
0.0
 11
54.71303
 21
151.36313
 31
0.0
  0
LINE
  5
123A
100
AcDbEntity
  8
10000_FRONT
370
    25
390
0
  6
CONTINUOUS
 62
     7
100
AcDbLine
 10
58.824898
 20
151.864658
 30
0.0
 11
59.656663
 21
151.864658
 31
0.0
  0
LINE
  5
123B
100
AcDbEntity
  8
10000_FRONT
370
    25
390
0
  6
CONTINUOUS
 62
     7
100
AcDbLine
 10
53.760898
 20
151.864658
 30
0.0
 11
54.592663
 21
151.864658
 31
0.0
  0
LINE
  5
123C
100
AcDbEntity
  8
10000_FRONT
370
    25
390
0
  6
CONTINUOUS
 62
     7
100
AcDbLine
 10
58.824898
 20
152.228845
 30
0.0
 11
59.656663
 21
152.228845
 31
0.0
  0
LINE
  5
123D
100
AcDbEntity
  8
10000_FRONT
370
    25
390
0
  6
CONTINUOUS
 62
     7
100
AcDbLine
 10
53.760898
 20
152.228845
 30
0.0
 11
54.592663
 21
152.228845
 31
0.0
  0
LINE
  5
123E
100
AcDbEntity
  8
10000_FRONT
370
    25
390
0
  6
CONTINUOUS
 62
     7
100
AcDbLine
 10
35.975004
 20
152.264995
 30
0.0
 11
37.275005
 21
152.264995
 31
0.0
  0
LINE
  5
123F
100
AcDbEntity
  8
10000_FRONT
370
    25
390
0
  6
CONTINUOUS
 62
     7
100
AcDbLine
 10
76.875003
 20
152.264995
 30
0.0
 11
78.175004
 21
152.264995
 31
0.0
  0
LINE
  5
1240
100
AcDbEntity
  8
10000_FRONT
370
    25
390
0
  6
CONTINUOUS
 62
     7
100
AcDbLine
 10
58.824898
 20
152.713398
 30
0.0
 11
59.77703
 21
152.713398
 31
0.0
  0
LINE
  5
1241
100
AcDbEntity
  8
10000_FRONT
370
    25
390
0
  6
CONTINUOUS
 62
     7
100
AcDbLine
 10
53.760898
 20
152.713398
 30
0.0
 11
54.71303
 21
152.713398
 31
0.0
  0
LINE
  5
1242
100
AcDbEntity
  8
10000_FRONT
370
    25
390
0
  6
CONTINUOUS
 62
     7
100
AcDbLine
 10
58.203004
 20
153.09456
 30
0.0
 11
59.77703
 21
153.09456
 31
0.0
  0
LINE
  5
1243
100
AcDbEntity
  8
10000_FRONT
370
    25
390
0
  6
CONTINUOUS
 62
     7
100
AcDbLine
 10
53.139004
 20
153.09456
 30
0.0
 11
54.71303
 21
153.09456
 31
0.0
  0
LINE
  5
1244
100
AcDbEntity
  8
10000_FRONT
370
    25
390
0
  6
CONTINUOUS
 62
     7
100
AcDbLine
 10
52.015004
 20
153.09456
 30
0.0
 11
52.636898
 21
153.09456
 31
0.0
  0
LINE
  5
1245
100
AcDbEntity
  8
10000_FRONT
370
    25
390
0
  6
CONTINUOUS
 62
     7
100
AcDbLine
 10
56.962231
 20
153.09456
 30
0.0
 11
57.726096
 21
153.09456
 31
0.0
  0
LINE
  5
1246
100
AcDbEntity
  8
10000_FRONT
370
    25
390
0
  6
CONTINUOUS
 62
     7
100
AcDbLine
 10
55.095004
 20
153.09456
 30
0.0
 11
55.865042
 21
153.09456
 31
0.0
  0
LINE
  5
1247
100
AcDbEntity
  8
10000_FRONT
370
    25
390
0
  6
CONTINUOUS
 62
     7
100
AcDbLine
 10
61.615749
 20
153.09456
 30
0.0
 11
62.026231
 21
153.09456
 31
0.0
  0
LINE
  5
1248
100
AcDbEntity
  8
10000_FRONT
370
    25
390
0
  6
CONTINUOUS
 62
     7
100
AcDbLine
 10
60.159004
 20
153.09456
 30
0.0
 11
60.850341
 21
153.09456
 31
0.0
  0
LINE
  5
1249
100
AcDbEntity
  8
10000_FRONT
370
    25
390
0
  6
CONTINUOUS
 62
     7
100
AcDbLine
 10
49.275004
 20
153.964996
 30
0.0
 11
64.875004
 21
153.964996
 31
0.0
  0
LINE
  5
124A
100
AcDbEntity
  8
10000_FRONT
370
    25
390
0
  6
CONTINUOUS
 62
     7
100
AcDbLine
 10
49.475004
 20
154.164995
 30
0.0
 11
64.675004
 21
154.164995
 31
0.0
  0
LINE
  5
124B
100
AcDbEntity
  8
10000_FRONT
370
    25
390
0
  6
CONTINUOUS
 62
     7
100
AcDbLine
 10
49.125004
 20
154.264995
 30
0.0
 11
65.025004
 21
154.264995
 31
0.0
  0
LINE
  5
124C
100
AcDbEntity
  8
10000_FRONT
370
    25
390
0
  6
CONTINUOUS
 62
     7
100
AcDbLine
 10
35.975004
 20
154.564995
 30
0.0
 11
37.275005
 21
154.564995
 31
0.0
  0
LINE
  5
124D
100
AcDbEntity
  8
10000_FRONT
370
    25
390
0
  6
CONTINUOUS
 62
     7
100
AcDbLine
 10
76.875003
 20
154.564995
 30
0.0
 11
78.175004
 21
154.564995
 31
0.0
  0
LINE
  5
124E
100
AcDbEntity
  8
10000_FRONT
370
    25
390
0
  6
CONTINUOUS
 62
     7
100
AcDbLine
 10
34.575004
 20
154.706529
 30
0.0
 11
79.575004
 21
154.706529
 31
0.0
  0
LINE
  5
124F
100
AcDbEntity
  8
10000_FRONT
370
    25
390
0
  6
CONTINUOUS
 62
     7
100
AcDbLine
 10
59.386801
 20
155.007357
 30
0.0
 11
59.638309
 21
155.007357
 31
0.0
  0
LINE
  5
1250
100
AcDbEntity
  8
10000_FRONT
370
    25
390
0
  6
CONTINUOUS
 62
     7
100
AcDbLine
 10
56.276265
 20
155.007357
 30
0.0
 11
57.489015
 21
155.007357
 31
0.0
  0
LINE
  5
1251
100
AcDbEntity
  8
10000_FRONT
370
    25
390
0
  6
CONTINUOUS
 62
     7
100
AcDbLine
 10
54.718187
 20
155.007357
 30
0.0
 11
54.845434
 21
155.007357
 31
0.0
  0
LINE
  5
1252
100
AcDbEntity
  8
10000_FRONT
370
    25
390
0
  6
CONTINUOUS
 62
     7
100
AcDbLine
 10
53.728004
 20
155.007357
 30
0.0
 11
53.845604
 21
155.007357
 31
0.0
  0
LINE
  5
1253
100
AcDbEntity
  8
10000_FRONT
370
    25
390
0
  6
CONTINUOUS
 62
     7
100
AcDbLine
 10
52.738801
 20
155.007357
 30
0.0
 11
52.990309
 21
155.007357
 31
0.0
  0
LINE
  5
1254
100
AcDbEntity
  8
10000_FRONT
370
    25
390
0
  6
CONTINUOUS
 62
     7
100
AcDbLine
 10
54.877759
 20
155.007357
 30
0.0
 11
55.000642
 21
155.007357
 31
0.0
  0
LINE
  5
1255
100
AcDbEntity
  8
10000_FRONT
370
    25
390
0
  6
CONTINUOUS
 62
     7
100
AcDbLine
 10
56.129556
 20
155.007357
 30
0.0
 11
56.25129
 21
155.007357
 31
0.0
  0
LINE
  5
1256
100
AcDbEntity
  8
10000_FRONT
370
    25
390
0
  6
CONTINUOUS
 62
     7
100
AcDbLine
 10
58.057201
 20
155.007357
 30
0.0
 11
58.391856
 21
155.007357
 31
0.0
  0
LINE
  5
1257
100
AcDbEntity
  8
10000_FRONT
370
    25
390
0
  6
CONTINUOUS
 62
     7
100
AcDbLine
 10
60.265065
 20
155.007357
 30
0.0
 11
61.477815
 21
155.007357
 31
0.0
  0
LINE
  5
1258
100
AcDbEntity
  8
10000_FRONT
370
    25
390
0
  6
CONTINUOUS
 62
     7
100
AcDbLine
 10
59.386801
 20
155.008261
 30
0.0
 11
59.638309
 21
155.008261
 31
0.0
  0
LINE
  5
1259
100
AcDbEntity
  8
10000_FRONT
370
    25
390
0
  6
CONTINUOUS
 62
     7
100
AcDbLine
 10
56.277072
 20
155.008261
 30
0.0
 11
57.489015
 21
155.008261
 31
0.0
  0
LINE
  5
125A
100
AcDbEntity
  8
10000_FRONT
370
    25
390
0
  6
CONTINUOUS
 62
     7
100
AcDbLine
 10
54.718187
 20
155.008261
 30
0.0
 11
54.844892
 21
155.008261
 31
0.0
  0
LINE
  5
125B
100
AcDbEntity
  8
10000_FRONT
370
    25
390
0
  6
CONTINUOUS
 62
     7
100
AcDbLine
 10
53.728004
 20
155.008261
 30
0.0
 11
53.845604
 21
155.008261
 31
0.0
  0
LINE
  5
125C
100
AcDbEntity
  8
10000_FRONT
370
    25
390
0
  6
CONTINUOUS
 62
     7
100
AcDbLine
 10
52.738801
 20
155.008261
 30
0.0
 11
52.990309
 21
155.008261
 31
0.0
  0
LINE
  5
125D
100
AcDbEntity
  8
10000_FRONT
370
    25
390
0
  6
CONTINUOUS
 62
     7
100
AcDbLine
 10
54.878105
 20
155.008261
 30
0.0
 11
55.000642
 21
155.008261
 31
0.0
  0
LINE
  5
125E
100
AcDbEntity
  8
10000_FRONT
370
    25
390
0
  6
CONTINUOUS
 62
     7
100
AcDbLine
 10
56.129556
 20
155.008261
 30
0.0
 11
56.250944
 21
155.008261
 31
0.0
  0
LINE
  5
125F
100
AcDbEntity
  8
10000_FRONT
370
    25
390
0
  6
CONTINUOUS
 62
     7
100
AcDbLine
 10
58.057201
 20
155.008261
 30
0.0
 11
58.391856
 21
155.008261
 31
0.0
  0
LINE
  5
1260
100
AcDbEntity
  8
10000_FRONT
370
    25
390
0
  6
CONTINUOUS
 62
     7
100
AcDbLine
 10
60.265872
 20
155.008261
 30
0.0
 11
61.477815
 21
155.008261
 31
0.0
  0
LINE
  5
1261
100
AcDbEntity
  8
10000_FRONT
370
    25
390
0
  6
CONTINUOUS
 62
     7
100
AcDbLine
 10
59.393692
 20
155.124672
 30
0.0
 11
59.633715
 21
155.124672
 31
0.0
  0
LINE
  5
1262
100
AcDbEntity
  8
10000_FRONT
370
    25
390
0
  6
CONTINUOUS
 62
     7
100
AcDbLine
 10
56.525476
 20
155.124672
 30
0.0
 11
57.489015
 21
155.124672
 31
0.0
  0
LINE
  5
1263
100
AcDbEntity
  8
10000_FRONT
370
    25
390
0
  6
CONTINUOUS
 62
     7
100
AcDbLine
 10
52.745692
 20
155.124672
 30
0.0
 11
52.985715
 21
155.124672
 31
0.0
  0
LINE
  5
1264
100
AcDbEntity
  8
10000_FRONT
370
    25
390
0
  6
CONTINUOUS
 62
     7
100
AcDbLine
 10
58.075117
 20
155.124672
 30
0.0
 11
58.372792
 21
155.124672
 31
0.0
  0
LINE
  5
1265
100
AcDbEntity
  8
10000_FRONT
370
    25
390
0
  6
CONTINUOUS
 62
     7
100
AcDbLine
 10
60.514276
 20
155.124672
 30
0.0
 11
61.477815
 21
155.124672
 31
0.0
  0
LINE
  5
1266
100
AcDbEntity
  8
10000_FRONT
370
    25
390
0
  6
CONTINUOUS
 62
     7
100
AcDbLine
 10
58.946949
 20
155.371104
 30
0.0
 11
59.070981
 21
155.371104
 31
0.0
  0
LINE
  5
1267
100
AcDbEntity
  8
10000_FRONT
370
    25
390
0
  6
CONTINUOUS
 62
     7
100
AcDbLine
 10
52.298949
 20
155.371104
 30
0.0
 11
52.422981
 21
155.371104
 31
0.0
  0
LINE
  5
1268
100
AcDbEntity
  8
10000_FRONT
370
    25
390
0
  6
CONTINUOUS
 62
     7
100
AcDbLine
 10
55.162571
 20
155.426364
 30
0.0
 11
55.966477
 21
155.426364
 31
0.0
  0
LINE
  5
1269
100
AcDbEntity
  8
10000_FRONT
370
    25
390
0
  6
CONTINUOUS
 62
     7
100
AcDbLine
 10
55.162571
 20
155.427685
 30
0.0
 11
55.966477
 21
155.427685
 31
0.0
  0
LINE
  5
126A
100
AcDbEntity
  8
10000_FRONT
370
    25
390
0
  6
CONTINUOUS
 62
     7
100
AcDbLine
 10
55.20736
 20
155.543701
 30
0.0
 11
55.921689
 21
155.543701
 31
0.0
  0
LINE
  5
126B
100
AcDbEntity
  8
10000_FRONT
370
    25
390
0
  6
CONTINUOUS
 62
     7
100
AcDbLine
 10
54.352984
 20
155.828685
 30
0.0
 11
54.404434
 21
155.828685
 31
0.0
  0
LINE
  5
126C
100
AcDbEntity
  8
10000_FRONT
370
    25
390
0
  6
CONTINUOUS
 62
     7
100
AcDbLine
 10
53.845604
 20
155.828685
 30
0.0
 11
54.225737
 21
155.828685
 31
0.0
  0
LINE
  5
126D
100
AcDbEntity
  8
10000_FRONT
370
    25
390
0
  6
CONTINUOUS
 62
     7
100
AcDbLine
 10
54.352984
 20
155.830333
 30
0.0
 11
54.404434
 21
155.830333
 31
0.0
  0
LINE
  5
126E
100
AcDbEntity
  8
10000_FRONT
370
    25
390
0
  6
CONTINUOUS
 62
     7
100
AcDbLine
 10
53.845604
 20
155.830333
 30
0.0
 11
54.225737
 21
155.830333
 31
0.0
  0
LINE
  5
126F
100
AcDbEntity
  8
10000_FRONT
370
    25
390
0
  6
CONTINUOUS
 62
     7
100
AcDbLine
 10
53.845604
 20
155.946042
 30
0.0
 11
54.39961
 21
155.946042
 31
0.0
  0
LINE
  5
1270
100
AcDbEntity
  8
10000_FRONT
370
    25
390
0
  6
CONTINUOUS
 62
     7
100
AcDbLine
 10
58.188123
 20
155.961236
 30
0.0
 11
58.259785
 21
155.961236
 31
0.0
  0
LINE
  5
1271
100
AcDbEntity
  8
10000_FRONT
370
    25
390
0
  6
CONTINUOUS
 62
     7
100
AcDbLine
 10
58.188123
 20
155.962976
 30
0.0
 11
58.259785
 21
155.962976
 31
0.0
  0
LINE
  5
1272
100
AcDbEntity
  8
10000_FRONT
370
    25
390
0
  6
CONTINUOUS
 62
     7
100
AcDbLine
 10
59.351199
 20
155.991624
 30
0.0
 11
59.633715
 21
155.991624
 31
0.0
  0
LINE
  5
1273
100
AcDbEntity
  8
10000_FRONT
370
    25
390
0
  6
CONTINUOUS
 62
     7
100
AcDbLine
 10
52.703199
 20
155.991624
 30
0.0
 11
52.985715
 21
155.991624
 31
0.0
  0
LINE
  5
1274
100
AcDbEntity
  8
10000_FRONT
370
    25
390
0
  6
CONTINUOUS
 62
     7
100
AcDbLine
 10
59.352562
 20
155.993384
 30
0.0
 11
59.633715
 21
155.993384
 31
0.0
  0
LINE
  5
1275
100
AcDbEntity
  8
10000_FRONT
370
    25
390
0
  6
CONTINUOUS
 62
     7
100
AcDbLine
 10
52.704562
 20
155.993384
 30
0.0
 11
52.985715
 21
155.993384
 31
0.0
  0
LINE
  5
1276
100
AcDbEntity
  8
10000_FRONT
370
    25
390
0
  6
CONTINUOUS
 62
     7
100
AcDbLine
 10
58.174342
 20
156.067858
 30
0.0
 11
58.273107
 21
156.067858
 31
0.0
  0
LINE
  5
1277
100
AcDbEntity
  8
10000_FRONT
370
    25
390
0
  6
CONTINUOUS
 62
     7
100
AcDbLine
 10
59.575144
 20
156.111609
 30
0.0
 11
59.638309
 21
156.111609
 31
0.0
  0
LINE
  5
1278
100
AcDbEntity
  8
10000_FRONT
370
    25
390
0
  6
CONTINUOUS
 62
     7
100
AcDbLine
 10
52.927144
 20
156.111609
 30
0.0
 11
52.990309
 21
156.111609
 31
0.0
  0
LINE
  5
1279
100
AcDbEntity
  8
10000_FRONT
370
    25
390
0
  6
CONTINUOUS
 62
     7
100
AcDbLine
 10
56.381921
 20
156.321205
 30
0.0
 11
56.501359
 21
156.321205
 31
0.0
  0
LINE
  5
127A
100
AcDbEntity
  8
10000_FRONT
370
    25
390
0
  6
CONTINUOUS
 62
     7
100
AcDbLine
 10
60.370721
 20
156.321205
 30
0.0
 11
60.490159
 21
156.321205
 31
0.0
  0
LINE
  5
127B
100
AcDbEntity
  8
10000_FRONT
370
    25
390
0
  6
CONTINUOUS
 62
     7
100
AcDbLine
 10
56.381921
 20
156.323157
 30
0.0
 11
56.501359
 21
156.323157
 31
0.0
  0
LINE
  5
127C
100
AcDbEntity
  8
10000_FRONT
370
    25
390
0
  6
CONTINUOUS
 62
     7
100
AcDbLine
 10
60.370721
 20
156.323157
 30
0.0
 11
60.490159
 21
156.323157
 31
0.0
  0
LINE
  5
127D
100
AcDbEntity
  8
10000_FRONT
370
    25
390
0
  6
CONTINUOUS
 62
     7
100
AcDbLine
 10
59.12266
 20
156.650309
 30
0.0
 11
59.861106
 21
156.650309
 31
0.0
  0
LINE
  5
127E
100
AcDbEntity
  8
10000_FRONT
370
    25
390
0
  6
CONTINUOUS
 62
     7
100
AcDbLine
 10
56.734492
 20
156.650309
 30
0.0
 11
57.053757
 21
156.650309
 31
0.0
  0
LINE
  5
127F
100
AcDbEntity
  8
10000_FRONT
370
    25
390
0
  6
CONTINUOUS
 62
     7
100
AcDbLine
 10
53.845604
 20
156.650309
 30
0.0
 11
54.39961
 21
156.650309
 31
0.0
  0
LINE
  5
1280
100
AcDbEntity
  8
10000_FRONT
370
    25
390
0
  6
CONTINUOUS
 62
     7
100
AcDbLine
 10
52.47466
 20
156.650309
 30
0.0
 11
53.213106
 21
156.650309
 31
0.0
  0
LINE
  5
1281
100
AcDbEntity
  8
10000_FRONT
370
    25
390
0
  6
CONTINUOUS
 62
     7
100
AcDbLine
 10
58.075576
 20
156.650309
 30
0.0
 11
58.371873
 21
156.650309
 31
0.0
  0
LINE
  5
1282
100
AcDbEntity
  8
10000_FRONT
370
    25
390
0
  6
CONTINUOUS
 62
     7
100
AcDbLine
 10
60.723292
 20
156.650309
 30
0.0
 11
61.042557
 21
156.650309
 31
0.0
  0
LINE
  5
1283
100
AcDbEntity
  8
10000_FRONT
370
    25
390
0
  6
CONTINUOUS
 62
     7
100
AcDbLine
 10
59.12266
 20
156.652404
 30
0.0
 11
59.861106
 21
156.652404
 31
0.0
  0
LINE
  5
1284
100
AcDbEntity
  8
10000_FRONT
370
    25
390
0
  6
CONTINUOUS
 62
     7
100
AcDbLine
 10
56.734492
 20
156.652404
 30
0.0
 11
57.053757
 21
156.652404
 31
0.0
  0
LINE
  5
1285
100
AcDbEntity
  8
10000_FRONT
370
    25
390
0
  6
CONTINUOUS
 62
     7
100
AcDbLine
 10
53.845604
 20
156.652404
 30
0.0
 11
54.39961
 21
156.652404
 31
0.0
  0
LINE
  5
1286
100
AcDbEntity
  8
10000_FRONT
370
    25
390
0
  6
CONTINUOUS
 62
     7
100
AcDbLine
 10
52.47466
 20
156.652404
 30
0.0
 11
53.213106
 21
156.652404
 31
0.0
  0
LINE
  5
1287
100
AcDbEntity
  8
10000_FRONT
370
    25
390
0
  6
CONTINUOUS
 62
     7
100
AcDbLine
 10
58.075576
 20
156.652404
 30
0.0
 11
58.371873
 21
156.652404
 31
0.0
  0
LINE
  5
1288
100
AcDbEntity
  8
10000_FRONT
370
    25
390
0
  6
CONTINUOUS
 62
     7
100
AcDbLine
 10
60.723292
 20
156.652404
 30
0.0
 11
61.042557
 21
156.652404
 31
0.0
  0
LINE
  5
1289
100
AcDbEntity
  8
10000_FRONT
370
    25
390
0
  6
CONTINUOUS
 62
     7
100
AcDbLine
 10
59.12266
 20
156.767708
 30
0.0
 11
60.091942
 21
156.767708
 31
0.0
  0
LINE
  5
128A
100
AcDbEntity
  8
10000_FRONT
370
    25
390
0
  6
CONTINUOUS
 62
     7
100
AcDbLine
 10
56.725304
 20
156.767708
 30
0.0
 11
57.064093
 21
156.767708
 31
0.0
  0
LINE
  5
128B
100
AcDbEntity
  8
10000_FRONT
370
    25
390
0
  6
CONTINUOUS
 62
     7
100
AcDbLine
 10
53.728004
 20
156.767708
 30
0.0
 11
54.405123
 21
156.767708
 31
0.0
  0
LINE
  5
128C
100
AcDbEntity
  8
10000_FRONT
370
    25
390
0
  6
CONTINUOUS
 62
     7
100
AcDbLine
 10
52.47466
 20
156.767708
 30
0.0
 11
53.443942
 21
156.767708
 31
0.0
  0
LINE
  5
128D
100
AcDbEntity
  8
10000_FRONT
370
    25
390
0
  6
CONTINUOUS
 62
     7
100
AcDbLine
 10
55.551892
 20
156.767708
 30
0.0
 11
55.577157
 21
156.767708
 31
0.0
  0
LINE
  5
128E
100
AcDbEntity
  8
10000_FRONT
370
    25
390
0
  6
CONTINUOUS
 62
     7
100
AcDbLine
 10
58.057201
 20
156.767708
 30
0.0
 11
58.391856
 21
156.767708
 31
0.0
  0
LINE
  5
128F
100
AcDbEntity
  8
10000_FRONT
370
    25
390
0
  6
CONTINUOUS
 62
     7
100
AcDbLine
 10
60.714104
 20
156.767708
 30
0.0
 11
61.052893
 21
156.767708
 31
0.0
  0
LINE
  5
1290
100
AcDbEntity
  8
10000_FRONT
370
    25
390
0
  6
CONTINUOUS
 62
     7
100
AcDbLine
 10
53.825004
 20
160.564995
 30
0.0
 11
57.825004
 21
160.564995
 31
0.0
  0
LINE
  5
1291
100
AcDbEntity
  8
10000_FRONT
370
    25
390
0
  6
CONTINUOUS
 62
     7
100
AcDbLine
 10
54.200004
 20
160.664995
 30
0.0
 11
57.450004
 21
160.664995
 31
0.0
  0
LINE
  5
1292
100
AcDbEntity
  8
10000_FRONT
370
    25
390
0
  6
CONTINUOUS
 62
     7
100
AcDbLine
 10
54.200004
 20
162.664995
 30
0.0
 11
57.450004
 21
162.664995
 31
0.0
  0
LINE
  5
1293
100
AcDbEntity
  8
10000_FRONT
370
    25
390
0
  6
CONTINUOUS
 62
     7
100
AcDbLine
 10
53.825004
 20
162.764995
 30
0.0
 11
57.825004
 21
162.764995
 31
0.0
  0
LINE
  5
1294
100
AcDbEntity
  8
10000_FRONT
370
    25
390
0
  6
CONTINUOUS
 62
     7
100
AcDbLine
 10
36.125003
 20
164.014995
 30
0.0
 11
57.780111
 21
164.014995
 31
0.0
  0
LINE
  5
1295
100
AcDbEntity
  8
10000_FRONT
370
    25
390
0
  6
CONTINUOUS
 62
     7
100
AcDbLine
 10
36.225004
 20
164.064995
 30
0.0
 11
56.225004
 21
164.064995
 31
0.0
  0
LINE
  5
1296
100
AcDbEntity
  8
10000_FRONT
370
    25
390
0
  6
CONTINUOUS
 62
     7
100
AcDbLine
 10
71.075004
 20
168.464995
 30
0.0
 11
75.875003
 21
168.464995
 31
0.0
  0
LINE
  5
1297
100
AcDbEntity
  8
10000_FRONT
370
    25
390
0
  6
CONTINUOUS
 62
     7
100
AcDbLine
 10
56.225004
 20
170.014995
 30
0.0
 11
57.686723
 21
170.014995
 31
0.0
  0
LINE
  5
1298
100
AcDbEntity
  8
10000_FRONT
370
    25
390
0
  6
CONTINUOUS
 62
     7
100
AcDbLine
 10
71.075004
 20
170.064995
 30
0.0
 11
75.875003
 21
170.064995
 31
0.0
  0
LINE
  5
1299
100
AcDbEntity
  8
10000_FRONT
370
    25
390
0
  6
CONTINUOUS
 62
     7
100
AcDbLine
 10
36.225004
 20
171.064995
 30
0.0
 11
56.225004
 21
171.064995
 31
0.0
  0
LINE
  5
129A
100
AcDbEntity
  8
10000_FRONT
370
    25
390
0
  6
CONTINUOUS
 62
     7
100
AcDbLine
 10
36.125003
 20
171.114995
 30
0.0
 11
56.325004
 21
171.114995
 31
0.0
  0
LINE
  5
129B
100
AcDbEntity
  8
10000_FRONT
370
    25
390
0
  6
CONTINUOUS
 62
     7
100
AcDbLine
 10
35.175004
 20
172.35796
 30
0.0
 11
78.975004
 21
172.35796
 31
0.0
  0
LINE
  5
129C
100
AcDbEntity
  8
10000_FRONT
370
    25
390
0
  6
CONTINUOUS
 62
     7
100
AcDbLine
 10
35.175004
 20
172.914995
 30
0.0
 11
78.975004
 21
172.914995
 31
0.0
  0
LINE
  5
129D
100
AcDbEntity
  8
10000_FRONT
370
    25
390
0
  6
CONTINUOUS
 62
     7
100
AcDbLine
 10
35.185005
 20
172.924995
 30
0.0
 11
78.965003
 21
172.924995
 31
0.0
  0
LINE
  5
129E
100
AcDbEntity
  8
10000_FRONT
370
    25
390
0
  6
CONTINUOUS
 62
     7
100
AcDbLine
 10
63.897355
 20
169.661212
 30
0.0
 11
64.047363
 21
169.661223
 31
0.0
  0
LINE
  5
129F
100
AcDbEntity
  8
10000_FRONT
370
    25
390
0
  6
CONTINUOUS
 62
     7
100
AcDbLine
 10
63.91815
 20
168.719511
 30
0.0
 11
63.939556
 21
168.719633
 31
0.0
  0
LINE
  5
12A0
100
AcDbEntity
  8
10000_FRONT
370
    25
390
0
  6
CONTINUOUS
 62
     7
100
AcDbLine
 10
63.896764
 20
168.719367
 30
0.0
 11
63.91815
 21
168.719511
 31
0.0
  0
LINE
  5
12A1
100
AcDbEntity
  8
10000_FRONT
370
    25
390
0
  6
CONTINUOUS
 62
     7
100
AcDbLine
 10
47.968306
 20
149.864996
 30
0.0
 11
47.985679
 21
149.865207
 31
0.0
  0
LINE
  5
12A2
100
AcDbEntity
  8
10000_FRONT
370
    25
390
0
  6
CONTINUOUS
 62
     7
100
AcDbLine
 10
73.21062
 20
166.27949
 30
0.0
 11
73.515951
 21
166.288312
 31
0.0
  0
LINE
  5
12A3
100
AcDbEntity
  8
10000_FRONT
370
    25
390
0
  6
CONTINUOUS
 62
     7
100
AcDbLine
 10
73.486289
 20
159.177381
 30
0.0
 11
73.69367
 21
159.18382
 31
0.0
  0
LINE
  5
12A4
100
AcDbEntity
  8
10000_FRONT
370
    25
390
0
  6
CONTINUOUS
 62
     7
100
AcDbLine
 10
63.975004
 20
161.70929
 30
0.0
 11
64.241653
 21
161.718397
 31
0.0
  0
LINE
  5
12A5
100
AcDbEntity
  8
10000_FRONT
370
    25
390
0
  6
CONTINUOUS
 62
     7
100
AcDbLine
 10
47.985679
 20
149.865207
 30
0.0
 11
48.003201
 21
149.865835
 31
0.0
  0
LINE
  5
12A6
100
AcDbEntity
  8
10000_FRONT
370
    25
390
0
  6
CONTINUOUS
 62
     7
100
AcDbLine
 10
63.646762
 20
168.808786
 30
0.0
 11
63.897679
 21
168.822681
 31
0.0
  0
LINE
  5
12A7
100
AcDbEntity
  8
10000_FRONT
370
    25
390
0
  6
CONTINUOUS
 62
     7
100
AcDbLine
 10
48.003201
 20
149.865835
 30
0.0
 11
48.020872
 21
149.86687
 31
0.0
  0
LINE
  5
12A8
100
AcDbEntity
  8
10000_FRONT
370
    25
390
0
  6
CONTINUOUS
 62
     7
100
AcDbLine
 10
48.020872
 20
149.86687
 30
0.0
 11
48.038687
 21
149.868299
 31
0.0
  0
LINE
  5
12A9
100
AcDbEntity
  8
10000_FRONT
370
    25
390
0
  6
CONTINUOUS
 62
     7
100
AcDbLine
 10
73.69367
 20
159.18382
 30
0.0
 11
73.899997
 21
159.201809
 31
0.0
  0
LINE
  5
12AA
100
AcDbEntity
  8
10000_FRONT
370
    25
390
0
  6
CONTINUOUS
 62
     7
100
AcDbLine
 10
48.038687
 20
149.868299
 30
0.0
 11
48.056648
 21
149.870115
 31
0.0
  0
LINE
  5
12AB
100
AcDbEntity
  8
10000_FRONT
370
    25
390
0
  6
CONTINUOUS
 62
     7
100
AcDbLine
 10
64.241653
 20
161.718397
 30
0.0
 11
64.506555
 21
161.745603
 31
0.0
  0
LINE
  5
12AC
100
AcDbEntity
  8
10000_FRONT
370
    25
390
0
  6
CONTINUOUS
 62
     7
100
AcDbLine
 10
72.907591
 20
166.246721
 30
0.0
 11
73.21062
 21
166.27949
 31
0.0
  0
LINE
  5
12AD
100
AcDbEntity
  8
10000_FRONT
370
    25
390
0
  6
CONTINUOUS
 62
     7
100
AcDbLine
 10
48.056648
 20
149.870115
 30
0.0
 11
48.074751
 21
149.872304
 31
0.0
  0
LINE
  5
12AE
100
AcDbEntity
  8
10000_FRONT
370
    25
390
0
  6
CONTINUOUS
 62
     7
100
AcDbLine
 10
63.397794
 20
168.777817
 30
0.0
 11
63.646762
 21
168.808786
 31
0.0
  0
LINE
  5
12AF
100
AcDbEntity
  8
10000_FRONT
370
    25
390
0
  6
CONTINUOUS
 62
     7
100
AcDbLine
 10
73.899997
 20
159.201809
 30
0.0
 11
74.104801
 21
159.231257
 31
0.0
  0
LINE
  5
12B0
100
AcDbEntity
  8
10000_FRONT
370
    25
390
0
  6
CONTINUOUS
 62
     7
100
AcDbLine
 10
48.074751
 20
149.872304
 30
0.0
 11
48.092986
 21
149.874996
 31
0.0
  0
LINE
  5
12B1
100
AcDbEntity
  8
10000_FRONT
370
    25
390
0
  6
CONTINUOUS
 62
     7
100
AcDbLine
 10
64.506555
 20
161.745603
 30
0.0
 11
64.768804
 21
161.79074
 31
0.0
  0
LINE
  5
12B2
100
AcDbEntity
  8
10000_FRONT
370
    25
390
0
  6
CONTINUOUS
 62
     7
100
AcDbLine
 10
67.270607
 20
166.01823
 30
0.0
 11
68.193381
 21
166.180868
 31
0.0
  0
LINE
  5
12B3
100
AcDbEntity
  8
10000_FRONT
370
    25
390
0
  6
CONTINUOUS
 62
     7
100
AcDbLine
 10
67.55112
 20
165.917445
 30
0.0
 11
67.580777
 21
165.922786
 31
0.0
  0
LINE
  5
12B4
100
AcDbEntity
  8
10000_FRONT
370
    25
390
0
  6
CONTINUOUS
 62
     7
100
AcDbLine
 10
67.516251
 20
166.063585
 30
0.0
 11
67.544897
 21
166.068751
 31
0.0
  0
LINE
  5
12B5
100
AcDbEntity
  8
10000_FRONT
370
    25
390
0
  6
CONTINUOUS
 62
     7
100
AcDbLine
 10
67.522647
 20
165.912298
 30
0.0
 11
67.55112
 21
165.917445
 31
0.0
  0
LINE
  5
12B6
100
AcDbEntity
  8
10000_FRONT
370
    25
390
0
  6
CONTINUOUS
 62
     7
100
AcDbLine
 10
67.488842
 20
166.058624
 30
0.0
 11
67.516251
 21
166.063585
 31
0.0
  0
LINE
  5
12B7
100
AcDbEntity
  8
10000_FRONT
370
    25
390
0
  6
CONTINUOUS
 62
     7
100
AcDbLine
 10
67.49564
 20
165.907395
 30
0.0
 11
67.522647
 21
165.912298
 31
0.0
  0
LINE
  5
12B8
100
AcDbEntity
  8
10000_FRONT
370
    25
390
0
  6
CONTINUOUS
 62
     7
100
AcDbLine
 10
67.462644
 20
166.053863
 30
0.0
 11
67.488842
 21
166.058624
 31
0.0
  0
LINE
  5
12B9
100
AcDbEntity
  8
10000_FRONT
370
    25
390
0
  6
CONTINUOUS
 62
     7
100
AcDbLine
 10
67.468682
 20
165.90248
 30
0.0
 11
67.49564
 21
165.907395
 31
0.0
  0
LINE
  5
12BA
100
AcDbEntity
  8
10000_FRONT
370
    25
390
0
  6
CONTINUOUS
 62
     7
100
AcDbLine
 10
67.436224
 20
166.049041
 30
0.0
 11
67.462644
 21
166.053863
 31
0.0
  0
LINE
  5
12BB
100
AcDbEntity
  8
10000_FRONT
370
    25
390
0
  6
CONTINUOUS
 62
     7
100
AcDbLine
 10
67.44159
 20
165.89752
 30
0.0
 11
67.468682
 21
165.90248
 31
0.0
  0
LINE
  5
12BC
100
AcDbEntity
  8
10000_FRONT
370
    25
390
0
  6
CONTINUOUS
 62
     7
100
AcDbLine
 10
67.409781
 20
166.044194
 30
0.0
 11
67.436224
 21
166.049041
 31
0.0
  0
LINE
  5
12BD
100
AcDbEntity
  8
10000_FRONT
370
    25
390
0
  6
CONTINUOUS
 62
     7
100
AcDbLine
 10
67.414811
 20
165.892593
 30
0.0
 11
67.44159
 21
165.89752
 31
0.0
  0
LINE
  5
12BE
100
AcDbEntity
  8
10000_FRONT
370
    25
390
0
  6
CONTINUOUS
 62
     7
100
AcDbLine
 10
67.383728
 20
166.039396
 30
0.0
 11
67.409781
 21
166.044194
 31
0.0
  0
LINE
  5
12BF
100
AcDbEntity
  8
10000_FRONT
370
    25
390
0
  6
CONTINUOUS
 62
     7
100
AcDbLine
 10
67.388785
 20
165.887781
 30
0.0
 11
67.414811
 21
165.892593
 31
0.0
  0
LINE
  5
12C0
100
AcDbEntity
  8
10000_FRONT
370
    25
390
0
  6
CONTINUOUS
 62
     7
100
AcDbLine
 10
67.358474
 20
166.034721
 30
0.0
 11
67.383728
 21
166.039396
 31
0.0
  0
LINE
  5
12C1
100
AcDbEntity
  8
10000_FRONT
370
    25
390
0
  6
CONTINUOUS
 62
     7
100
AcDbLine
 10
67.363873
 20
165.883149
 30
0.0
 11
67.388785
 21
165.887781
 31
0.0
  0
LINE
  5
12C2
100
AcDbEntity
  8
10000_FRONT
370
    25
390
0
  6
CONTINUOUS
 62
     7
100
AcDbLine
 10
67.334334
 20
166.030229
 30
0.0
 11
67.358474
 21
166.034721
 31
0.0
  0
LINE
  5
12C3
100
AcDbEntity
  8
10000_FRONT
370
    25
390
0
  6
CONTINUOUS
 62
     7
100
AcDbLine
 10
67.340359
 20
165.878751
 30
0.0
 11
67.363873
 21
165.883149
 31
0.0
  0
LINE
  5
12C4
100
AcDbEntity
  8
10000_FRONT
370
    25
390
0
  6
CONTINUOUS
 62
     7
100
AcDbLine
 10
67.31157
 20
166.025968
 30
0.0
 11
67.334334
 21
166.030229
 31
0.0
  0
LINE
  5
12C5
100
AcDbEntity
  8
10000_FRONT
370
    25
390
0
  6
CONTINUOUS
 62
     7
100
AcDbLine
 10
67.318521
 20
165.874643
 30
0.0
 11
67.340359
 21
165.878751
 31
0.0
  0
LINE
  5
12C6
100
AcDbEntity
  8
10000_FRONT
370
    25
390
0
  6
CONTINUOUS
 62
     7
100
AcDbLine
 10
67.29044
 20
166.021989
 30
0.0
 11
67.31157
 21
166.025968
 31
0.0
  0
LINE
  5
12C7
100
AcDbEntity
  8
10000_FRONT
370
    25
390
0
  6
CONTINUOUS
 62
     7
100
AcDbLine
 10
72.608266
 20
166.190268
 30
0.0
 11
72.907591
 21
166.246721
 31
0.0
  0
LINE
  5
12C8
100
AcDbEntity
  8
10000_FRONT
370
    25
390
0
  6
CONTINUOUS
 62
     7
100
AcDbLine
 10
67.298156
 20
165.870786
 30
0.0
 11
67.318521
 21
165.874643
 31
0.0
  0
LINE
  5
12C9
100
AcDbEntity
  8
10000_FRONT
370
    25
390
0
  6
CONTINUOUS
 62
     7
100
AcDbLine
 10
67.270621
 20
166.018233
 30
0.0
 11
67.29044
 21
166.021989
 31
0.0
  0
LINE
  5
12CA
100
AcDbEntity
  8
10000_FRONT
370
    25
390
0
  6
CONTINUOUS
 62
     7
100
AcDbLine
 10
63.151625
 20
168.729942
 30
0.0
 11
63.397794
 21
168.777817
 31
0.0
  0
LINE
  5
12CB
100
AcDbEntity
  8
10000_FRONT
370
    25
390
0
  6
CONTINUOUS
 62
     7
100
AcDbLine
 10
74.104801
 20
159.231257
 30
0.0
 11
74.307611
 21
159.272072
 31
0.0
  0
LINE
  5
12CC
100
AcDbEntity
  8
10000_FRONT
370
    25
390
0
  6
CONTINUOUS
 62
     7
100
AcDbLine
 10
64.768804
 20
161.79074
 30
0.0
 11
65.027495
 21
161.853637
 31
0.0
  0
LINE
  5
12CD
100
AcDbEntity
  8
10000_FRONT
370
    25
390
0
  6
CONTINUOUS
 62
     7
100
AcDbLine
 10
72.637179
 20
166.000028
 30
0.0
 11
72.658024
 21
166.005401
 31
0.0
  0
LINE
  5
12CE
100
AcDbEntity
  8
10000_FRONT
370
    25
390
0
  6
CONTINUOUS
 62
     7
100
AcDbLine
 10
72.616365
 20
165.994642
 30
0.0
 11
72.637179
 21
166.000028
 31
0.0
  0
LINE
  5
12CF
100
AcDbEntity
  8
10000_FRONT
370
    25
390
0
  6
CONTINUOUS
 62
     7
100
AcDbLine
 10
74.307611
 20
159.272072
 30
0.0
 11
74.507961
 21
159.324162
 31
0.0
  0
LINE
  5
12D0
100
AcDbEntity
  8
10000_FRONT
370
    25
390
0
  6
CONTINUOUS
 62
     7
100
AcDbLine
 10
72.595614
 20
165.989134
 30
0.0
 11
72.616365
 21
165.994642
 31
0.0
  0
LINE
  5
12D1
100
AcDbEntity
  8
10000_FRONT
370
    25
390
0
  6
CONTINUOUS
 62
     7
100
AcDbLine
 10
62.909108
 20
168.66533
 30
0.0
 11
63.151625
 21
168.729942
 31
0.0
  0
LINE
  5
12D2
100
AcDbEntity
  8
10000_FRONT
370
    25
390
0
  6
CONTINUOUS
 62
     7
100
AcDbLine
 10
72.57493
 20
165.983506
 30
0.0
 11
72.595614
 21
165.989134
 31
0.0
  0
LINE
  5
12D3
100
AcDbEntity
  8
10000_FRONT
370
    25
390
0
  6
CONTINUOUS
 62
     7
100
AcDbLine
 10
72.554316
 20
165.97776
 30
0.0
 11
72.57493
 21
165.983506
 31
0.0
  0
LINE
  5
12D4
100
AcDbEntity
  8
10000_FRONT
370
    25
390
0
  6
CONTINUOUS
 62
     7
100
AcDbLine
 10
72.513249
 20
165.966157
 30
0.0
 11
72.533778
 21
165.9719
 31
0.0
  0
LINE
  5
12D5
100
AcDbEntity
  8
10000_FRONT
370
    25
390
0
  6
CONTINUOUS
 62
     7
100
AcDbLine
 10
72.533778
 20
165.9719
 30
0.0
 11
72.554316
 21
165.97776
 31
0.0
  0
LINE
  5
12D6
100
AcDbEntity
  8
10000_FRONT
370
    25
390
0
  6
CONTINUOUS
 62
     7
100
AcDbLine
 10
72.266186
 20
166.095015
 30
0.0
 11
72.462727
 21
166.153864
 31
0.0
  0
LINE
  5
12D7
100
AcDbEntity
  8
10000_FRONT
370
    25
390
0
  6
CONTINUOUS
 62
     7
100
AcDbLine
 10
74.652835
 20
161.412337
 30
0.0
 11
76.050041
 21
161.853089
 31
0.0
  0
LINE
  5
12D8
100
AcDbEntity
  8
10000_FRONT
370
    25
390
0
  6
CONTINUOUS
 62
     7
100
AcDbLine
 10
65.152836
 20
164.112337
 30
0.0
 11
66.55004
 21
164.553089
 31
0.0
  0
LINE
  5
12D9
100
AcDbEntity
  8
10000_FRONT
370
    25
390
0
  6
CONTINUOUS
 62
     7
100
AcDbLine
 10
65.027495
 20
161.853637
 30
0.0
 11
65.281721
 21
161.934126
 31
0.0
  0
LINE
  5
12DA
100
AcDbEntity
  8
10000_FRONT
370
    25
390
0
  6
CONTINUOUS
 62
     7
100
AcDbLine
 10
74.507961
 20
159.324162
 30
0.0
 11
74.705379
 21
159.387435
 31
0.0
  0
LINE
  5
12DB
100
AcDbEntity
  8
10000_FRONT
370
    25
390
0
  6
CONTINUOUS
 62
     7
100
AcDbLine
 10
57.882639
 20
156.588181
 30
0.0
 11
58.075576
 21
156.652404
 31
0.0
  0
LINE
  5
12DC
100
AcDbEntity
  8
10000_FRONT
370
    25
390
0
  6
CONTINUOUS
 62
     7
100
AcDbLine
 10
59.638309
 20
155.008261
 30
0.0
 11
59.892114
 21
155.092933
 31
0.0
  0
LINE
  5
12DD
100
AcDbEntity
  8
10000_FRONT
370
    25
390
0
  6
CONTINUOUS
 62
     7
100
AcDbLine
 10
52.990309
 20
155.008261
 30
0.0
 11
53.244114
 21
155.092933
 31
0.0
  0
LINE
  5
12DE
100
AcDbEntity
  8
10000_FRONT
370
    25
390
0
  6
CONTINUOUS
 62
     7
100
AcDbLine
 10
58.391856
 20
155.008261
 30
0.0
 11
58.64566
 21
155.092933
 31
0.0
  0
LINE
  5
12DF
100
AcDbEntity
  8
10000_FRONT
370
    25
390
0
  6
CONTINUOUS
 62
     7
100
AcDbLine
 10
54.404434
 20
155.830333
 30
0.0
 11
54.657549
 21
155.915004
 31
0.0
  0
LINE
  5
12E0
100
AcDbEntity
  8
10000_FRONT
370
    25
390
0
  6
CONTINUOUS
 62
     7
100
AcDbLine
 10
62.671092
 20
168.584149
 30
0.0
 11
62.909108
 21
168.66533
 31
0.0
  0
LINE
  5
12E1
100
AcDbEntity
  8
10000_FRONT
370
    25
390
0
  6
CONTINUOUS
 62
     7
100
AcDbLine
 10
72.072699
 20
166.025724
 30
0.0
 11
72.266186
 21
166.095015
 31
0.0
  0
LINE
  5
12E2
100
AcDbEntity
  8
10000_FRONT
370
    25
390
0
  6
CONTINUOUS
 62
     7
100
AcDbLine
 10
74.705379
 20
159.387435
 30
0.0
 11
74.899242
 21
159.461734
 31
0.0
  0
LINE
  5
12E3
100
AcDbEntity
  8
10000_FRONT
370
    25
390
0
  6
CONTINUOUS
 62
     7
100
AcDbLine
 10
65.281721
 20
161.934126
 30
0.0
 11
65.530091
 21
162.031828
 31
0.0
  0
LINE
  5
12E4
100
AcDbEntity
  8
10000_FRONT
370
    25
390
0
  6
CONTINUOUS
 62
     7
100
AcDbLine
 10
71.883311
 20
165.946355
 30
0.0
 11
72.072699
 21
166.025724
 31
0.0
  0
LINE
  5
12E5
100
AcDbEntity
  8
10000_FRONT
370
    25
390
0
  6
CONTINUOUS
 62
     7
100
AcDbLine
 10
62.43917
 20
168.486904
 30
0.0
 11
62.671092
 21
168.584149
 31
0.0
  0
LINE
  5
12E6
100
AcDbEntity
  8
10000_FRONT
370
    25
390
0
  6
CONTINUOUS
 62
     7
100
AcDbLine
 10
74.899242
 20
159.461734
 30
0.0
 11
75.088354
 21
159.546588
 31
0.0
  0
LINE
  5
12E7
100
AcDbEntity
  8
10000_FRONT
370
    25
390
0
  6
CONTINUOUS
 62
     7
100
AcDbLine
 10
65.530091
 20
162.031828
 30
0.0
 11
65.770685
 21
162.145931
 31
0.0
  0
LINE
  5
12E8
100
AcDbEntity
  8
10000_FRONT
370
    25
390
0
  6
CONTINUOUS
 62
     7
100
AcDbLine
 10
71.698661
 20
165.857225
 30
0.0
 11
71.883311
 21
165.946355
 31
0.0
  0
LINE
  5
12E9
100
AcDbEntity
  8
10000_FRONT
370
    25
390
0
  6
CONTINUOUS
 62
     7
100
AcDbLine
 10
58.430902
 20
156.012783
 30
0.0
 11
58.565269
 21
156.078056
 31
0.0
  0
LINE
  5
12EA
100
AcDbEntity
  8
10000_FRONT
370
    25
390
0
  6
CONTINUOUS
 62
     7
100
AcDbLine
 10
57.952693
 20
155.84711
 30
0.0
 11
58.188123
 21
155.962976
 31
0.0
  0
LINE
  5
12EB
100
AcDbEntity
  8
10000_FRONT
370
    25
390
0
  6
CONTINUOUS
 62
     7
100
AcDbLine
 10
62.214852
 20
168.374306
 30
0.0
 11
62.43917
 21
168.486904
 31
0.0
  0
LINE
  5
12EC
100
AcDbEntity
  8
10000_FRONT
370
    25
390
0
  6
CONTINUOUS
 62
     7
100
AcDbLine
 10
56.579452
 20
156.574287
 30
0.0
 11
56.734492
 21
156.652404
 31
0.0
  0
LINE
  5
12ED
100
AcDbEntity
  8
10000_FRONT
370
    25
390
0
  6
CONTINUOUS
 62
     7
100
AcDbLine
 10
60.568252
 20
156.574287
 30
0.0
 11
60.723292
 21
156.652404
 31
0.0
  0
LINE
  5
12EE
100
AcDbEntity
  8
10000_FRONT
370
    25
390
0
  6
CONTINUOUS
 62
     7
100
AcDbLine
 10
75.088354
 20
159.546588
 30
0.0
 11
75.272209
 21
159.641701
 31
0.0
  0
LINE
  5
12EF
100
AcDbEntity
  8
10000_FRONT
370
    25
390
0
  6
CONTINUOUS
 62
     7
100
AcDbLine
 10
71.519118
 20
165.758559
 30
0.0
 11
71.698661
 21
165.857225
 31
0.0
  0
LINE
  5
12F0
100
AcDbEntity
  8
10000_FRONT
370
    25
390
0
  6
CONTINUOUS
 62
     7
100
AcDbLine
 10
65.770685
 20
162.145931
 30
0.0
 11
66.002684
 21
162.275926
 31
0.0
  0
LINE
  5
12F1
100
AcDbEntity
  8
10000_FRONT
370
    25
390
0
  6
CONTINUOUS
 62
     7
100
AcDbLine
 10
78.675004
 20
134.248344
 30
0.0
 11
78.742095
 21
134.286068
 31
0.0
  0
LINE
  5
12F2
100
AcDbEntity
  8
10000_FRONT
370
    25
390
0
  6
CONTINUOUS
 62
     7
100
AcDbLine
 10
75.272209
 20
159.641701
 30
0.0
 11
75.450406
 21
159.746818
 31
0.0
  0
LINE
  5
12F3
100
AcDbEntity
  8
10000_FRONT
370
    25
390
0
  6
CONTINUOUS
 62
     7
100
AcDbLine
 10
61.998868
 20
168.246824
 30
0.0
 11
62.214852
 21
168.374306
 31
0.0
  0
LINE
  5
12F4
100
AcDbEntity
  8
10000_FRONT
370
    25
390
0
  6
CONTINUOUS
 62
     7
100
AcDbLine
 10
71.345043
 20
165.650584
 30
0.0
 11
71.519118
 21
165.758559
 31
0.0
  0
LINE
  5
12F5
100
AcDbEntity
  8
10000_FRONT
370
    25
390
0
  6
CONTINUOUS
 62
     7
100
AcDbLine
 10
78.742095
 20
134.286068
 30
0.0
 11
78.808212
 21
134.327888
 31
0.0
  0
LINE
  5
12F6
100
AcDbEntity
  8
10000_FRONT
370
    25
390
0
  6
CONTINUOUS
 62
     7
100
AcDbLine
 10
66.002684
 20
162.275926
 30
0.0
 11
66.225311
 21
162.421317
 31
0.0
  0
LINE
  5
12F7
100
AcDbEntity
  8
10000_FRONT
370
    25
390
0
  6
CONTINUOUS
 62
     7
100
AcDbLine
 10
75.450406
 20
159.746818
 30
0.0
 11
75.622541
 21
159.861679
 31
0.0
  0
LINE
  5
12F8
100
AcDbEntity
  8
10000_FRONT
370
    25
390
0
  6
CONTINUOUS
 62
     7
100
AcDbLine
 10
61.79195
 20
168.10493
 30
0.0
 11
61.998868
 21
168.246824
 31
0.0
  0
LINE
  5
12F9
100
AcDbEntity
  8
10000_FRONT
370
    25
390
0
  6
CONTINUOUS
 62
     7
100
AcDbLine
 10
71.176802
 20
165.533526
 30
0.0
 11
71.345043
 21
165.650584
 31
0.0
  0
LINE
  5
12FA
100
AcDbEntity
  8
10000_FRONT
370
    25
390
0
  6
CONTINUOUS
 62
     7
100
AcDbLine
 10
78.808212
 20
134.327888
 30
0.0
 11
78.872634
 21
134.373401
 31
0.0
  0
LINE
  5
12FB
100
AcDbEntity
  8
10000_FRONT
370
    25
390
0
  6
CONTINUOUS
 62
     7
100
AcDbLine
 10
75.622541
 20
159.861679
 30
0.0
 11
75.788211
 21
159.986024
 31
0.0
  0
LINE
  5
12FC
100
AcDbEntity
  8
10000_FRONT
370
    25
390
0
  6
CONTINUOUS
 62
     7
100
AcDbLine
 10
66.225311
 20
162.421317
 30
0.0
 11
66.437786
 21
162.581605
 31
0.0
  0
LINE
  5
12FD
100
AcDbEntity
  8
10000_FRONT
370
    25
390
0
  6
CONTINUOUS
 62
     7
100
AcDbLine
 10
71.014759
 20
165.407611
 30
0.0
 11
71.176802
 21
165.533526
 31
0.0
  0
LINE
  5
12FE
100
AcDbEntity
  8
10000_FRONT
370
    25
390
0
  6
CONTINUOUS
 62
     7
100
AcDbLine
 10
78.872634
 20
134.373401
 30
0.0
 11
78.934642
 21
134.422184
 31
0.0
  0
LINE
  5
12FF
100
AcDbEntity
  8
10000_FRONT
370
    25
390
0
  6
CONTINUOUS
 62
     7
100
AcDbLine
 10
61.594828
 20
167.949092
 30
0.0
 11
61.79195
 21
168.10493
 31
0.0
  0
LINE
  5
1300
100
AcDbEntity
  8
10000_FRONT
370
    25
390
0
  6
CONTINUOUS
 62
     7
100
AcDbLine
 10
75.788211
 20
159.986024
 30
0.0
 11
75.947013
 21
160.119599
 31
0.0
  0
LINE
  5
1301
100
AcDbEntity
  8
10000_FRONT
370
    25
390
0
  6
CONTINUOUS
 62
     7
100
AcDbLine
 10
70.859323
 20
165.273103
 30
0.0
 11
71.014759
 21
165.407611
 31
0.0
  0
LINE
  5
1302
100
AcDbEntity
  8
10000_FRONT
370
    25
390
0
  6
CONTINUOUS
 62
     7
100
AcDbLine
 10
66.437786
 20
162.581605
 30
0.0
 11
66.63933
 21
162.756296
 31
0.0
  0
LINE
  5
1303
100
AcDbEntity
  8
10000_FRONT
370
    25
390
0
  6
CONTINUOUS
 62
     7
100
AcDbLine
 10
78.934642
 20
134.422184
 30
0.0
 11
78.993522
 21
134.473819
 31
0.0
  0
LINE
  5
1304
100
AcDbEntity
  8
10000_FRONT
370
    25
390
0
  6
CONTINUOUS
 62
     7
100
AcDbLine
 10
61.408481
 20
167.780025
 30
0.0
 11
61.594828
 21
167.949092
 31
0.0
  0
LINE
  5
1305
100
AcDbEntity
  8
10000_FRONT
370
    25
390
0
  6
CONTINUOUS
 62
     7
100
AcDbLine
 10
79.350147
 20
172.723396
 30
0.0
 11
79.383422
 21
172.754538
 31
0.0
  0
LINE
  5
1306
100
AcDbEntity
  8
10000_FRONT
370
    25
390
0
  6
CONTINUOUS
 62
     7
100
AcDbLine
 10
75.947013
 20
160.119599
 30
0.0
 11
76.09815
 21
160.261752
 31
0.0
  0
LINE
  5
1307
100
AcDbEntity
  8
10000_FRONT
370
    25
390
0
  6
CONTINUOUS
 62
     7
100
AcDbLine
 10
79.315643
 20
172.690795
 30
0.0
 11
79.350147
 21
172.723396
 31
0.0
  0
LINE
  5
1308
100
AcDbEntity
  8
10000_FRONT
370
    25
390
0
  6
CONTINUOUS
 62
     7
100
AcDbLine
 10
79.280158
 20
172.65699
 30
0.0
 11
79.315643
 21
172.690795
 31
0.0
  0
LINE
  5
1309
100
AcDbEntity
  8
10000_FRONT
370
    25
390
0
  6
CONTINUOUS
 62
     7
100
AcDbLine
 10
54.657549
 20
155.915004
 30
0.0
 11
54.746898
 21
156.000724
 31
0.0
  0
LINE
  5
130A
100
AcDbEntity
  8
10000_FRONT
370
    25
390
0
  6
CONTINUOUS
 62
     7
100
AcDbLine
 10
79.243745
 20
172.622041
 30
0.0
 11
79.280158
 21
172.65699
 31
0.0
  0
LINE
  5
130B
100
AcDbEntity
  8
10000_FRONT
370
    25
390
0
  6
CONTINUOUS
 62
     7
100
AcDbLine
 10
70.711279
 20
165.130668
 30
0.0
 11
70.859323
 21
165.273103
 31
0.0
  0
LINE
  5
130C
100
AcDbEntity
  8
10000_FRONT
370
    25
390
0
  6
CONTINUOUS
 62
     7
100
AcDbLine
 10
79.206542
 20
172.586096
 30
0.0
 11
79.243745
 21
172.622041
 31
0.0
  0
LINE
  5
130D
100
AcDbEntity
  8
10000_FRONT
370
    25
390
0
  6
CONTINUOUS
 62
     7
100
AcDbLine
 10
58.64566
 20
155.092933
 30
0.0
 11
58.735468
 21
155.179964
 31
0.0
  0
LINE
  5
130E
100
AcDbEntity
  8
10000_FRONT
370
    25
390
0
  6
CONTINUOUS
 62
     7
100
AcDbLine
 10
79.168712
 20
172.549317
 30
0.0
 11
79.206542
 21
172.586096
 31
0.0
  0
LINE
  5
130F
100
AcDbEntity
  8
10000_FRONT
370
    25
390
0
  6
CONTINUOUS
 62
     7
100
AcDbLine
 10
78.993522
 20
134.473819
 30
0.0
 11
79.048772
 21
134.52774
 31
0.0
  0
LINE
  5
1310
100
AcDbEntity
  8
10000_FRONT
370
    25
390
0
  6
CONTINUOUS
 62
     7
100
AcDbLine
 10
79.130411
 20
172.51187
 30
0.0
 11
79.168712
 21
172.549317
 31
0.0
  0
LINE
  5
1311
100
AcDbEntity
  8
10000_FRONT
370
    25
390
0
  6
CONTINUOUS
 62
     7
100
AcDbLine
 10
79.091804
 20
172.473921
 30
0.0
 11
79.130411
 21
172.51187
 31
0.0
  0
LINE
  5
1312
100
AcDbEntity
  8
10000_FRONT
370
    25
390
0
  6
CONTINUOUS
 62
     7
100
AcDbLine
 10
79.053016
 20
172.435598
 30
0.0
 11
79.091804
 21
172.473921
 31
0.0
  0
LINE
  5
1313
100
AcDbEntity
  8
10000_FRONT
370
    25
390
0
  6
CONTINUOUS
 62
     7
100
AcDbLine
 10
59.892114
 20
155.092933
 30
0.0
 11
60.064379
 21
155.263586
 31
0.0
  0
LINE
  5
1314
100
AcDbEntity
  8
10000_FRONT
370
    25
390
0
  6
CONTINUOUS
 62
     7
100
AcDbLine
 10
53.244114
 20
155.092933
 30
0.0
 11
53.416379
 21
155.263586
 31
0.0
  0
LINE
  5
1315
100
AcDbEntity
  8
10000_FRONT
370
    25
390
0
  6
CONTINUOUS
 62
     7
100
AcDbLine
 10
66.63933
 20
162.756296
 30
0.0
 11
66.823764
 21
162.939075
 31
0.0
  0
LINE
  5
1316
100
AcDbEntity
  8
10000_FRONT
370
    25
390
0
  6
CONTINUOUS
 62
     7
100
AcDbLine
 10
79.014045
 20
172.396907
 30
0.0
 11
79.053016
 21
172.435598
 31
0.0
  0
LINE
  5
1317
100
AcDbEntity
  8
10000_FRONT
370
    25
390
0
  6
CONTINUOUS
 62
     7
100
AcDbLine
 10
57.810746
 20
155.706078
 30
0.0
 11
57.952693
 21
155.84711
 31
0.0
  0
LINE
  5
1318
100
AcDbEntity
  8
10000_FRONT
370
    25
390
0
  6
CONTINUOUS
 62
     7
100
AcDbLine
 10
58.565269
 20
156.078056
 30
0.0
 11
58.652551
 21
156.165086
 31
0.0
  0
LINE
  5
1319
100
AcDbEntity
  8
10000_FRONT
370
    25
390
0
  6
CONTINUOUS
 62
     7
100
AcDbLine
 10
78.975004
 20
172.35796
 30
0.0
 11
79.014045
 21
172.396907
 31
0.0
  0
LINE
  5
131A
100
AcDbEntity
  8
10000_FRONT
370
    25
390
0
  6
CONTINUOUS
 62
     7
100
AcDbLine
 10
70.487478
 20
159.573266
 30
0.0
 11
71.137522
 21
160.223285
 31
0.0
  0
LINE
  5
131B
100
AcDbEntity
  8
10000_FRONT
370
    25
390
0
  6
CONTINUOUS
 62
     7
100
AcDbLine
 10
70.909143
 20
160.206003
 30
0.0
 11
70.927807
 21
160.22478
 31
0.0
  0
LINE
  5
131C
100
AcDbEntity
  8
10000_FRONT
370
    25
390
0
  6
CONTINUOUS
 62
     7
100
AcDbLine
 10
71.0199
 20
160.10465
 30
0.0
 11
71.038035
 21
160.122898
 31
0.0
  0
LINE
  5
131D
100
AcDbEntity
  8
10000_FRONT
370
    25
390
0
  6
CONTINUOUS
 62
     7
100
AcDbLine
 10
70.927807
 20
160.22478
 30
0.0
 11
70.94648
 21
160.243578
 31
0.0
  0
LINE
  5
131E
100
AcDbEntity
  8
10000_FRONT
370
    25
390
0
  6
CONTINUOUS
 62
     7
100
AcDbLine
 10
71.038035
 20
160.122898
 30
0.0
 11
71.056121
 21
160.141109
 31
0.0
  0
LINE
  5
131F
100
AcDbEntity
  8
10000_FRONT
370
    25
390
0
  6
CONTINUOUS
 62
     7
100
AcDbLine
 10
34.732391
 20
172.720087
 30
0.0
 11
34.766588
 21
172.754536
 31
0.0
  0
LINE
  5
1320
100
AcDbEntity
  8
10000_FRONT
370
    25
390
0
  6
CONTINUOUS
 62
     7
100
AcDbLine
 10
70.94648
 20
160.243578
 30
0.0
 11
70.964874
 21
160.262111
 31
0.0
  0
LINE
  5
1321
100
AcDbEntity
  8
10000_FRONT
370
    25
390
0
  6
CONTINUOUS
 62
     7
100
AcDbLine
 10
71.056121
 20
160.141109
 30
0.0
 11
71.073891
 21
160.159016
 31
0.0
  0
LINE
  5
1322
100
AcDbEntity
  8
10000_FRONT
370
    25
390
0
  6
CONTINUOUS
 62
     7
100
AcDbLine
 10
70.964874
 20
160.262111
 30
0.0
 11
70.982707
 21
160.280096
 31
0.0
  0
LINE
  5
1323
100
AcDbEntity
  8
10000_FRONT
370
    25
390
0
  6
CONTINUOUS
 62
     7
100
AcDbLine
 10
71.073891
 20
160.159016
 30
0.0
 11
71.091093
 21
160.176367
 31
0.0
  0
LINE
  5
1324
100
AcDbEntity
  8
10000_FRONT
370
    25
390
0
  6
CONTINUOUS
 62
     7
100
AcDbLine
 10
70.982707
 20
160.280096
 30
0.0
 11
70.999763
 21
160.297313
 31
0.0
  0
LINE
  5
1325
100
AcDbEntity
  8
10000_FRONT
370
    25
390
0
  6
CONTINUOUS
 62
     7
100
AcDbLine
 10
71.091093
 20
160.176367
 30
0.0
 11
71.107541
 21
160.192973
 31
0.0
  0
LINE
  5
1326
100
AcDbEntity
  8
10000_FRONT
370
    25
390
0
  6
CONTINUOUS
 62
     7
100
AcDbLine
 10
70.999763
 20
160.297313
 30
0.0
 11
71.015864
 21
160.313583
 31
0.0
  0
LINE
  5
1327
100
AcDbEntity
  8
10000_FRONT
370
    25
390
0
  6
CONTINUOUS
 62
     7
100
AcDbLine
 10
71.107541
 20
160.192973
 30
0.0
 11
71.123071
 21
160.208667
 31
0.0
  0
LINE
  5
1328
100
AcDbEntity
  8
10000_FRONT
370
    25
390
0
  6
CONTINUOUS
 62
     7
100
AcDbLine
 10
71.015864
 20
160.313583
 30
0.0
 11
71.030833
 21
160.328724
 31
0.0
  0
LINE
  5
1329
100
AcDbEntity
  8
10000_FRONT
370
    25
390
0
  6
CONTINUOUS
 62
     7
100
AcDbLine
 10
71.123071
 20
160.208667
 30
0.0
 11
71.137522
 21
160.223285
 31
0.0
  0
LINE
  5
132A
100
AcDbEntity
  8
10000_FRONT
370
    25
390
0
  6
CONTINUOUS
 62
     7
100
AcDbLine
 10
61.234341
 20
167.599077
 30
0.0
 11
61.408481
 21
167.780025
 31
0.0
  0
LINE
  5
132B
100
AcDbEntity
  8
10000_FRONT
370
    25
390
0
  6
CONTINUOUS
 62
     7
100
AcDbLine
 10
76.09815
 20
160.261752
 30
0.0
 11
76.240955
 21
160.411797
 31
0.0
  0
LINE
  5
132C
100
AcDbEntity
  8
10000_FRONT
370
    25
390
0
  6
CONTINUOUS
 62
     7
100
AcDbLine
 10
70.571039
 20
164.980738
 30
0.0
 11
70.711279
 21
165.130668
 31
0.0
  0
LINE
  5
132D
100
AcDbEntity
  8
10000_FRONT
370
    25
390
0
  6
CONTINUOUS
 62
     7
100
AcDbLine
 10
79.048772
 20
134.52774
 30
0.0
 11
79.10013
 21
134.583187
 31
0.0
  0
LINE
  5
132E
100
AcDbEntity
  8
10000_FRONT
370
    25
390
0
  6
CONTINUOUS
 62
     7
100
AcDbLine
 10
66.823764
 20
162.939075
 30
0.0
 11
66.984507
 21
163.120058
 31
0.0
  0
LINE
  5
132F
100
AcDbEntity
  8
10000_FRONT
370
    25
390
0
  6
CONTINUOUS
 62
     7
100
AcDbLine
 10
56.525476
 20
155.1257
 30
0.0
 11
57.073281
 21
155.752739
 31
0.0
  0
LINE
  5
1330
100
AcDbEntity
  8
10000_FRONT
370
    25
390
0
  6
CONTINUOUS
 62
     7
100
AcDbLine
 10
60.514276
 20
155.1257
 30
0.0
 11
61.062081
 21
155.752739
 31
0.0
  0
LINE
  5
1331
100
AcDbEntity
  8
10000_FRONT
370
    25
390
0
  6
CONTINUOUS
 62
     7
100
AcDbLine
 10
76.240955
 20
160.411797
 30
0.0
 11
76.375137
 21
160.569352
 31
0.0
  0
LINE
  5
1332
100
AcDbEntity
  8
10000_FRONT
370
    25
390
0
  6
CONTINUOUS
 62
     7
100
AcDbLine
 10
34.70174
 20
172.683809
 30
0.0
 11
34.732391
 21
172.720087
 31
0.0
  0
LINE
  5
1333
100
AcDbEntity
  8
10000_FRONT
370
    25
390
0
  6
CONTINUOUS
 62
     7
100
AcDbLine
 10
70.438883
 20
164.823638
 30
0.0
 11
70.571039
 21
164.980738
 31
0.0
  0
LINE
  5
1334
100
AcDbEntity
  8
10000_FRONT
370
    25
390
0
  6
CONTINUOUS
 62
     7
100
AcDbLine
 10
79.10013
 20
134.583187
 30
0.0
 11
79.147344
 21
134.639392
 31
0.0
  0
LINE
  5
1335
100
AcDbEntity
  8
10000_FRONT
370
    25
390
0
  6
CONTINUOUS
 62
     7
100
AcDbLine
 10
61.072992
 20
167.406999
 30
0.0
 11
61.234341
 21
167.599077
 31
0.0
  0
LINE
  5
1336
100
AcDbEntity
  8
10000_FRONT
370
    25
390
0
  6
CONTINUOUS
 62
     7
100
AcDbLine
 10
59.575144
 20
156.113445
 30
0.0
 11
60.09026
 21
156.767708
 31
0.0
  0
LINE
  5
1337
100
AcDbEntity
  8
10000_FRONT
370
    25
390
0
  6
CONTINUOUS
 62
     7
100
AcDbLine
 10
52.927144
 20
156.113445
 30
0.0
 11
53.44226
 21
156.767708
 31
0.0
  0
LINE
  5
1338
100
AcDbEntity
  8
10000_FRONT
370
    25
390
0
  6
CONTINUOUS
 62
     7
100
AcDbLine
 10
66.984507
 20
163.120058
 30
0.0
 11
67.123064
 21
163.296114
 31
0.0
  0
LINE
  5
1339
100
AcDbEntity
  8
10000_FRONT
370
    25
390
0
  6
CONTINUOUS
 62
     7
100
AcDbLine
 10
79.147344
 20
134.639392
 30
0.0
 11
79.19016
 21
134.695579
 31
0.0
  0
LINE
  5
133A
100
AcDbEntity
  8
10000_FRONT
370
    25
390
0
  6
CONTINUOUS
 62
     7
100
AcDbLine
 10
76.375137
 20
160.569352
 30
0.0
 11
76.50041
 21
160.734033
 31
0.0
  0
LINE
  5
133B
100
AcDbEntity
  8
10000_FRONT
370
    25
390
0
  6
CONTINUOUS
 62
     7
100
AcDbLine
 10
70.315095
 20
164.659694
 30
0.0
 11
70.438883
 21
164.823638
 31
0.0
  0
LINE
  5
133C
100
AcDbEntity
  8
10000_FRONT
370
    25
390
0
  6
CONTINUOUS
 62
     7
100
AcDbLine
 10
57.073281
 20
155.752739
 30
0.0
 11
57.322492
 21
156.084085
 31
0.0
  0
LINE
  5
133D
100
AcDbEntity
  8
10000_FRONT
370
    25
390
0
  6
CONTINUOUS
 62
     7
100
AcDbLine
 10
61.062081
 20
155.752739
 30
0.0
 11
61.311292
 21
156.084085
 31
0.0
  0
LINE
  5
133E
100
AcDbEntity
  8
10000_FRONT
370
    25
390
0
  6
CONTINUOUS
 62
     7
100
AcDbLine
 10
60.924955
 20
167.204486
 30
0.0
 11
61.072992
 21
167.406999
 31
0.0
  0
LINE
  5
133F
100
AcDbEntity
  8
10000_FRONT
370
    25
390
0
  6
CONTINUOUS
 62
     7
100
AcDbLine
 10
34.674596
 20
172.646042
 30
0.0
 11
34.70174
 21
172.683809
 31
0.0
  0
LINE
  5
1340
100
AcDbEntity
  8
10000_FRONT
370
    25
390
0
  6
CONTINUOUS
 62
     7
100
AcDbLine
 10
67.123064
 20
163.296114
 30
0.0
 11
67.240983
 21
163.464151
 31
0.0
  0
LINE
  5
1341
100
AcDbEntity
  8
10000_FRONT
370
    25
390
0
  6
CONTINUOUS
 62
     7
100
AcDbLine
 10
64.046689
 20
169.660261
 30
0.0
 11
64.047363
 21
169.661223
 31
0.0
  0
LINE
  5
1342
100
AcDbEntity
  8
10000_FRONT
370
    25
390
0
  6
CONTINUOUS
 62
     7
100
AcDbLine
 10
68.193381
 20
166.180868
 30
0.0
 11
68.195178
 21
166.183435
 31
0.0
  0
LINE
  5
1343
100
AcDbEntity
  8
10000_FRONT
370
    25
390
0
  6
CONTINUOUS
 62
     7
100
AcDbLine
 10
79.19016
 20
134.695579
 30
0.0
 11
79.228902
 21
134.751792
 31
0.0
  0
LINE
  5
1344
100
AcDbEntity
  8
10000_FRONT
370
    25
390
0
  6
CONTINUOUS
 62
     7
100
AcDbLine
 10
76.50041
 20
160.734033
 30
0.0
 11
76.616487
 21
160.905459
 31
0.0
  0
LINE
  5
1345
100
AcDbEntity
  8
10000_FRONT
370
    25
390
0
  6
CONTINUOUS
 62
     7
100
AcDbLine
 10
70.201121
 20
164.491069
 30
0.0
 11
70.315095
 21
164.659694
 31
0.0
  0
LINE
  5
1346
100
AcDbEntity
  8
10000_FRONT
370
    25
390
0
  6
CONTINUOUS
 62
     7
100
AcDbLine
 10
60.79075
 20
166.992233
 30
0.0
 11
60.924955
 21
167.204486
 31
0.0
  0
LINE
  5
1347
100
AcDbEntity
  8
10000_FRONT
370
    25
390
0
  6
CONTINUOUS
 62
     7
100
AcDbLine
 10
67.240983
 20
163.464151
 30
0.0
 11
67.339809
 21
163.621076
 31
0.0
  0
LINE
  5
1348
100
AcDbEntity
  8
10000_FRONT
370
    25
390
0
  6
CONTINUOUS
 62
     7
100
AcDbLine
 10
79.228902
 20
134.751792
 30
0.0
 11
79.265117
 21
134.809955
 31
0.0
  0
LINE
  5
1349
100
AcDbEntity
  8
10000_FRONT
370
    25
390
0
  6
CONTINUOUS
 62
     7
100
AcDbLine
 10
34.650901
 20
172.607086
 30
0.0
 11
34.674596
 21
172.646042
 31
0.0
  0
LINE
  5
134A
100
AcDbEntity
  8
10000_FRONT
370
    25
390
0
  6
CONTINUOUS
 62
     7
100
AcDbLine
 10
70.102044
 20
164.327243
 30
0.0
 11
70.201121
 21
164.491069
 31
0.0
  0
LINE
  5
134B
100
AcDbEntity
  8
10000_FRONT
370
    25
390
0
  6
CONTINUOUS
 62
     7
100
AcDbLine
 10
76.616487
 20
160.905459
 30
0.0
 11
76.723077
 21
161.083246
 31
0.0
  0
LINE
  5
134C
100
AcDbEntity
  8
10000_FRONT
370
    25
390
0
  6
CONTINUOUS
 62
     7
100
AcDbLine
 10
67.339809
 20
163.621076
 30
0.0
 11
67.421742
 21
163.764995
 31
0.0
  0
LINE
  5
134D
100
AcDbEntity
  8
10000_FRONT
370
    25
390
0
  6
CONTINUOUS
 62
     7
100
AcDbLine
 10
79.265117
 20
134.809955
 30
0.0
 11
79.298787
 21
134.869968
 31
0.0
  0
LINE
  5
134E
100
AcDbEntity
  8
10000_FRONT
370
    25
390
0
  6
CONTINUOUS
 62
     7
100
AcDbLine
 10
70.017406
 20
164.17105
 30
0.0
 11
70.102044
 21
164.327243
 31
0.0
  0
LINE
  5
134F
100
AcDbEntity
  8
10000_FRONT
370
    25
390
0
  6
CONTINUOUS
 62
     7
100
AcDbLine
 10
60.670921
 20
166.770983
 30
0.0
 11
60.79075
 21
166.992233
 31
0.0
  0
LINE
  5
1350
100
AcDbEntity
  8
10000_FRONT
370
    25
390
0
  6
CONTINUOUS
 62
     7
100
AcDbLine
 10
76.723077
 20
161.083246
 30
0.0
 11
76.819858
 21
161.266934
 31
0.0
  0
LINE
  5
1351
100
AcDbEntity
  8
10000_FRONT
370
    25
390
0
  6
CONTINUOUS
 62
     7
100
AcDbLine
 10
34.630517
 20
172.567064
 30
0.0
 11
34.650901
 21
172.607086
 31
0.0
  0
LINE
  5
1352
100
AcDbEntity
  8
10000_FRONT
370
    25
390
0
  6
CONTINUOUS
 62
     7
100
AcDbLine
 10
56.501359
 20
156.419624
 30
0.0
 11
56.579452
 21
156.574287
 31
0.0
  0
LINE
  5
1353
100
AcDbEntity
  8
10000_FRONT
370
    25
390
0
  6
CONTINUOUS
 62
     7
100
AcDbLine
 10
60.490159
 20
156.419624
 30
0.0
 11
60.568252
 21
156.574287
 31
0.0
  0
LINE
  5
1354
100
AcDbEntity
  8
10000_FRONT
370
    25
390
0
  6
CONTINUOUS
 62
     7
100
AcDbLine
 10
57.322492
 20
156.084085
 30
0.0
 11
57.407476
 21
156.252641
 31
0.0
  0
LINE
  5
1355
100
AcDbEntity
  8
10000_FRONT
370
    25
390
0
  6
CONTINUOUS
 62
     7
100
AcDbLine
 10
61.311292
 20
156.084085
 30
0.0
 11
61.396276
 21
156.252641
 31
0.0
  0
LINE
  5
1356
100
AcDbEntity
  8
10000_FRONT
370
    25
390
0
  6
CONTINUOUS
 62
     7
100
AcDbLine
 10
79.298787
 20
134.869968
 30
0.0
 11
79.329782
 21
134.931564
 31
0.0
  0
LINE
  5
1357
100
AcDbEntity
  8
10000_FRONT
370
    25
390
0
  6
CONTINUOUS
 62
     7
100
AcDbLine
 10
57.746204
 20
155.57763
 30
0.0
 11
57.810746
 21
155.706078
 31
0.0
  0
LINE
  5
1358
100
AcDbEntity
  8
10000_FRONT
370
    25
390
0
  6
CONTINUOUS
 62
     7
100
AcDbLine
 10
58.652551
 20
156.165086
 30
0.0
 11
58.737765
 21
156.33574
 31
0.0
  0
LINE
  5
1359
100
AcDbEntity
  8
10000_FRONT
370
    25
390
0
  6
CONTINUOUS
 62
     7
100
AcDbLine
 10
58.735468
 20
155.179964
 30
0.0
 11
58.819304
 21
155.350616
 31
0.0
  0
LINE
  5
135A
100
AcDbEntity
  8
10000_FRONT
370
    25
390
0
  6
CONTINUOUS
 62
     7
100
AcDbLine
 10
57.830959
 20
156.482538
 30
0.0
 11
57.882639
 21
156.588181
 31
0.0
  0
LINE
  5
135B
100
AcDbEntity
  8
10000_FRONT
370
    25
390
0
  6
CONTINUOUS
 62
     7
100
AcDbLine
 10
54.746898
 20
156.000724
 30
0.0
 11
54.830504
 21
156.172427
 31
0.0
  0
LINE
  5
135C
100
AcDbEntity
  8
10000_FRONT
370
    25
390
0
  6
CONTINUOUS
 62
     7
100
AcDbLine
 10
69.946011
 20
164.024292
 30
0.0
 11
70.017406
 21
164.17105
 31
0.0
  0
LINE
  5
135D
100
AcDbEntity
  8
10000_FRONT
370
    25
390
0
  6
CONTINUOUS
 62
     7
100
AcDbLine
 10
76.819858
 20
161.266934
 30
0.0
 11
76.906261
 21
161.455452
 31
0.0
  0
LINE
  5
135E
100
AcDbEntity
  8
10000_FRONT
370
    25
390
0
  6
CONTINUOUS
 62
     7
100
AcDbLine
 10
60.566387
 20
166.542411
 30
0.0
 11
60.670921
 21
166.770983
 31
0.0
  0
LINE
  5
135F
100
AcDbEntity
  8
10000_FRONT
370
    25
390
0
  6
CONTINUOUS
 62
     7
100
AcDbLine
 10
79.329782
 20
134.931564
 30
0.0
 11
79.357965
 21
134.994487
 31
0.0
  0
LINE
  5
1360
100
AcDbEntity
  8
10000_FRONT
370
    25
390
0
  6
CONTINUOUS
 62
     7
100
AcDbLine
 10
69.886669
 20
163.888771
 30
0.0
 11
69.946011
 21
164.024292
 31
0.0
  0
LINE
  5
1361
100
AcDbEntity
  8
10000_FRONT
370
    25
390
0
  6
CONTINUOUS
 62
     7
100
AcDbLine
 10
56.508541
 20
150.964996
 30
0.0
 11
57.107288
 21
152.37236
 31
0.0
  0
LINE
  5
1362
100
AcDbEntity
  8
10000_FRONT
370
    25
390
0
  6
CONTINUOUS
 62
     7
100
AcDbLine
 10
56.411322
 20
151.79676
 30
0.0
 11
56.962231
 21
153.09456
 31
0.0
  0
LINE
  5
1363
100
AcDbEntity
  8
10000_FRONT
370
    25
390
0
  6
CONTINUOUS
 62
     7
100
AcDbLine
 10
34.613391
 20
172.526168
 30
0.0
 11
34.630517
 21
172.567064
 31
0.0
  0
LINE
  5
1364
100
AcDbEntity
  8
10000_FRONT
370
    25
390
0
  6
CONTINUOUS
 62
     7
100
AcDbLine
 10
69.837697
 20
163.764995
 30
0.0
 11
69.886669
 21
163.888771
 31
0.0
  0
LINE
  5
1365
100
AcDbEntity
  8
10000_FRONT
370
    25
390
0
  6
CONTINUOUS
 62
     7
100
AcDbLine
 10
79.357965
 20
134.994487
 30
0.0
 11
79.383201
 21
135.058467
 31
0.0
  0
LINE
  5
1366
100
AcDbEntity
  8
10000_FRONT
370
    25
390
0
  6
CONTINUOUS
 62
     7
100
AcDbLine
 10
76.906261
 20
161.455452
 30
0.0
 11
76.982061
 21
161.648197
 31
0.0
  0
LINE
  5
1367
100
AcDbEntity
  8
10000_FRONT
370
    25
390
0
  6
CONTINUOUS
 62
     7
100
AcDbLine
 10
55.20736
 20
155.545125
 30
0.0
 11
55.564524
 21
156.461305
 31
0.0
  0
LINE
  5
1368
100
AcDbEntity
  8
10000_FRONT
370
    25
390
0
  6
CONTINUOUS
 62
     7
100
AcDbLine
 10
55.000642
 20
155.008261
 30
0.0
 11
55.162571
 21
155.427685
 31
0.0
  0
LINE
  5
1369
100
AcDbEntity
  8
10000_FRONT
370
    25
390
0
  6
CONTINUOUS
 62
     7
100
AcDbLine
 10
60.477607
 20
166.307706
 30
0.0
 11
60.566387
 21
166.542411
 31
0.0
  0
LINE
  5
136A
100
AcDbEntity
  8
10000_FRONT
370
    25
390
0
  6
CONTINUOUS
 62
     7
100
AcDbLine
 10
67.421742
 20
163.764995
 30
0.0
 11
67.459005
 21
163.865724
 31
0.0
  0
LINE
  5
136B
100
AcDbEntity
  8
10000_FRONT
370
    25
390
0
  6
CONTINUOUS
 62
     7
100
AcDbLine
 10
79.383201
 20
135.058467
 30
0.0
 11
79.405361
 21
135.123249
 31
0.0
  0
LINE
  5
136C
100
AcDbEntity
  8
10000_FRONT
370
    25
390
0
  6
CONTINUOUS
 62
     7
100
AcDbLine
 10
67.459005
 20
163.865724
 30
0.0
 11
67.496356
 21
163.976899
 31
0.0
  0
LINE
  5
136D
100
AcDbEntity
  8
10000_FRONT
370
    25
390
0
  6
CONTINUOUS
 62
     7
100
AcDbLine
 10
34.599475
 20
172.484608
 30
0.0
 11
34.613391
 21
172.526168
 31
0.0
  0
LINE
  5
136E
100
AcDbEntity
  8
10000_FRONT
370
    25
390
0
  6
CONTINUOUS
 62
     7
100
AcDbLine
 10
60.064379
 20
155.263586
 30
0.0
 11
60.148215
 21
155.516813
 31
0.0
  0
LINE
  5
136F
100
AcDbEntity
  8
10000_FRONT
370
    25
390
0
  6
CONTINUOUS
 62
     7
100
AcDbLine
 10
53.416379
 20
155.263586
 30
0.0
 11
53.500215
 21
155.516813
 31
0.0
  0
LINE
  5
1370
100
AcDbEntity
  8
10000_FRONT
370
    25
390
0
  6
CONTINUOUS
 62
     7
100
AcDbLine
 10
74.652835
 20
161.412337
 30
0.0
 11
75.158323
 21
163.015535
 31
0.0
  0
LINE
  5
1371
100
AcDbEntity
  8
10000_FRONT
370
    25
390
0
  6
CONTINUOUS
 62
     7
100
AcDbLine
 10
65.152836
 20
164.112337
 30
0.0
 11
65.658323
 21
165.715535
 31
0.0
  0
LINE
  5
1372
100
AcDbEntity
  8
10000_FRONT
370
    25
390
0
  6
CONTINUOUS
 62
     7
100
AcDbLine
 10
72.246381
 20
160.431056
 30
0.0
 11
72.757581
 21
162.052374
 31
0.0
  0
LINE
  5
1373
100
AcDbEntity
  8
10000_FRONT
370
    25
390
0
  6
CONTINUOUS
 62
     7
100
AcDbLine
 10
71.894076
 20
162.639195
 30
0.0
 11
72.194782
 21
163.592912
 31
0.0
  0
LINE
  5
1374
100
AcDbEntity
  8
10000_FRONT
370
    25
390
0
  6
CONTINUOUS
 62
     7
100
AcDbLine
 10
73.23871
 20
163.578322
 30
0.0
 11
73.74991
 21
165.19964
 31
0.0
  0
LINE
  5
1375
100
AcDbEntity
  8
10000_FRONT
370
    25
390
0
  6
CONTINUOUS
 62
     7
100
AcDbLine
 10
62.394076
 20
165.339195
 30
0.0
 11
62.694782
 21
166.292912
 31
0.0
  0
LINE
  5
1376
100
AcDbEntity
  8
10000_FRONT
370
    25
390
0
  6
CONTINUOUS
 62
     7
100
AcDbLine
 10
64.692427
 20
165.977616
 30
0.0
 11
65.203627
 21
167.598934
 31
0.0
  0
LINE
  5
1377
100
AcDbEntity
  8
10000_FRONT
370
    25
390
0
  6
CONTINUOUS
 62
     7
100
AcDbLine
 10
73.200097
 20
160.13035
 30
0.0
 11
73.711297
 21
161.751669
 31
0.0
  0
LINE
  5
1378
100
AcDbEntity
  8
10000_FRONT
370
    25
390
0
  6
CONTINUOUS
 62
     7
100
AcDbLine
 10
63.700098
 20
162.830349
 30
0.0
 11
64.211298
 21
164.451668
 31
0.0
  0
LINE
  5
1379
100
AcDbEntity
  8
10000_FRONT
370
    25
390
0
  6
CONTINUOUS
 62
     7
100
AcDbLine
 10
62.746381
 20
163.131055
 30
0.0
 11
63.257581
 21
164.752374
 31
0.0
  0
LINE
  5
137A
100
AcDbEntity
  8
10000_FRONT
370
    25
390
0
  6
CONTINUOUS
 62
     7
100
AcDbLine
 10
63.73871
 20
166.278321
 30
0.0
 11
64.24991
 21
167.89964
 31
0.0
  0
LINE
  5
137B
100
AcDbEntity
  8
10000_FRONT
370
    25
390
0
  6
CONTINUOUS
 62
     7
100
AcDbLine
 10
74.192428
 20
163.277616
 30
0.0
 11
74.703626
 21
164.898934
 31
0.0
  0
LINE
  5
137C
100
AcDbEntity
  8
10000_FRONT
370
    25
390
0
  6
CONTINUOUS
 62
     7
100
AcDbLine
 10
60.404831
 20
166.067699
 30
0.0
 11
60.477607
 21
166.307706
 31
0.0
  0
LINE
  5
137D
100
AcDbEntity
  8
10000_FRONT
370
    25
390
0
  6
CONTINUOUS
 62
     7
100
AcDbLine
 10
67.496356
 20
163.976899
 30
0.0
 11
67.53307
 21
164.099497
 31
0.0
  0
LINE
  5
137E
100
AcDbEntity
  8
10000_FRONT
370
    25
390
0
  6
CONTINUOUS
 62
     7
100
AcDbLine
 10
77.03037
 20
161.790528
 30
0.0
 11
77.067029
 21
161.913274
 31
0.0
  0
LINE
  5
137F
100
AcDbEntity
  8
10000_FRONT
370
    25
390
0
  6
CONTINUOUS
 62
     7
100
AcDbLine
 10
76.739425
 20
161.736496
 30
0.0
 11
76.745403
 21
161.757
 31
0.0
  0
LINE
  5
1380
100
AcDbEntity
  8
10000_FRONT
370
    25
390
0
  6
CONTINUOUS
 62
     7
100
AcDbLine
 10
79.405361
 20
135.123249
 30
0.0
 11
79.424337
 21
135.188564
 31
0.0
  0
LINE
  5
1381
100
AcDbEntity
  8
10000_FRONT
370
    25
390
0
  6
CONTINUOUS
 62
     7
100
AcDbLine
 10
76.73356
 20
161.716003
 30
0.0
 11
76.739425
 21
161.736496
 31
0.0
  0
LINE
  5
1382
100
AcDbEntity
  8
10000_FRONT
370
    25
390
0
  6
CONTINUOUS
 62
     7
100
AcDbLine
 10
76.745403
 20
161.757
 30
0.0
 11
76.751268
 21
161.777579
 31
0.0
  0
LINE
  5
1383
100
AcDbEntity
  8
10000_FRONT
370
    25
390
0
  6
CONTINUOUS
 62
     7
100
AcDbLine
 10
76.751268
 20
161.777579
 30
0.0
 11
76.757015
 21
161.798231
 31
0.0
  0
LINE
  5
1384
100
AcDbEntity
  8
10000_FRONT
370
    25
390
0
  6
CONTINUOUS
 62
     7
100
AcDbLine
 10
76.757015
 20
161.798231
 30
0.0
 11
76.762641
 21
161.81895
 31
0.0
  0
LINE
  5
1385
100
AcDbEntity
  8
10000_FRONT
370
    25
390
0
  6
CONTINUOUS
 62
     7
100
AcDbLine
 10
77.609073
 20
161.481419
 30
0.0
 11
77.647592
 21
161.625163
 31
0.0
  0
LINE
  5
1386
100
AcDbEntity
  8
10000_FRONT
370
    25
390
0
  6
CONTINUOUS
 62
     7
100
AcDbLine
 10
76.762641
 20
161.81895
 30
0.0
 11
76.768148
 21
161.839734
 31
0.0
  0
LINE
  5
1387
100
AcDbEntity
  8
10000_FRONT
370
    25
390
0
  6
CONTINUOUS
 62
     7
100
AcDbLine
 10
76.768148
 20
161.839734
 30
0.0
 11
76.773637
 21
161.86055
 31
0.0
  0
LINE
  5
1388
100
AcDbEntity
  8
10000_FRONT
370
    25
390
0
  6
CONTINUOUS
 62
     7
100
AcDbLine
 10
77.067029
 20
161.913274
 30
0.0
 11
77.0995
 21
162.037229
 31
0.0
  0
LINE
  5
1389
100
AcDbEntity
  8
10000_FRONT
370
    25
390
0
  6
CONTINUOUS
 62
     7
100
AcDbLine
 10
67.53307
 20
164.099497
 30
0.0
 11
67.567921
 21
164.233202
 31
0.0
  0
LINE
  5
138A
100
AcDbEntity
  8
10000_FRONT
370
    25
390
0
  6
CONTINUOUS
 62
     7
100
AcDbLine
 10
34.588727
 20
172.44259
 30
0.0
 11
34.599475
 21
172.484608
 31
0.0
  0
LINE
  5
138B
100
AcDbEntity
  8
10000_FRONT
370
    25
390
0
  6
CONTINUOUS
 62
     7
100
AcDbLine
 10
79.424337
 20
135.188564
 30
0.0
 11
79.440164
 21
135.254123
 31
0.0
  0
LINE
  5
138C
100
AcDbEntity
  8
10000_FRONT
370
    25
390
0
  6
CONTINUOUS
 62
     7
100
AcDbLine
 10
77.0995
 20
162.037229
 30
0.0
 11
77.127748
 21
162.162284
 31
0.0
  0
LINE
  5
138D
100
AcDbEntity
  8
10000_FRONT
370
    25
390
0
  6
CONTINUOUS
 62
     7
100
AcDbLine
 10
67.567921
 20
164.233202
 30
0.0
 11
67.599685
 21
164.377696
 31
0.0
  0
LINE
  5
138E
100
AcDbEntity
  8
10000_FRONT
370
    25
390
0
  6
CONTINUOUS
 62
     7
100
AcDbLine
 10
60.352276
 20
165.843175
 30
0.0
 11
60.369001
 21
165.921727
 31
0.0
  0
LINE
  5
138F
100
AcDbEntity
  8
10000_FRONT
370
    25
390
0
  6
CONTINUOUS
 62
     7
100
AcDbLine
 10
60.603363
 20
166.009583
 30
0.0
 11
60.607759
 21
166.030263
 31
0.0
  0
LINE
  5
1390
100
AcDbEntity
  8
10000_FRONT
370
    25
390
0
  6
CONTINUOUS
 62
     7
100
AcDbLine
 10
69.81219
 20
163.644501
 30
0.0
 11
69.837697
 21
163.764995
 31
0.0
  0
LINE
  5
1391
100
AcDbEntity
  8
10000_FRONT
370
    25
390
0
  6
CONTINUOUS
 62
     7
100
AcDbLine
 10
60.599029
 20
165.988784
 30
0.0
 11
60.603363
 21
166.009583
 31
0.0
  0
LINE
  5
1392
100
AcDbEntity
  8
10000_FRONT
370
    25
390
0
  6
CONTINUOUS
 62
     7
100
AcDbLine
 10
60.594805
 20
165.967862
 30
0.0
 11
60.599029
 21
165.988784
 31
0.0
  0
LINE
  5
1393
100
AcDbEntity
  8
10000_FRONT
370
    25
390
0
  6
CONTINUOUS
 62
     7
100
AcDbLine
 10
60.590694
 20
165.946821
 30
0.0
 11
60.594805
 21
165.967862
 31
0.0
  0
LINE
  5
1394
100
AcDbEntity
  8
10000_FRONT
370
    25
390
0
  6
CONTINUOUS
 62
     7
100
AcDbLine
 10
79.440164
 20
135.254123
 30
0.0
 11
79.452926
 21
135.319622
 31
0.0
  0
LINE
  5
1395
100
AcDbEntity
  8
10000_FRONT
370
    25
390
0
  6
CONTINUOUS
 62
     7
100
AcDbLine
 10
60.337236
 20
165.764244
 30
0.0
 11
60.352276
 21
165.843175
 31
0.0
  0
LINE
  5
1396
100
AcDbEntity
  8
10000_FRONT
370
    25
390
0
  6
CONTINUOUS
 62
     7
100
AcDbLine
 10
77.127748
 20
162.162284
 30
0.0
 11
77.151739
 21
162.288332
 31
0.0
  0
LINE
  5
1397
100
AcDbEntity
  8
10000_FRONT
370
    25
390
0
  6
CONTINUOUS
 62
     7
100
AcDbLine
 10
60.586697
 20
165.925665
 30
0.0
 11
60.590694
 21
165.946821
 31
0.0
  0
LINE
  5
1398
100
AcDbEntity
  8
10000_FRONT
370
    25
390
0
  6
CONTINUOUS
 62
     7
100
AcDbLine
 10
60.578848
 20
165.883066
 30
0.0
 11
60.582815
 21
165.904401
 31
0.0
  0
LINE
  5
1399
100
AcDbEntity
  8
10000_FRONT
370
    25
390
0
  6
CONTINUOUS
 62
     7
100
AcDbLine
 10
60.582815
 20
165.904401
 30
0.0
 11
60.586697
 21
165.925665
 31
0.0
  0
LINE
  5
139A
100
AcDbEntity
  8
10000_FRONT
370
    25
390
0
  6
CONTINUOUS
 62
     7
100
AcDbLine
 10
34.581094
 20
172.400259
 30
0.0
 11
34.588727
 21
172.44259
 31
0.0
  0
LINE
  5
139B
100
AcDbEntity
  8
10000_FRONT
370
    25
390
0
  6
CONTINUOUS
 62
     7
100
AcDbLine
 10
67.599685
 20
164.377696
 30
0.0
 11
67.627139
 21
164.532664
 31
0.0
  0
LINE
  5
139C
100
AcDbEntity
  8
10000_FRONT
370
    25
390
0
  6
CONTINUOUS
 62
     7
100
AcDbLine
 10
69.788783
 20
163.511722
 30
0.0
 11
69.81219
 21
163.644501
 31
0.0
  0
LINE
  5
139D
100
AcDbEntity
  8
10000_FRONT
370
    25
390
0
  6
CONTINUOUS
 62
     7
100
AcDbLine
 10
60.323892
 20
165.68496
 30
0.0
 11
60.337236
 21
165.764244
 31
0.0
  0
LINE
  5
139E
100
AcDbEntity
  8
10000_FRONT
370
    25
390
0
  6
CONTINUOUS
 62
     7
100
AcDbLine
 10
77.151739
 20
162.288332
 30
0.0
 11
77.171438
 21
162.415263
 31
0.0
  0
LINE
  5
139F
100
AcDbEntity
  8
10000_FRONT
370
    25
390
0
  6
CONTINUOUS
 62
     7
100
AcDbLine
 10
79.452926
 20
135.319622
 30
0.0
 11
79.462709
 21
135.38475
 31
0.0
  0
LINE
  5
13A0
100
AcDbEntity
  8
10000_FRONT
370
    25
390
0
  6
CONTINUOUS
 62
     7
100
AcDbLine
 10
60.312251
 20
165.605352
 30
0.0
 11
60.323892
 21
165.68496
 31
0.0
  0
LINE
  5
13A1
100
AcDbEntity
  8
10000_FRONT
370
    25
390
0
  6
CONTINUOUS
 62
     7
100
AcDbLine
 10
69.768711
 20
163.365926
 30
0.0
 11
69.788783
 21
163.511722
 31
0.0
  0
LINE
  5
13A2
100
AcDbEntity
  8
10000_FRONT
370
    25
390
0
  6
CONTINUOUS
 62
     7
100
AcDbLine
 10
67.627139
 20
164.532664
 30
0.0
 11
67.648971
 21
164.697038
 31
0.0
  0
LINE
  5
13A3
100
AcDbEntity
  8
10000_FRONT
370
    25
390
0
  6
CONTINUOUS
 62
     7
100
AcDbLine
 10
60.302322
 20
165.525445
 30
0.0
 11
60.312251
 21
165.605352
 31
0.0
  0
LINE
  5
13A4
100
AcDbEntity
  8
10000_FRONT
370
    25
390
0
  6
CONTINUOUS
 62
     7
100
AcDbLine
 10
77.171438
 20
162.415263
 30
0.0
 11
77.186712
 21
162.541855
 31
0.0
  0
LINE
  5
13A5
100
AcDbEntity
  8
10000_FRONT
370
    25
390
0
  6
CONTINUOUS
 62
     7
100
AcDbLine
 10
34.576524
 20
172.357673
 30
0.0
 11
34.581094
 21
172.400259
 31
0.0
  0
LINE
  5
13A6
100
AcDbEntity
  8
10000_FRONT
370
    25
390
0
  6
CONTINUOUS
 62
     7
100
AcDbLine
 10
79.462709
 20
135.38475
 30
0.0
 11
79.469594
 21
135.449199
 31
0.0
  0
LINE
  5
13A7
100
AcDbEntity
  8
10000_FRONT
370
    25
390
0
  6
CONTINUOUS
 62
     7
100
AcDbLine
 10
60.294113
 20
165.445285
 30
0.0
 11
60.302322
 21
165.525445
 31
0.0
  0
LINE
  5
13A8
100
AcDbEntity
  8
10000_FRONT
370
    25
390
0
  6
CONTINUOUS
 62
     7
100
AcDbLine
 10
69.753513
 20
163.207735
 30
0.0
 11
69.768711
 21
163.365926
 31
0.0
  0
LINE
  5
13A9
100
AcDbEntity
  8
10000_FRONT
370
    25
390
0
  6
CONTINUOUS
 62
     7
100
AcDbLine
 10
67.648971
 20
164.697038
 30
0.0
 11
67.663567
 21
164.863697
 31
0.0
  0
LINE
  5
13AA
100
AcDbEntity
  8
10000_FRONT
370
    25
390
0
  6
CONTINUOUS
 62
     7
100
AcDbLine
 10
77.186712
 20
162.541855
 30
0.0
 11
77.197385
 21
162.664995
 31
0.0
  0
LINE
  5
13AB
100
AcDbEntity
  8
10000_FRONT
370
    25
390
0
  6
CONTINUOUS
 62
     7
100
AcDbLine
 10
60.28764
 20
165.364995
 30
0.0
 11
60.294113
 21
165.445285
 31
0.0
  0
LINE
  5
13AC
100
AcDbEntity
  8
10000_FRONT
370
    25
390
0
  6
CONTINUOUS
 62
     7
100
AcDbLine
 10
79.469594
 20
135.449199
 30
0.0
 11
79.473665
 21
135.512664
 31
0.0
  0
LINE
  5
13AD
100
AcDbEntity
  8
10000_FRONT
370
    25
390
0
  6
CONTINUOUS
 62
     7
100
AcDbLine
 10
69.744728
 20
163.037768
 30
0.0
 11
69.753513
 21
163.207735
 31
0.0
  0
LINE
  5
13AE
100
AcDbEntity
  8
10000_FRONT
370
    25
390
0
  6
CONTINUOUS
 62
     7
100
AcDbLine
 10
60.279742
 20
165.19793
 30
0.0
 11
60.28764
 21
165.364995
 31
0.0
  0
LINE
  5
13AF
100
AcDbEntity
  8
10000_FRONT
370
    25
390
0
  6
CONTINUOUS
 62
     7
100
AcDbLine
 10
77.197385
 20
162.664995
 30
0.0
 11
77.206111
 21
162.856646
 31
0.0
  0
LINE
  5
13B0
100
AcDbEntity
  8
10000_FRONT
370
    25
390
0
  6
CONTINUOUS
 62
     7
100
AcDbLine
 10
67.663567
 20
164.863697
 30
0.0
 11
67.670665
 21
165.030746
 31
0.0
  0
LINE
  5
13B1
100
AcDbEntity
  8
10000_FRONT
370
    25
390
0
  6
CONTINUOUS
 62
     7
100
AcDbLine
 10
34.575004
 20
172.314995
 30
0.0
 11
34.576524
 21
172.357673
 31
0.0
  0
LINE
  5
13B2
100
AcDbEntity
  8
10000_FRONT
370
    25
390
0
  6
CONTINUOUS
 62
     7
100
AcDbLine
 10
79.473665
 20
135.512664
 30
0.0
 11
79.475004
 21
135.574997
 31
0.0
  0
LINE
  5
13B3
100
AcDbEntity
  8
10000_FRONT
370
    25
390
0
  6
CONTINUOUS
 62
     7
100
AcDbLine
 10
64.046757
 20
168.718172
 30
0.0
 11
64.046902
 21
168.731526
 31
0.0
  0
LINE
  5
13B4
100
AcDbEntity
  8
10000_FRONT
370
    25
390
0
  6
CONTINUOUS
 62
     7
100
AcDbLine
 10
63.896764
 20
168.719367
 30
0.0
 11
63.896906
 21
168.732548
 31
0.0
  0
LINE
  5
13B5
100
AcDbEntity
  8
10000_FRONT
370
    25
390
0
  6
CONTINUOUS
 62
     7
100
AcDbLine
 10
64.046902
 20
168.731526
 30
0.0
 11
64.047039
 21
168.745013
 31
0.0
  0
LINE
  5
13B6
100
AcDbEntity
  8
10000_FRONT
370
    25
390
0
  6
CONTINUOUS
 62
     7
100
AcDbLine
 10
63.896906
 20
168.732548
 30
0.0
 11
63.897041
 21
168.745877
 31
0.0
  0
LINE
  5
13B7
100
AcDbEntity
  8
10000_FRONT
370
    25
390
0
  6
CONTINUOUS
 62
     7
100
AcDbLine
 10
63.897041
 20
168.745877
 30
0.0
 11
63.897174
 21
168.759901
 31
0.0
  0
LINE
  5
13B8
100
AcDbEntity
  8
10000_FRONT
370
    25
390
0
  6
CONTINUOUS
 62
     7
100
AcDbLine
 10
64.047039
 20
168.745013
 30
0.0
 11
64.047173
 21
168.759183
 31
0.0
  0
LINE
  5
13B9
100
AcDbEntity
  8
10000_FRONT
370
    25
390
0
  6
CONTINUOUS
 62
     7
100
AcDbLine
 10
64.047173
 20
168.759183
 30
0.0
 11
64.047307
 21
168.774122
 31
0.0
  0
LINE
  5
13BA
100
AcDbEntity
  8
10000_FRONT
370
    25
390
0
  6
CONTINUOUS
 62
     7
100
AcDbLine
 10
63.897174
 20
168.759901
 30
0.0
 11
63.897305
 21
168.774669
 31
0.0
  0
LINE
  5
13BB
100
AcDbEntity
  8
10000_FRONT
370
    25
390
0
  6
CONTINUOUS
 62
     7
100
AcDbLine
 10
63.897305
 20
168.774669
 30
0.0
 11
63.897434
 21
168.790105
 31
0.0
  0
LINE
  5
13BC
100
AcDbEntity
  8
10000_FRONT
370
    25
390
0
  6
CONTINUOUS
 62
     7
100
AcDbLine
 10
64.047307
 20
168.774122
 30
0.0
 11
64.047437
 21
168.789753
 31
0.0
  0
LINE
  5
13BD
100
AcDbEntity
  8
10000_FRONT
370
    25
390
0
  6
CONTINUOUS
 62
     7
100
AcDbLine
 10
64.047437
 20
168.789753
 30
0.0
 11
64.047564
 21
168.805998
 31
0.0
  0
LINE
  5
13BE
100
AcDbEntity
  8
10000_FRONT
370
    25
390
0
  6
CONTINUOUS
 62
     7
100
AcDbLine
 10
63.897434
 20
168.790105
 30
0.0
 11
63.897558
 21
168.806135
 31
0.0
  0
LINE
  5
13BF
100
AcDbEntity
  8
10000_FRONT
370
    25
390
0
  6
CONTINUOUS
 62
     7
100
AcDbLine
 10
63.897558
 20
168.806135
 30
0.0
 11
63.897679
 21
168.822681
 31
0.0
  0
LINE
  5
13C0
100
AcDbEntity
  8
10000_FRONT
370
    25
390
0
  6
CONTINUOUS
 62
     7
100
AcDbLine
 10
64.047564
 20
168.805998
 30
0.0
 11
64.047686
 21
168.822776
 31
0.0
  0
LINE
  5
13C1
100
AcDbEntity
  8
10000_FRONT
370
    25
390
0
  6
CONTINUOUS
 62
     7
100
AcDbLine
 10
69.743896
 20
162.856646
 30
0.0
 11
69.744728
 21
163.037768
 31
0.0
  0
LINE
  5
13C2
100
AcDbEntity
  8
10000_FRONT
370
    25
390
0
  6
CONTINUOUS
 62
     7
100
AcDbLine
 10
60.279343
 20
165.030746
 30
0.0
 11
60.279742
 21
165.19793
 31
0.0
  0
LINE
  5
13C3
100
AcDbEntity
  8
10000_FRONT
370
    25
390
0
  6
CONTINUOUS
 62
     7
100
AcDbLine
 10
34.575004
 20
134.974994
 30
0.0
 11
34.575004
 21
172.314995
 31
0.0
  0
LINE
  5
13C4
100
AcDbEntity
  8
10000_FRONT
370
    25
390
0
  6
CONTINUOUS
 62
     7
100
AcDbLine
 10
34.675004
 20
135.574997
 30
0.0
 11
34.675004
 21
149.874996
 31
0.0
  0
LINE
  5
13C5
100
AcDbEntity
  8
10000_FRONT
370
    25
390
0
  6
CONTINUOUS
 62
     7
100
AcDbLine
 10
35.175004
 20
149.874996
 30
0.0
 11
35.175004
 21
172.35796
 31
0.0
  0
LINE
  5
13C6
100
AcDbEntity
  8
10000_FRONT
370
    25
390
0
  6
CONTINUOUS
 62
     7
100
AcDbLine
 10
35.475004
 20
134.248344
 30
0.0
 11
35.475004
 21
149.874996
 31
0.0
  0
LINE
  5
13C7
100
AcDbEntity
  8
10000_FRONT
370
    25
390
0
  6
CONTINUOUS
 62
     7
100
AcDbLine
 10
35.725004
 20
138.924995
 30
0.0
 11
35.725004
 21
139.674995
 31
0.0
  0
LINE
  5
13C8
100
AcDbEntity
  8
10000_FRONT
370
    25
390
0
  6
CONTINUOUS
 62
     7
100
AcDbLine
 10
35.925004
 20
142.424995
 30
0.0
 11
35.925004
 21
146.064745
 31
0.0
  0
LINE
  5
13C9
100
AcDbEntity
  8
10000_FRONT
370
    25
390
0
  6
CONTINUOUS
 62
     7
100
AcDbLine
 10
35.975004
 20
152.264995
 30
0.0
 11
35.975004
 21
154.564995
 31
0.0
  0
LINE
  5
13CA
100
AcDbEntity
  8
10000_FRONT
370
    25
390
0
  6
CONTINUOUS
 62
     7
100
AcDbLine
 10
36.125003
 20
164.014995
 30
0.0
 11
36.125003
 21
171.114995
 31
0.0
  0
LINE
  5
13CB
100
AcDbEntity
  8
10000_FRONT
370
    25
390
0
  6
CONTINUOUS
 62
     7
100
AcDbLine
 10
36.225004
 20
164.064995
 30
0.0
 11
36.225004
 21
171.064995
 31
0.0
  0
LINE
  5
13CC
100
AcDbEntity
  8
10000_FRONT
370
    25
390
0
  6
CONTINUOUS
 62
     7
100
AcDbLine
 10
37.275005
 20
152.264995
 30
0.0
 11
37.275005
 21
154.564995
 31
0.0
  0
LINE
  5
13CD
100
AcDbEntity
  8
10000_FRONT
370
    25
390
0
  6
CONTINUOUS
 62
     7
100
AcDbLine
 10
38.925004
 20
142.424995
 30
0.0
 11
38.925004
 21
146.064745
 31
0.0
  0
LINE
  5
13CE
100
AcDbEntity
  8
10000_FRONT
370
    25
390
0
  6
CONTINUOUS
 62
     7
100
AcDbLine
 10
39.275005
 20
142.424995
 30
0.0
 11
39.275005
 21
146.064745
 31
0.0
  0
LINE
  5
13CF
100
AcDbEntity
  8
10000_FRONT
370
    25
390
0
  6
CONTINUOUS
 62
     7
100
AcDbLine
 10
39.933004
 20
164.014995
 30
0.0
 11
39.933004
 21
164.064995
 31
0.0
  0
LINE
  5
13D0
100
AcDbEntity
  8
10000_FRONT
370
    25
390
0
  6
CONTINUOUS
 62
     7
100
AcDbLine
 10
39.933004
 20
171.064995
 30
0.0
 11
39.933004
 21
171.114995
 31
0.0
  0
LINE
  5
13D1
100
AcDbEntity
  8
10000_FRONT
370
    25
390
0
  6
CONTINUOUS
 62
     7
100
AcDbLine
 10
41.517004
 20
164.014995
 30
0.0
 11
41.517004
 21
164.064995
 31
0.0
  0
LINE
  5
13D2
100
AcDbEntity
  8
10000_FRONT
370
    25
390
0
  6
CONTINUOUS
 62
     7
100
AcDbLine
 10
41.517004
 20
171.064995
 30
0.0
 11
41.517004
 21
171.114995
 31
0.0
  0
LINE
  5
13D3
100
AcDbEntity
  8
10000_FRONT
370
    25
390
0
  6
CONTINUOUS
 62
     7
100
AcDbLine
 10
42.275004
 20
142.424995
 30
0.0
 11
42.275004
 21
146.064745
 31
0.0
  0
LINE
  5
13D4
100
AcDbEntity
  8
10000_FRONT
370
    25
390
0
  6
CONTINUOUS
 62
     7
100
AcDbLine
 10
42.425004
 20
138.924995
 30
0.0
 11
42.425004
 21
139.674995
 31
0.0
  0
LINE
  5
13D5
100
AcDbEntity
  8
10000_FRONT
370
    25
390
0
  6
CONTINUOUS
 62
     7
100
AcDbLine
 10
42.925004
 20
138.924995
 30
0.0
 11
42.925004
 21
139.674995
 31
0.0
  0
LINE
  5
13D6
100
AcDbEntity
  8
10000_FRONT
370
    25
390
0
  6
CONTINUOUS
 62
     7
100
AcDbLine
 10
43.125004
 20
142.424995
 30
0.0
 11
43.125004
 21
146.064745
 31
0.0
  0
LINE
  5
13D7
100
AcDbEntity
  8
10000_FRONT
370
    25
390
0
  6
CONTINUOUS
 62
     7
100
AcDbLine
 10
45.625004
 20
146.846996
 30
0.0
 11
45.625004
 21
149.874996
 31
0.0
  0
LINE
  5
13D8
100
AcDbEntity
  8
10000_FRONT
370
    25
390
0
  6
CONTINUOUS
 62
     7
100
AcDbLine
 10
46.125004
 20
142.424995
 30
0.0
 11
46.125004
 21
146.064745
 31
0.0
  0
LINE
  5
13D9
100
AcDbEntity
  8
10000_FRONT
370
    25
390
0
  6
CONTINUOUS
 62
     7
100
AcDbLine
 10
46.370359
 20
149.074995
 30
0.0
 11
46.370359
 21
149.865001
 31
0.0
  0
LINE
  5
13DA
100
AcDbEntity
  8
10000_FRONT
370
    25
390
0
  6
CONTINUOUS
 62
     7
100
AcDbLine
 10
46.475004
 20
142.424995
 30
0.0
 11
46.475004
 21
146.064745
 31
0.0
  0
LINE
  5
13DB
100
AcDbEntity
  8
10000_FRONT
370
    25
390
0
  6
CONTINUOUS
 62
     7
100
AcDbLine
 10
46.748556
 20
149.074995
 30
0.0
 11
46.748556
 21
149.864999
 31
0.0
  0
LINE
  5
13DC
100
AcDbEntity
  8
10000_FRONT
370
    25
390
0
  6
CONTINUOUS
 62
     7
100
AcDbLine
 10
47.281304
 20
149.074995
 30
0.0
 11
47.281304
 21
149.864996
 31
0.0
  0
LINE
  5
13DD
100
AcDbEntity
  8
10000_FRONT
370
    25
390
0
  6
CONTINUOUS
 62
     7
100
AcDbLine
 10
49.125004
 20
149.874996
 30
0.0
 11
49.125004
 21
154.264995
 31
0.0
  0
LINE
  5
13DE
100
AcDbEntity
  8
10000_FRONT
370
    25
390
0
  6
CONTINUOUS
 62
     7
100
AcDbLine
 10
49.275004
 20
150.164995
 30
0.0
 11
49.275004
 21
153.964996
 31
0.0
  0
LINE
  5
13DF
100
AcDbEntity
  8
10000_FRONT
370
    25
390
0
  6
CONTINUOUS
 62
     7
100
AcDbLine
 10
49.475004
 20
142.424995
 30
0.0
 11
49.475004
 21
146.064745
 31
0.0
  0
LINE
  5
13E0
100
AcDbEntity
  8
10000_FRONT
370
    25
390
0
  6
CONTINUOUS
 62
     7
100
AcDbLine
 10
49.475004
 20
150.164995
 30
0.0
 11
49.475004
 21
153.964996
 31
0.0
  0
LINE
  5
13E1
100
AcDbEntity
  8
10000_FRONT
370
    25
390
0
  6
CONTINUOUS
 62
     7
100
AcDbLine
 10
49.475004
 20
153.964996
 30
0.0
 11
49.475004
 21
154.164995
 31
0.0
  0
LINE
  5
13E2
100
AcDbEntity
  8
10000_FRONT
370
    25
390
0
  6
CONTINUOUS
 62
     7
100
AcDbLine
 10
49.475004
 20
149.964996
 30
0.0
 11
49.475004
 21
150.164995
 31
0.0
  0
LINE
  5
13E3
100
AcDbEntity
  8
10000_FRONT
370
    25
390
0
  6
CONTINUOUS
 62
     7
100
AcDbLine
 10
49.478273
 20
149.074995
 30
0.0
 11
49.478273
 21
149.874996
 31
0.0
  0
LINE
  5
13E4
100
AcDbEntity
  8
10000_FRONT
370
    25
390
0
  6
CONTINUOUS
 62
     7
100
AcDbLine
 10
49.625004
 20
138.924995
 30
0.0
 11
49.625004
 21
139.674995
 31
0.0
  0
LINE
  5
13E5
100
AcDbEntity
  8
10000_FRONT
370
    25
390
0
  6
CONTINUOUS
 62
     7
100
AcDbLine
 10
50.075004
 20
151.011289
 30
0.0
 11
50.075004
 21
151.449548
 31
0.0
  0
LINE
  5
13E6
100
AcDbEntity
  8
10000_FRONT
370
    25
390
0
  6
CONTINUOUS
 62
     7
100
AcDbLine
 10
50.125004
 20
138.924995
 30
0.0
 11
50.125004
 21
139.674995
 31
0.0
  0
LINE
  5
13E7
100
AcDbEntity
  8
10000_FRONT
370
    25
390
0
  6
CONTINUOUS
 62
     7
100
AcDbLine
 10
50.325004
 20
142.424995
 30
0.0
 11
50.325004
 21
146.064745
 31
0.0
  0
LINE
  5
13E8
100
AcDbEntity
  8
10000_FRONT
370
    25
390
0
  6
CONTINUOUS
 62
     7
100
AcDbLine
 10
50.933004
 20
164.014995
 30
0.0
 11
50.933004
 21
164.064995
 31
0.0
  0
LINE
  5
13E9
100
AcDbEntity
  8
10000_FRONT
370
    25
390
0
  6
CONTINUOUS
 62
     7
100
AcDbLine
 10
50.933004
 20
171.064995
 30
0.0
 11
50.933004
 21
171.114995
 31
0.0
  0
LINE
  5
13EA
100
AcDbEntity
  8
10000_FRONT
370
    25
390
0
  6
CONTINUOUS
 62
     7
100
AcDbLine
 10
51.475004
 20
148.740732
 30
0.0
 11
51.475004
 21
149.074995
 31
0.0
  0
LINE
  5
13EB
100
AcDbEntity
  8
10000_FRONT
370
    25
390
0
  6
CONTINUOUS
 62
     7
100
AcDbLine
 10
51.475004
 20
149.874996
 30
0.0
 11
51.475004
 21
149.894033
 31
0.0
  0
LINE
  5
13EC
100
AcDbEntity
  8
10000_FRONT
370
    25
390
0
  6
CONTINUOUS
 62
     7
100
AcDbLine
 10
51.533293
 20
152.67019
 30
0.0
 11
51.533293
 21
153.079128
 31
0.0
  0
LINE
  5
13ED
100
AcDbEntity
  8
10000_FRONT
370
    25
390
0
  6
CONTINUOUS
 62
     7
100
AcDbLine
 10
52.015004
 20
150.964996
 30
0.0
 11
52.015004
 21
153.09456
 31
0.0
  0
LINE
  5
13EE
100
AcDbEntity
  8
10000_FRONT
370
    25
390
0
  6
CONTINUOUS
 62
     7
100
AcDbLine
 10
52.395418
 20
155.177308
 30
0.0
 11
52.395418
 21
155.17839
 31
0.0
  0
LINE
  5
13EF
100
AcDbEntity
  8
10000_FRONT
370
    25
390
0
  6
CONTINUOUS
 62
     7
100
AcDbLine
 10
52.47466
 20
156.650309
 30
0.0
 11
52.47466
 21
156.767708
 31
0.0
  0
LINE
  5
13F0
100
AcDbEntity
  8
10000_FRONT
370
    25
390
0
  6
CONTINUOUS
 62
     7
100
AcDbLine
 10
52.484996
 20
155.09089
 30
0.0
 11
52.484996
 21
155.091884
 31
0.0
  0
LINE
  5
13F1
100
AcDbEntity
  8
10000_FRONT
370
    25
390
0
  6
CONTINUOUS
 62
     7
100
AcDbLine
 10
52.517004
 20
164.014995
 30
0.0
 11
52.517004
 21
164.064995
 31
0.0
  0
LINE
  5
13F2
100
AcDbEntity
  8
10000_FRONT
370
    25
390
0
  6
CONTINUOUS
 62
     7
100
AcDbLine
 10
52.517004
 20
171.064995
 30
0.0
 11
52.517004
 21
171.114995
 31
0.0
  0
LINE
  5
13F3
100
AcDbEntity
  8
10000_FRONT
370
    25
390
0
  6
CONTINUOUS
 62
     7
100
AcDbLine
 10
52.636898
 20
150.964996
 30
0.0
 11
52.636898
 21
153.09456
 31
0.0
  0
LINE
  5
13F4
100
AcDbEntity
  8
10000_FRONT
370
    25
390
0
  6
CONTINUOUS
 62
     7
100
AcDbLine
 10
52.738801
 20
155.007357
 30
0.0
 11
52.738801
 21
155.008261
 31
0.0
  0
LINE
  5
13F5
100
AcDbEntity
  8
10000_FRONT
370
    25
390
0
  6
CONTINUOUS
 62
     7
100
AcDbLine
 10
52.927144
 20
156.111609
 30
0.0
 11
52.927144
 21
156.113445
 31
0.0
  0
LINE
  5
13F6
100
AcDbEntity
  8
10000_FRONT
370
    25
390
0
  6
CONTINUOUS
 62
     7
100
AcDbLine
 10
52.985715
 20
155.991624
 30
0.0
 11
52.985715
 21
155.993384
 31
0.0
  0
LINE
  5
13F7
100
AcDbEntity
  8
10000_FRONT
370
    25
390
0
  6
CONTINUOUS
 62
     7
100
AcDbLine
 10
52.990309
 20
155.007357
 30
0.0
 11
52.990309
 21
155.008261
 31
0.0
  0
LINE
  5
13F8
100
AcDbEntity
  8
10000_FRONT
370
    25
390
0
  6
CONTINUOUS
 62
     7
100
AcDbLine
 10
53.139004
 20
150.964996
 30
0.0
 11
53.139004
 21
153.09456
 31
0.0
  0
LINE
  5
13F9
100
AcDbEntity
  8
10000_FRONT
370
    25
390
0
  6
CONTINUOUS
 62
     7
100
AcDbLine
 10
53.143051
 20
155.937921
 30
0.0
 11
53.143051
 21
155.939645
 31
0.0
  0
LINE
  5
13FA
100
AcDbEntity
  8
10000_FRONT
370
    25
390
0
  6
CONTINUOUS
 62
     7
100
AcDbLine
 10
53.213106
 20
156.650309
 30
0.0
 11
53.213106
 21
156.652404
 31
0.0
  0
LINE
  5
13FB
100
AcDbEntity
  8
10000_FRONT
370
    25
390
0
  6
CONTINUOUS
 62
     7
100
AcDbLine
 10
53.244114
 20
155.091939
 30
0.0
 11
53.244114
 21
155.092933
 31
0.0
  0
LINE
  5
13FC
100
AcDbEntity
  8
10000_FRONT
370
    25
390
0
  6
CONTINUOUS
 62
     7
100
AcDbLine
 10
53.253301
 20
155.865621
 30
0.0
 11
53.253301
 21
155.867295
 31
0.0
  0
LINE
  5
13FD
100
AcDbEntity
  8
10000_FRONT
370
    25
390
0
  6
CONTINUOUS
 62
     7
100
AcDbLine
 10
53.325004
 20
142.424995
 30
0.0
 11
53.325004
 21
146.064745
 31
0.0
  0
LINE
  5
13FE
100
AcDbEntity
  8
10000_FRONT
370
    25
390
0
  6
CONTINUOUS
 62
     7
100
AcDbLine
 10
53.326801
 20
155.754292
 30
0.0
 11
53.326801
 21
155.755885
 31
0.0
  0
LINE
  5
13FF
100
AcDbEntity
  8
10000_FRONT
370
    25
390
0
  6
CONTINUOUS
 62
     7
100
AcDbLine
 10
53.380777
 20
155.520391
 30
0.0
 11
53.380777
 21
155.598601
 31
0.0
  0
LINE
  5
1400
100
AcDbEntity
  8
10000_FRONT
370
    25
390
0
  6
CONTINUOUS
 62
     7
100
AcDbLine
 10
53.416379
 20
155.262419
 30
0.0
 11
53.416379
 21
155.263586
 31
0.0
  0
LINE
  5
1401
100
AcDbEntity
  8
10000_FRONT
370
    25
390
0
  6
CONTINUOUS
 62
     7
100
AcDbLine
 10
53.500215
 20
155.515414
 30
0.0
 11
53.500215
 21
155.602372
 31
0.0
  0
LINE
  5
1402
100
AcDbEntity
  8
10000_FRONT
370
    25
390
0
  6
CONTINUOUS
 62
     7
100
AcDbLine
 10
53.675004
 20
142.424995
 30
0.0
 11
53.675004
 21
146.064745
 31
0.0
  0
LINE
  5
1403
100
AcDbEntity
  8
10000_FRONT
370
    25
390
0
  6
CONTINUOUS
 62
     7
100
AcDbLine
 10
53.728004
 20
155.007357
 30
0.0
 11
53.728004
 21
156.767708
 31
0.0
  0
LINE
  5
1404
100
AcDbEntity
  8
10000_FRONT
370
    25
390
0
  6
CONTINUOUS
 62
     7
100
AcDbLine
 10
53.760898
 20
152.228845
 30
0.0
 11
53.760898
 21
152.713398
 31
0.0
  0
LINE
  5
1405
100
AcDbEntity
  8
10000_FRONT
370
    25
390
0
  6
CONTINUOUS
 62
     7
100
AcDbLine
 10
53.760898
 20
151.36313
 30
0.0
 11
53.760898
 21
151.864658
 31
0.0
  0
LINE
  5
1406
100
AcDbEntity
  8
10000_FRONT
370
    25
390
0
  6
CONTINUOUS
 62
     7
100
AcDbLine
 10
53.825004
 20
160.564995
 30
0.0
 11
53.825004
 21
162.764995
 31
0.0
  0
LINE
  5
1407
100
AcDbEntity
  8
10000_FRONT
370
    25
390
0
  6
CONTINUOUS
 62
     7
100
AcDbLine
 10
53.845604
 20
155.007357
 30
0.0
 11
53.845604
 21
155.830333
 31
0.0
  0
LINE
  5
1408
100
AcDbEntity
  8
10000_FRONT
370
    25
390
0
  6
CONTINUOUS
 62
     7
100
AcDbLine
 10
53.845604
 20
156.650309
 30
0.0
 11
53.845604
 21
156.652404
 31
0.0
  0
LINE
  5
1409
100
AcDbEntity
  8
10000_FRONT
370
    25
390
0
  6
CONTINUOUS
 62
     7
100
AcDbLine
 10
53.845604
 20
155.946042
 30
0.0
 11
53.845604
 21
156.650309
 31
0.0
  0
LINE
  5
140A
100
AcDbEntity
  8
10000_FRONT
370
    25
390
0
  6
CONTINUOUS
 62
     7
100
AcDbLine
 10
54.000004
 20
160.864995
 30
0.0
 11
54.000004
 21
162.464995
 31
0.0
  0
LINE
  5
140B
100
AcDbEntity
  8
10000_FRONT
370
    25
390
0
  6
CONTINUOUS
 62
     7
100
AcDbLine
 10
54.225737
 20
155.828685
 30
0.0
 11
54.225737
 21
155.830333
 31
0.0
  0
LINE
  5
140C
100
AcDbEntity
  8
10000_FRONT
370
    25
390
0
  6
CONTINUOUS
 62
     7
100
AcDbLine
 10
54.352984
 20
155.828685
 30
0.0
 11
54.352984
 21
155.830333
 31
0.0
  0
LINE
  5
140D
100
AcDbEntity
  8
10000_FRONT
370
    25
390
0
  6
CONTINUOUS
 62
     7
100
AcDbLine
 10
54.39961
 20
156.650309
 30
0.0
 11
54.39961
 21
156.652404
 31
0.0
  0
LINE
  5
140E
100
AcDbEntity
  8
10000_FRONT
370
    25
390
0
  6
CONTINUOUS
 62
     7
100
AcDbLine
 10
54.404434
 20
155.828685
 30
0.0
 11
54.404434
 21
155.830333
 31
0.0
  0
LINE
  5
140F
100
AcDbEntity
  8
10000_FRONT
370
    25
390
0
  6
CONTINUOUS
 62
     7
100
AcDbLine
 10
54.592663
 20
151.864658
 30
0.0
 11
54.592663
 21
152.228845
 31
0.0
  0
LINE
  5
1410
100
AcDbEntity
  8
10000_FRONT
370
    25
390
0
  6
CONTINUOUS
 62
     7
100
AcDbLine
 10
54.63481
 20
156.569863
 30
0.0
 11
54.63481
 21
156.571928
 31
0.0
  0
LINE
  5
1411
100
AcDbEntity
  8
10000_FRONT
370
    25
390
0
  6
CONTINUOUS
 62
     7
100
AcDbLine
 10
54.657549
 20
155.913297
 30
0.0
 11
54.657549
 21
155.915004
 31
0.0
  0
LINE
  5
1412
100
AcDbEntity
  8
10000_FRONT
370
    25
390
0
  6
CONTINUOUS
 62
     7
100
AcDbLine
 10
54.712904
 20
156.179202
 30
0.0
 11
54.712904
 21
156.4191
 31
0.0
  0
LINE
  5
1413
100
AcDbEntity
  8
10000_FRONT
370
    25
390
0
  6
CONTINUOUS
 62
     7
100
AcDbLine
 10
54.71303
 20
152.713398
 30
0.0
 11
54.71303
 21
153.09456
 31
0.0
  0
LINE
  5
1414
100
AcDbEntity
  8
10000_FRONT
370
    25
390
0
  6
CONTINUOUS
 62
     7
100
AcDbLine
 10
54.71303
 20
150.964996
 30
0.0
 11
54.71303
 21
151.36313
 31
0.0
  0
LINE
  5
1415
100
AcDbEntity
  8
10000_FRONT
370
    25
390
0
  6
CONTINUOUS
 62
     7
100
AcDbLine
 10
54.718187
 20
155.007357
 30
0.0
 11
54.718187
 21
155.008261
 31
0.0
  0
LINE
  5
1416
100
AcDbEntity
  8
10000_FRONT
370
    25
390
0
  6
CONTINUOUS
 62
     7
100
AcDbLine
 10
54.746898
 20
155.998959
 30
0.0
 11
54.746898
 21
156.000724
 31
0.0
  0
LINE
  5
1417
100
AcDbEntity
  8
10000_FRONT
370
    25
390
0
  6
CONTINUOUS
 62
     7
100
AcDbLine
 10
54.830504
 20
156.170557
 30
0.0
 11
54.830504
 21
156.425748
 31
0.0
  0
LINE
  5
1418
100
AcDbEntity
  8
10000_FRONT
370
    25
390
0
  6
CONTINUOUS
 62
     7
100
AcDbLine
 10
55.000642
 20
155.007357
 30
0.0
 11
55.000642
 21
155.008261
 31
0.0
  0
LINE
  5
1419
100
AcDbEntity
  8
10000_FRONT
370
    25
390
0
  6
CONTINUOUS
 62
     7
100
AcDbLine
 10
55.095004
 20
150.964996
 30
0.0
 11
55.095004
 21
153.09456
 31
0.0
  0
LINE
  5
141A
100
AcDbEntity
  8
10000_FRONT
370
    25
390
0
  6
CONTINUOUS
 62
     7
100
AcDbLine
 10
55.162571
 20
155.426364
 30
0.0
 11
55.162571
 21
155.427685
 31
0.0
  0
LINE
  5
141B
100
AcDbEntity
  8
10000_FRONT
370
    25
390
0
  6
CONTINUOUS
 62
     7
100
AcDbLine
 10
55.20736
 20
155.543701
 30
0.0
 11
55.20736
 21
155.545125
 31
0.0
  0
LINE
  5
141C
100
AcDbEntity
  8
10000_FRONT
370
    25
390
0
  6
CONTINUOUS
 62
     7
100
AcDbLine
 10
55.475004
 20
148.740732
 30
0.0
 11
55.475004
 21
149.074995
 31
0.0
  0
LINE
  5
141D
100
AcDbEntity
  8
10000_FRONT
370
    25
390
0
  6
CONTINUOUS
 62
     7
100
AcDbLine
 10
55.475004
 20
149.874996
 30
0.0
 11
55.475004
 21
149.894033
 31
0.0
  0
LINE
  5
141E
100
AcDbEntity
  8
10000_FRONT
370
    25
390
0
  6
CONTINUOUS
 62
     7
100
AcDbLine
 10
55.510115
 20
150.964996
 30
0.0
 11
55.510115
 21
152.367731
 31
0.0
  0
LINE
  5
141F
100
AcDbEntity
  8
10000_FRONT
370
    25
390
0
  6
CONTINUOUS
 62
     7
100
AcDbLine
 10
55.564524
 20
156.459287
 30
0.0
 11
55.564524
 21
156.461305
 31
0.0
  0
LINE
  5
1420
100
AcDbEntity
  8
10000_FRONT
370
    25
390
0
  6
CONTINUOUS
 62
     7
100
AcDbLine
 10
55.921689
 20
155.543701
 30
0.0
 11
55.921689
 21
155.545125
 31
0.0
  0
LINE
  5
1421
100
AcDbEntity
  8
10000_FRONT
370
    25
390
0
  6
CONTINUOUS
 62
     7
100
AcDbLine
 10
55.966477
 20
155.426364
 30
0.0
 11
55.966477
 21
155.427685
 31
0.0
  0
LINE
  5
1422
100
AcDbEntity
  8
10000_FRONT
370
    25
390
0
  6
CONTINUOUS
 62
     7
100
AcDbLine
 10
56.124004
 20
164.014995
 30
0.0
 11
56.124004
 21
164.064995
 31
0.0
  0
LINE
  5
1423
100
AcDbEntity
  8
10000_FRONT
370
    25
390
0
  6
CONTINUOUS
 62
     7
100
AcDbLine
 10
56.127004
 20
164.014995
 30
0.0
 11
56.127004
 21
164.064995
 31
0.0
  0
LINE
  5
1424
100
AcDbEntity
  8
10000_FRONT
370
    25
390
0
  6
CONTINUOUS
 62
     7
100
AcDbLine
 10
56.129556
 20
155.007357
 30
0.0
 11
56.129556
 21
155.008261
 31
0.0
  0
LINE
  5
1425
100
AcDbEntity
  8
10000_FRONT
370
    25
390
0
  6
CONTINUOUS
 62
     7
100
AcDbLine
 10
56.225004
 20
164.064995
 30
0.0
 11
56.225004
 21
171.064995
 31
0.0
  0
LINE
  5
1426
100
AcDbEntity
  8
10000_FRONT
370
    25
390
0
  6
CONTINUOUS
 62
     7
100
AcDbLine
 10
56.325004
 20
170.014995
 30
0.0
 11
56.325004
 21
171.114995
 31
0.0
  0
LINE
  5
1427
100
AcDbEntity
  8
10000_FRONT
370
    25
390
0
  6
CONTINUOUS
 62
     7
100
AcDbLine
 10
56.339004
 20
164.014995
 30
0.0
 11
56.339004
 21
170.014995
 31
0.0
  0
LINE
  5
1428
100
AcDbEntity
  8
10000_FRONT
370
    25
390
0
  6
CONTINUOUS
 62
     7
100
AcDbLine
 10
56.381921
 20
156.321205
 30
0.0
 11
56.381921
 21
156.426796
 31
0.0
  0
LINE
  5
1429
100
AcDbEntity
  8
10000_FRONT
370
    25
390
0
  6
CONTINUOUS
 62
     7
100
AcDbLine
 10
56.501359
 20
156.321205
 30
0.0
 11
56.501359
 21
156.419624
 31
0.0
  0
LINE
  5
142A
100
AcDbEntity
  8
10000_FRONT
370
    25
390
0
  6
CONTINUOUS
 62
     7
100
AcDbLine
 10
56.525476
 20
155.124672
 30
0.0
 11
56.525476
 21
155.1257
 31
0.0
  0
LINE
  5
142B
100
AcDbEntity
  8
10000_FRONT
370
    25
390
0
  6
CONTINUOUS
 62
     7
100
AcDbLine
 10
56.579452
 20
156.572221
 30
0.0
 11
56.579452
 21
156.574287
 31
0.0
  0
LINE
  5
142C
100
AcDbEntity
  8
10000_FRONT
370
    25
390
0
  6
CONTINUOUS
 62
     7
100
AcDbLine
 10
56.675004
 20
142.424995
 30
0.0
 11
56.675004
 21
146.064745
 31
0.0
  0
LINE
  5
142D
100
AcDbEntity
  8
10000_FRONT
370
    25
390
0
  6
CONTINUOUS
 62
     7
100
AcDbLine
 10
56.734492
 20
156.650309
 30
0.0
 11
56.734492
 21
156.652404
 31
0.0
  0
LINE
  5
142E
100
AcDbEntity
  8
10000_FRONT
370
    25
390
0
  6
CONTINUOUS
 62
     7
100
AcDbLine
 10
56.825004
 20
138.924995
 30
0.0
 11
56.825004
 21
139.674995
 31
0.0
  0
LINE
  5
142F
100
AcDbEntity
  8
10000_FRONT
370
    25
390
0
  6
CONTINUOUS
 62
     7
100
AcDbLine
 10
56.842004
 20
164.014995
 30
0.0
 11
56.842004
 21
170.014995
 31
0.0
  0
LINE
  5
1430
100
AcDbEntity
  8
10000_FRONT
370
    25
390
0
  6
CONTINUOUS
 62
     7
100
AcDbLine
 10
57.053757
 20
156.650309
 30
0.0
 11
57.053757
 21
156.652404
 31
0.0
  0
LINE
  5
1431
100
AcDbEntity
  8
10000_FRONT
370
    25
390
0
  6
CONTINUOUS
 62
     7
100
AcDbLine
 10
57.073281
 20
155.751149
 30
0.0
 11
57.073281
 21
155.752739
 31
0.0
  0
LINE
  5
1432
100
AcDbEntity
  8
10000_FRONT
370
    25
390
0
  6
CONTINUOUS
 62
     7
100
AcDbLine
 10
57.102004
 20
164.014995
 30
0.0
 11
57.102004
 21
170.014995
 31
0.0
  0
LINE
  5
1433
100
AcDbEntity
  8
10000_FRONT
370
    25
390
0
  6
CONTINUOUS
 62
     7
100
AcDbLine
 10
57.107288
 20
150.964996
 30
0.0
 11
57.107288
 21
152.37236
 31
0.0
  0
LINE
  5
1434
100
AcDbEntity
  8
10000_FRONT
370
    25
390
0
  6
CONTINUOUS
 62
     7
100
AcDbLine
 10
57.209944
 20
156.572484
 30
0.0
 11
57.209944
 21
156.574549
 31
0.0
  0
LINE
  5
1435
100
AcDbEntity
  8
10000_FRONT
370
    25
390
0
  6
CONTINUOUS
 62
     7
100
AcDbLine
 10
57.28689
 20
156.26304
 30
0.0
 11
57.28689
 21
156.419624
 31
0.0
  0
LINE
  5
1436
100
AcDbEntity
  8
10000_FRONT
370
    25
390
0
  6
CONTINUOUS
 62
     7
100
AcDbLine
 10
57.322492
 20
156.082267
 30
0.0
 11
57.322492
 21
156.084085
 31
0.0
  0
LINE
  5
1437
100
AcDbEntity
  8
10000_FRONT
370
    25
390
0
  6
CONTINUOUS
 62
     7
100
AcDbLine
 10
57.325004
 20
138.924995
 30
0.0
 11
57.325004
 21
139.674995
 31
0.0
  0
LINE
  5
1438
100
AcDbEntity
  8
10000_FRONT
370
    25
390
0
  6
CONTINUOUS
 62
     7
100
AcDbLine
 10
57.407476
 20
156.250726
 30
0.0
 11
57.407476
 21
156.424962
 31
0.0
  0
LINE
  5
1439
100
AcDbEntity
  8
10000_FRONT
370
    25
390
0
  6
CONTINUOUS
 62
     7
100
AcDbLine
 10
57.471735
 20
149.074995
 30
0.0
 11
57.471735
 21
149.874996
 31
0.0
  0
LINE
  5
143A
100
AcDbEntity
  8
10000_FRONT
370
    25
390
0
  6
CONTINUOUS
 62
     7
100
AcDbLine
 10
57.489015
 20
155.007357
 30
0.0
 11
57.489015
 21
155.124672
 31
0.0
  0
LINE
  5
143B
100
AcDbEntity
  8
10000_FRONT
370
    25
390
0
  6
CONTINUOUS
 62
     7
100
AcDbLine
 10
57.525004
 20
142.424995
 30
0.0
 11
57.525004
 21
146.064745
 31
0.0
  0
LINE
  5
143C
100
AcDbEntity
  8
10000_FRONT
370
    25
390
0
  6
CONTINUOUS
 62
     7
100
AcDbLine
 10
57.628604
 20
155.349367
 30
0.0
 11
57.628604
 21
155.604729
 31
0.0
  0
LINE
  5
143D
100
AcDbEntity
  8
10000_FRONT
370
    25
390
0
  6
CONTINUOUS
 62
     7
100
AcDbLine
 10
57.650004
 20
160.864995
 30
0.0
 11
57.650004
 21
162.464995
 31
0.0
  0
LINE
  5
143E
100
AcDbEntity
  8
10000_FRONT
370
    25
390
0
  6
CONTINUOUS
 62
     7
100
AcDbLine
 10
57.711292
 20
156.333781
 30
0.0
 11
57.711292
 21
156.507762
 31
0.0
  0
LINE
  5
143F
100
AcDbEntity
  8
10000_FRONT
370
    25
390
0
  6
CONTINUOUS
 62
     7
100
AcDbLine
 10
57.713589
 20
155.178879
 30
0.0
 11
57.713589
 21
155.179964
 31
0.0
  0
LINE
  5
1440
100
AcDbEntity
  8
10000_FRONT
370
    25
390
0
  6
CONTINUOUS
 62
     7
100
AcDbLine
 10
57.726096
 20
150.964996
 30
0.0
 11
57.726096
 21
153.09456
 31
0.0
  0
LINE
  5
1441
100
AcDbEntity
  8
10000_FRONT
370
    25
390
0
  6
CONTINUOUS
 62
     7
100
AcDbLine
 10
57.746204
 20
155.376866
 30
0.0
 11
57.746204
 21
155.57763
 31
0.0
  0
LINE
  5
1442
100
AcDbEntity
  8
10000_FRONT
370
    25
390
0
  6
CONTINUOUS
 62
     7
100
AcDbLine
 10
57.795357
 20
156.163221
 30
0.0
 11
57.795357
 21
156.165086
 31
0.0
  0
LINE
  5
1443
100
AcDbEntity
  8
10000_FRONT
370
    25
390
0
  6
CONTINUOUS
 62
     7
100
AcDbLine
 10
57.803396
 20
155.091939
 30
0.0
 11
57.803396
 21
155.092933
 31
0.0
  0
LINE
  5
1444
100
AcDbEntity
  8
10000_FRONT
370
    25
390
0
  6
CONTINUOUS
 62
     7
100
AcDbLine
 10
57.810746
 20
155.704524
 30
0.0
 11
57.810746
 21
155.706078
 31
0.0
  0
LINE
  5
1445
100
AcDbEntity
  8
10000_FRONT
370
    25
390
0
  6
CONTINUOUS
 62
     7
100
AcDbLine
 10
57.825004
 20
160.564995
 30
0.0
 11
57.825004
 21
162.764995
 31
0.0
  0
LINE
  5
1446
100
AcDbEntity
  8
10000_FRONT
370
    25
390
0
  6
CONTINUOUS
 62
     7
100
AcDbLine
 10
57.830959
 20
156.36365
 30
0.0
 11
57.830959
 21
156.482538
 31
0.0
  0
LINE
  5
1447
100
AcDbEntity
  8
10000_FRONT
370
    25
390
0
  6
CONTINUOUS
 62
     7
100
AcDbLine
 10
57.882639
 20
156.58611
 30
0.0
 11
57.882639
 21
156.588181
 31
0.0
  0
LINE
  5
1448
100
AcDbEntity
  8
10000_FRONT
370
    25
390
0
  6
CONTINUOUS
 62
     7
100
AcDbLine
 10
57.882639
 20
156.076242
 30
0.0
 11
57.882639
 21
156.078056
 31
0.0
  0
LINE
  5
1449
100
AcDbEntity
  8
10000_FRONT
370
    25
390
0
  6
CONTINUOUS
 62
     7
100
AcDbLine
 10
57.952693
 20
155.84545
 30
0.0
 11
57.952693
 21
155.84711
 31
0.0
  0
LINE
  5
144A
100
AcDbEntity
  8
10000_FRONT
370
    25
390
0
  6
CONTINUOUS
 62
     7
100
AcDbLine
 10
58.017006
 20
156.01101
 30
0.0
 11
58.017006
 21
156.012783
 31
0.0
  0
LINE
  5
144B
100
AcDbEntity
  8
10000_FRONT
370
    25
390
0
  6
CONTINUOUS
 62
     7
100
AcDbLine
 10
58.057201
 20
155.007357
 30
0.0
 11
58.057201
 21
155.008261
 31
0.0
  0
LINE
  5
144C
100
AcDbEntity
  8
10000_FRONT
370
    25
390
0
  6
CONTINUOUS
 62
     7
100
AcDbLine
 10
58.075576
 20
156.650309
 30
0.0
 11
58.075576
 21
156.652404
 31
0.0
  0
LINE
  5
144D
100
AcDbEntity
  8
10000_FRONT
370
    25
390
0
  6
CONTINUOUS
 62
     7
100
AcDbLine
 10
58.188123
 20
155.961236
 30
0.0
 11
58.188123
 21
155.962976
 31
0.0
  0
LINE
  5
144E
100
AcDbEntity
  8
10000_FRONT
370
    25
390
0
  6
CONTINUOUS
 62
     7
100
AcDbLine
 10
58.203004
 20
150.964996
 30
0.0
 11
58.203004
 21
153.09456
 31
0.0
  0
LINE
  5
144F
100
AcDbEntity
  8
10000_FRONT
370
    25
390
0
  6
CONTINUOUS
 62
     7
100
AcDbLine
 10
58.259785
 20
155.961236
 30
0.0
 11
58.259785
 21
155.962976
 31
0.0
  0
LINE
  5
1450
100
AcDbEntity
  8
10000_FRONT
370
    25
390
0
  6
CONTINUOUS
 62
     7
100
AcDbLine
 10
58.371873
 20
156.650309
 30
0.0
 11
58.371873
 21
156.652404
 31
0.0
  0
LINE
  5
1451
100
AcDbEntity
  8
10000_FRONT
370
    25
390
0
  6
CONTINUOUS
 62
     7
100
AcDbLine
 10
58.391856
 20
155.007357
 30
0.0
 11
58.391856
 21
155.008261
 31
0.0
  0
LINE
  5
1452
100
AcDbEntity
  8
10000_FRONT
370
    25
390
0
  6
CONTINUOUS
 62
     7
100
AcDbLine
 10
58.430902
 20
156.01101
 30
0.0
 11
58.430902
 21
156.012783
 31
0.0
  0
LINE
  5
1453
100
AcDbEntity
  8
10000_FRONT
370
    25
390
0
  6
CONTINUOUS
 62
     7
100
AcDbLine
 10
58.496364
 20
155.84545
 30
0.0
 11
58.496364
 21
155.84711
 31
0.0
  0
LINE
  5
1454
100
AcDbEntity
  8
10000_FRONT
370
    25
390
0
  6
CONTINUOUS
 62
     7
100
AcDbLine
 10
58.56481
 20
156.58611
 30
0.0
 11
58.56481
 21
156.588181
 31
0.0
  0
LINE
  5
1455
100
AcDbEntity
  8
10000_FRONT
370
    25
390
0
  6
CONTINUOUS
 62
     7
100
AcDbLine
 10
58.565269
 20
156.076242
 30
0.0
 11
58.565269
 21
156.078056
 31
0.0
  0
LINE
  5
1456
100
AcDbEntity
  8
10000_FRONT
370
    25
390
0
  6
CONTINUOUS
 62
     7
100
AcDbLine
 10
58.61649
 20
156.36365
 30
0.0
 11
58.61649
 21
156.482538
 31
0.0
  0
LINE
  5
1457
100
AcDbEntity
  8
10000_FRONT
370
    25
390
0
  6
CONTINUOUS
 62
     7
100
AcDbLine
 10
58.63831
 20
155.704524
 30
0.0
 11
58.63831
 21
155.706078
 31
0.0
  0
LINE
  5
1458
100
AcDbEntity
  8
10000_FRONT
370
    25
390
0
  6
CONTINUOUS
 62
     7
100
AcDbLine
 10
58.64566
 20
155.091939
 30
0.0
 11
58.64566
 21
155.092933
 31
0.0
  0
LINE
  5
1459
100
AcDbEntity
  8
10000_FRONT
370
    25
390
0
  6
CONTINUOUS
 62
     7
100
AcDbLine
 10
58.652551
 20
156.163221
 30
0.0
 11
58.652551
 21
156.165086
 31
0.0
  0
LINE
  5
145A
100
AcDbEntity
  8
10000_FRONT
370
    25
390
0
  6
CONTINUOUS
 62
     7
100
AcDbLine
 10
58.701704
 20
155.376866
 30
0.0
 11
58.701704
 21
155.57763
 31
0.0
  0
LINE
  5
145B
100
AcDbEntity
  8
10000_FRONT
370
    25
390
0
  6
CONTINUOUS
 62
     7
100
AcDbLine
 10
58.735468
 20
155.178879
 30
0.0
 11
58.735468
 21
155.179964
 31
0.0
  0
LINE
  5
145C
100
AcDbEntity
  8
10000_FRONT
370
    25
390
0
  6
CONTINUOUS
 62
     7
100
AcDbLine
 10
58.737765
 20
156.333781
 30
0.0
 11
58.737765
 21
156.507762
 31
0.0
  0
LINE
  5
145D
100
AcDbEntity
  8
10000_FRONT
370
    25
390
0
  6
CONTINUOUS
 62
     7
100
AcDbLine
 10
58.819304
 20
155.349367
 30
0.0
 11
58.819304
 21
155.604729
 31
0.0
  0
LINE
  5
145E
100
AcDbEntity
  8
10000_FRONT
370
    25
390
0
  6
CONTINUOUS
 62
     7
100
AcDbLine
 10
58.824898
 20
152.228845
 30
0.0
 11
58.824898
 21
152.713398
 31
0.0
  0
LINE
  5
145F
100
AcDbEntity
  8
10000_FRONT
370
    25
390
0
  6
CONTINUOUS
 62
     7
100
AcDbLine
 10
58.824898
 20
151.36313
 30
0.0
 11
58.824898
 21
151.864658
 31
0.0
  0
LINE
  5
1460
100
AcDbEntity
  8
10000_FRONT
370
    25
390
0
  6
CONTINUOUS
 62
     7
100
AcDbLine
 10
59.043418
 20
155.177308
 30
0.0
 11
59.043418
 21
155.17839
 31
0.0
  0
LINE
  5
1461
100
AcDbEntity
  8
10000_FRONT
370
    25
390
0
  6
CONTINUOUS
 62
     7
100
AcDbLine
 10
59.12266
 20
156.650309
 30
0.0
 11
59.12266
 21
156.767708
 31
0.0
  0
LINE
  5
1462
100
AcDbEntity
  8
10000_FRONT
370
    25
390
0
  6
CONTINUOUS
 62
     7
100
AcDbLine
 10
59.132996
 20
155.09089
 30
0.0
 11
59.132996
 21
155.091884
 31
0.0
  0
LINE
  5
1463
100
AcDbEntity
  8
10000_FRONT
370
    25
390
0
  6
CONTINUOUS
 62
     7
100
AcDbLine
 10
59.168792
 20
149.864996
 30
0.0
 11
59.168792
 21
149.874996
 31
0.0
  0
LINE
  5
1464
100
AcDbEntity
  8
10000_FRONT
370
    25
390
0
  6
CONTINUOUS
 62
     7
100
AcDbLine
 10
59.386801
 20
155.007357
 30
0.0
 11
59.386801
 21
155.008261
 31
0.0
  0
LINE
  5
1465
100
AcDbEntity
  8
10000_FRONT
370
    25
390
0
  6
CONTINUOUS
 62
     7
100
AcDbLine
 10
59.575144
 20
156.111609
 30
0.0
 11
59.575144
 21
156.113445
 31
0.0
  0
LINE
  5
1466
100
AcDbEntity
  8
10000_FRONT
370
    25
390
0
  6
CONTINUOUS
 62
     7
100
AcDbLine
 10
59.633715
 20
155.991624
 30
0.0
 11
59.633715
 21
155.993384
 31
0.0
  0
LINE
  5
1467
100
AcDbEntity
  8
10000_FRONT
370
    25
390
0
  6
CONTINUOUS
 62
     7
100
AcDbLine
 10
59.638309
 20
155.007357
 30
0.0
 11
59.638309
 21
155.008261
 31
0.0
  0
LINE
  5
1468
100
AcDbEntity
  8
10000_FRONT
370
    25
390
0
  6
CONTINUOUS
 62
     7
100
AcDbLine
 10
59.656663
 20
151.864658
 30
0.0
 11
59.656663
 21
152.228845
 31
0.0
  0
LINE
  5
1469
100
AcDbEntity
  8
10000_FRONT
370
    25
390
0
  6
CONTINUOUS
 62
     7
100
AcDbLine
 10
59.668704
 20
149.074995
 30
0.0
 11
59.668704
 21
149.864996
 31
0.0
  0
LINE
  5
146A
100
AcDbEntity
  8
10000_FRONT
370
    25
390
0
  6
CONTINUOUS
 62
     7
100
AcDbLine
 10
59.77703
 20
152.713398
 30
0.0
 11
59.77703
 21
153.09456
 31
0.0
  0
LINE
  5
146B
100
AcDbEntity
  8
10000_FRONT
370
    25
390
0
  6
CONTINUOUS
 62
     7
100
AcDbLine
 10
59.77703
 20
150.964996
 30
0.0
 11
59.77703
 21
151.36313
 31
0.0
  0
LINE
  5
146C
100
AcDbEntity
  8
10000_FRONT
370
    25
390
0
  6
CONTINUOUS
 62
     7
100
AcDbLine
 10
59.791051
 20
155.937921
 30
0.0
 11
59.791051
 21
155.939645
 31
0.0
  0
LINE
  5
146D
100
AcDbEntity
  8
10000_FRONT
370
    25
390
0
  6
CONTINUOUS
 62
     7
100
AcDbLine
 10
59.861106
 20
156.650309
 30
0.0
 11
59.861106
 21
156.652404
 31
0.0
  0
LINE
  5
146E
100
AcDbEntity
  8
10000_FRONT
370
    25
390
0
  6
CONTINUOUS
 62
     7
100
AcDbLine
 10
59.892114
 20
155.091939
 30
0.0
 11
59.892114
 21
155.092933
 31
0.0
  0
LINE
  5
146F
100
AcDbEntity
  8
10000_FRONT
370
    25
390
0
  6
CONTINUOUS
 62
     7
100
AcDbLine
 10
59.901301
 20
155.865621
 30
0.0
 11
59.901301
 21
155.867295
 31
0.0
  0
LINE
  5
1470
100
AcDbEntity
  8
10000_FRONT
370
    25
390
0
  6
CONTINUOUS
 62
     7
100
AcDbLine
 10
59.974801
 20
155.754292
 30
0.0
 11
59.974801
 21
155.755885
 31
0.0
  0
LINE
  5
1471
100
AcDbEntity
  8
10000_FRONT
370
    25
390
0
  6
CONTINUOUS
 62
     7
100
AcDbLine
 10
60.028777
 20
155.520391
 30
0.0
 11
60.028777
 21
155.598601
 31
0.0
  0
LINE
  5
1472
100
AcDbEntity
  8
10000_FRONT
370
    25
390
0
  6
CONTINUOUS
 62
     7
100
AcDbLine
 10
60.064379
 20
155.262419
 30
0.0
 11
60.064379
 21
155.263586
 31
0.0
  0
LINE
  5
1473
100
AcDbEntity
  8
10000_FRONT
370
    25
390
0
  6
CONTINUOUS
 62
     7
100
AcDbLine
 10
60.148215
 20
155.515414
 30
0.0
 11
60.148215
 21
155.602372
 31
0.0
  0
LINE
  5
1474
100
AcDbEntity
  8
10000_FRONT
370
    25
390
0
  6
CONTINUOUS
 62
     7
100
AcDbLine
 10
60.159004
 20
150.964996
 30
0.0
 11
60.159004
 21
153.09456
 31
0.0
  0
LINE
  5
1475
100
AcDbEntity
  8
10000_FRONT
370
    25
390
0
  6
CONTINUOUS
 62
     7
100
AcDbLine
 10
60.201453
 20
149.074995
 30
0.0
 11
60.201453
 21
149.864999
 31
0.0
  0
LINE
  5
1476
100
AcDbEntity
  8
10000_FRONT
370
    25
390
0
  6
CONTINUOUS
 62
     7
100
AcDbLine
 10
60.370721
 20
156.321205
 30
0.0
 11
60.370721
 21
156.426796
 31
0.0
  0
LINE
  5
1477
100
AcDbEntity
  8
10000_FRONT
370
    25
390
0
  6
CONTINUOUS
 62
     7
100
AcDbLine
 10
60.490159
 20
156.321205
 30
0.0
 11
60.490159
 21
156.419624
 31
0.0
  0
LINE
  5
1478
100
AcDbEntity
  8
10000_FRONT
370
    25
390
0
  6
CONTINUOUS
 62
     7
100
AcDbLine
 10
60.514276
 20
155.124672
 30
0.0
 11
60.514276
 21
155.1257
 31
0.0
  0
LINE
  5
1479
100
AcDbEntity
  8
10000_FRONT
370
    25
390
0
  6
CONTINUOUS
 62
     7
100
AcDbLine
 10
60.525004
 20
142.424995
 30
0.0
 11
60.525004
 21
146.064745
 31
0.0
  0
LINE
  5
147A
100
AcDbEntity
  8
10000_FRONT
370
    25
390
0
  6
CONTINUOUS
 62
     7
100
AcDbLine
 10
60.568252
 20
156.572221
 30
0.0
 11
60.568252
 21
156.574287
 31
0.0
  0
LINE
  5
147B
100
AcDbEntity
  8
10000_FRONT
370
    25
390
0
  6
CONTINUOUS
 62
     7
100
AcDbLine
 10
60.579649
 20
149.074995
 30
0.0
 11
60.579649
 21
149.865001
 31
0.0
  0
LINE
  5
147C
100
AcDbEntity
  8
10000_FRONT
370
    25
390
0
  6
CONTINUOUS
 62
     7
100
AcDbLine
 10
60.592633
 20
150.964996
 30
0.0
 11
60.592633
 21
152.315261
 31
0.0
  0
LINE
  5
147D
100
AcDbEntity
  8
10000_FRONT
370
    25
390
0
  6
CONTINUOUS
 62
     7
100
AcDbLine
 10
60.723292
 20
156.650309
 30
0.0
 11
60.723292
 21
156.652404
 31
0.0
  0
LINE
  5
147E
100
AcDbEntity
  8
10000_FRONT
370
    25
390
0
  6
CONTINUOUS
 62
     7
100
AcDbLine
 10
60.875004
 20
142.424995
 30
0.0
 11
60.875004
 21
146.064745
 31
0.0
  0
LINE
  5
147F
100
AcDbEntity
  8
10000_FRONT
370
    25
390
0
  6
CONTINUOUS
 62
     7
100
AcDbLine
 10
61.042557
 20
156.650309
 30
0.0
 11
61.042557
 21
156.652404
 31
0.0
  0
LINE
  5
1480
100
AcDbEntity
  8
10000_FRONT
370
    25
390
0
  6
CONTINUOUS
 62
     7
100
AcDbLine
 10
61.062081
 20
155.751149
 30
0.0
 11
61.062081
 21
155.752739
 31
0.0
  0
LINE
  5
1481
100
AcDbEntity
  8
10000_FRONT
370
    25
390
0
  6
CONTINUOUS
 62
     7
100
AcDbLine
 10
61.198744
 20
156.572484
 30
0.0
 11
61.198744
 21
156.574549
 31
0.0
  0
LINE
  5
1482
100
AcDbEntity
  8
10000_FRONT
370
    25
390
0
  6
CONTINUOUS
 62
     7
100
AcDbLine
 10
61.27569
 20
156.26304
 30
0.0
 11
61.27569
 21
156.419624
 31
0.0
  0
LINE
  5
1483
100
AcDbEntity
  8
10000_FRONT
370
    25
390
0
  6
CONTINUOUS
 62
     7
100
AcDbLine
 10
61.311292
 20
156.082267
 30
0.0
 11
61.311292
 21
156.084085
 31
0.0
  0
LINE
  5
1484
100
AcDbEntity
  8
10000_FRONT
370
    25
390
0
  6
CONTINUOUS
 62
     7
100
AcDbLine
 10
61.325004
 20
146.846996
 30
0.0
 11
61.325004
 21
149.874996
 31
0.0
  0
LINE
  5
1485
100
AcDbEntity
  8
10000_FRONT
370
    25
390
0
  6
CONTINUOUS
 62
     7
100
AcDbLine
 10
61.396276
 20
156.250726
 30
0.0
 11
61.396276
 21
156.424962
 31
0.0
  0
LINE
  5
1486
100
AcDbEntity
  8
10000_FRONT
370
    25
390
0
  6
CONTINUOUS
 62
     7
100
AcDbLine
 10
61.477815
 20
155.007357
 30
0.0
 11
61.477815
 21
155.124672
 31
0.0
  0
LINE
  5
1487
100
AcDbEntity
  8
10000_FRONT
370
    25
390
0
  6
CONTINUOUS
 62
     7
100
AcDbLine
 10
61.615749
 20
151.761266
 30
0.0
 11
61.615749
 21
153.09456
 31
0.0
  0
LINE
  5
1488
100
AcDbEntity
  8
10000_FRONT
370
    25
390
0
  6
CONTINUOUS
 62
     7
100
AcDbLine
 10
62.026231
 20
150.964996
 30
0.0
 11
62.026231
 21
153.09456
 31
0.0
  0
LINE
  5
1489
100
AcDbEntity
  8
10000_FRONT
370
    25
390
0
  6
CONTINUOUS
 62
     7
100
AcDbLine
 10
62.411004
 20
151.011289
 30
0.0
 11
62.411004
 21
151.449548
 31
0.0
  0
LINE
  5
148A
100
AcDbEntity
  8
10000_FRONT
370
    25
390
0
  6
CONTINUOUS
 62
     7
100
AcDbLine
 10
63.869293
 20
152.67019
 30
0.0
 11
63.869293
 21
153.079128
 31
0.0
  0
LINE
  5
148B
100
AcDbEntity
  8
10000_FRONT
370
    25
390
0
  6
CONTINUOUS
 62
     7
100
AcDbLine
 10
63.875004
 20
142.424995
 30
0.0
 11
63.875004
 21
146.064745
 31
0.0
  0
LINE
  5
148C
100
AcDbEntity
  8
10000_FRONT
370
    25
390
0
  6
CONTINUOUS
 62
     7
100
AcDbLine
 10
64.025004
 20
138.924995
 30
0.0
 11
64.025004
 21
139.674995
 31
0.0
  0
LINE
  5
148D
100
AcDbEntity
  8
10000_FRONT
370
    25
390
0
  6
CONTINUOUS
 62
     7
100
AcDbLine
 10
64.525004
 20
138.924995
 30
0.0
 11
64.525004
 21
139.674995
 31
0.0
  0
LINE
  5
148E
100
AcDbEntity
  8
10000_FRONT
370
    25
390
0
  6
CONTINUOUS
 62
     7
100
AcDbLine
 10
64.675004
 20
149.964996
 30
0.0
 11
64.675004
 21
154.164995
 31
0.0
  0
LINE
  5
148F
100
AcDbEntity
  8
10000_FRONT
370
    25
390
0
  6
CONTINUOUS
 62
     7
100
AcDbLine
 10
64.725004
 20
142.424995
 30
0.0
 11
64.725004
 21
146.064745
 31
0.0
  0
LINE
  5
1490
100
AcDbEntity
  8
10000_FRONT
370
    25
390
0
  6
CONTINUOUS
 62
     7
100
AcDbLine
 10
64.875004
 20
150.164995
 30
0.0
 11
64.875004
 21
153.964996
 31
0.0
  0
LINE
  5
1491
100
AcDbEntity
  8
10000_FRONT
370
    25
390
0
  6
CONTINUOUS
 62
     7
100
AcDbLine
 10
65.025004
 20
149.874996
 30
0.0
 11
65.025004
 21
154.264995
 31
0.0
  0
LINE
  5
1492
100
AcDbEntity
  8
10000_FRONT
370
    25
390
0
  6
CONTINUOUS
 62
     7
100
AcDbLine
 10
67.725004
 20
142.424995
 30
0.0
 11
67.725004
 21
146.064745
 31
0.0
  0
LINE
  5
1493
100
AcDbEntity
  8
10000_FRONT
370
    25
390
0
  6
CONTINUOUS
 62
     7
100
AcDbLine
 10
68.075004
 20
142.424995
 30
0.0
 11
68.075004
 21
146.064745
 31
0.0
  0
LINE
  5
1494
100
AcDbEntity
  8
10000_FRONT
370
    25
390
0
  6
CONTINUOUS
 62
     7
100
AcDbLine
 10
70.487478
 20
159.572361
 30
0.0
 11
70.487478
 21
159.573266
 31
0.0
  0
LINE
  5
1495
100
AcDbEntity
  8
10000_FRONT
370
    25
390
0
  6
CONTINUOUS
 62
     7
100
AcDbLine
 10
71.075004
 20
142.424995
 30
0.0
 11
71.075004
 21
146.064745
 31
0.0
  0
LINE
  5
1496
100
AcDbEntity
  8
10000_FRONT
370
    25
390
0
  6
CONTINUOUS
 62
     7
100
AcDbLine
 10
71.075004
 20
168.464995
 30
0.0
 11
71.075004
 21
170.064995
 31
0.0
  0
LINE
  5
1497
100
AcDbEntity
  8
10000_FRONT
370
    25
390
0
  6
CONTINUOUS
 62
     7
100
AcDbLine
 10
71.225004
 20
138.924995
 30
0.0
 11
71.225004
 21
139.674995
 31
0.0
  0
LINE
  5
1498
100
AcDbEntity
  8
10000_FRONT
370
    25
390
0
  6
CONTINUOUS
 62
     7
100
AcDbLine
 10
71.725004
 20
138.924995
 30
0.0
 11
71.725004
 21
139.674995
 31
0.0
  0
LINE
  5
1499
100
AcDbEntity
  8
10000_FRONT
370
    25
390
0
  6
CONTINUOUS
 62
     7
100
AcDbLine
 10
71.925004
 20
142.424995
 30
0.0
 11
71.925004
 21
146.064745
 31
0.0
  0
LINE
  5
149A
100
AcDbEntity
  8
10000_FRONT
370
    25
390
0
  6
CONTINUOUS
 62
     7
100
AcDbLine
 10
74.925004
 20
142.424995
 30
0.0
 11
74.925004
 21
146.064745
 31
0.0
  0
LINE
  5
149B
100
AcDbEntity
  8
10000_FRONT
370
    25
390
0
  6
CONTINUOUS
 62
     7
100
AcDbLine
 10
75.275005
 20
142.424995
 30
0.0
 11
75.275005
 21
146.064745
 31
0.0
  0
LINE
  5
149C
100
AcDbEntity
  8
10000_FRONT
370
    25
390
0
  6
CONTINUOUS
 62
     7
100
AcDbLine
 10
75.875003
 20
168.464995
 30
0.0
 11
75.875003
 21
170.064995
 31
0.0
  0
LINE
  5
149D
100
AcDbEntity
  8
10000_FRONT
370
    25
390
0
  6
CONTINUOUS
 62
     7
100
AcDbLine
 10
76.875003
 20
152.264995
 30
0.0
 11
76.875003
 21
154.564995
 31
0.0
  0
LINE
  5
149E
100
AcDbEntity
  8
10000_FRONT
370
    25
390
0
  6
CONTINUOUS
 62
     7
100
AcDbLine
 10
77.609073
 20
161.48021
 30
0.0
 11
77.609073
 21
161.481419
 31
0.0
  0
LINE
  5
149F
100
AcDbEntity
  8
10000_FRONT
370
    25
390
0
  6
CONTINUOUS
 62
     7
100
AcDbLine
 10
78.175004
 20
152.264995
 30
0.0
 11
78.175004
 21
154.564995
 31
0.0
  0
LINE
  5
14A0
100
AcDbEntity
  8
10000_FRONT
370
    25
390
0
  6
CONTINUOUS
 62
     7
100
AcDbLine
 10
78.275005
 20
142.424995
 30
0.0
 11
78.275005
 21
146.064745
 31
0.0
  0
LINE
  5
14A1
100
AcDbEntity
  8
10000_FRONT
370
    25
390
0
  6
CONTINUOUS
 62
     7
100
AcDbLine
 10
78.425004
 20
138.924995
 30
0.0
 11
78.425004
 21
139.674995
 31
0.0
  0
LINE
  5
14A2
100
AcDbEntity
  8
10000_FRONT
370
    25
390
0
  6
CONTINUOUS
 62
     7
100
AcDbLine
 10
78.675004
 20
134.248344
 30
0.0
 11
78.675004
 21
149.874996
 31
0.0
  0
LINE
  5
14A3
100
AcDbEntity
  8
10000_FRONT
370
    25
390
0
  6
CONTINUOUS
 62
     7
100
AcDbLine
 10
78.975004
 20
149.874996
 30
0.0
 11
78.975004
 21
172.35796
 31
0.0
  0
LINE
  5
14A4
100
AcDbEntity
  8
10000_FRONT
370
    25
390
0
  6
CONTINUOUS
 62
     7
100
AcDbLine
 10
79.475004
 20
135.574997
 30
0.0
 11
79.475004
 21
149.874996
 31
0.0
  0
LINE
  5
14A5
100
AcDbEntity
  8
10000_FRONT
370
    25
390
0
  6
CONTINUOUS
 62
     7
100
AcDbLine
 10
79.575004
 20
134.974994
 30
0.0
 11
79.575004
 21
172.314995
 31
0.0
  0
LINE
  5
14A6
100
AcDbEntity
  8
10000_FRONT
370
    25
390
0
  6
CONTINUOUS
 62
     7
100
AcDbLine
 10
57.780111
 20
164.014995
 30
0.0
 11
57.686723
 21
170.014995
 31
0.0
  0
ARC
  5
14A7
100
AcDbEntity
  8
10000_FRONT
370
    25
390
0
  6
CONTINUOUS
 62
     7
100
AcDbCircle
 10
35.175004
 20
150.464995
 30
0.0
 40
0.6
100
AcDbArc
 50
179.999913
 51
259.524721
  0
ARC
  5
14A8
100
AcDbEntity
  8
10000_FRONT
370
    25
390
0
  6
CONTINUOUS
 62
     7
100
AcDbCircle
 10
35.175004
 20
172.314995
 30
0.0
 40
0.6
100
AcDbArc
 50
89.999964
 51
132.89788
  0
ARC
  5
14A9
100
AcDbEntity
  8
10000_FRONT
370
    25
390
0
  6
CONTINUOUS
 62
     7
100
AcDbCircle
 10
35.185004
 20
172.324995
 30
0.0
 40
0.6
100
AcDbArc
 50
89.999942
 51
135.675269
  0
ARC
  5
14AA
100
AcDbEntity
  8
10000_FRONT
370
    25
390
0
  6
CONTINUOUS
 62
     7
100
AcDbCircle
 10
36.175004
 20
135.574995
 30
0.0
 40
1.5
100
AcDbArc
 50
242.181867
 51
270.000015
  0
ARC
  5
14AB
100
AcDbEntity
  8
10000_FRONT
370
    25
390
0
  6
CONTINUOUS
 62
     7
100
AcDbCircle
 10
37.525936
 20
138.928407
 30
0.0
 40
1.800935
100
AcDbArc
 50
180.108543
 51
329.333041
  0
ARC
  5
14AC
100
AcDbEntity
  8
10000_FRONT
370
    25
390
0
  6
CONTINUOUS
 62
     7
100
AcDbCircle
 10
37.675004
 20
139.674995
 30
0.0
 40
1.95
100
AcDbArc
 50
44.114626
 51
180.0
  0
ARC
  5
14AD
100
AcDbEntity
  8
10000_FRONT
370
    25
390
0
  6
CONTINUOUS
 62
     7
100
AcDbCircle
 10
39.933004
 20
164.173002
 30
0.0
 40
0.408
100
AcDbArc
 50
195.350532
 51
202.777551
  0
ARC
  5
14AE
100
AcDbEntity
  8
10000_FRONT
370
    25
390
0
  6
CONTINUOUS
 62
     7
100
AcDbCircle
 10
39.933004
 20
170.956988
 30
0.0
 40
0.408
100
AcDbArc
 50
157.222437
 51
164.649488
  0
ARC
  5
14AF
100
AcDbEntity
  8
10000_FRONT
370
    25
390
0
  6
CONTINUOUS
 62
     7
100
AcDbCircle
 10
40.475004
 20
139.674995
 30
0.0
 40
1.95
100
AcDbArc
 50
0.0
 51
135.885374
  0
ARC
  5
14B0
100
AcDbEntity
  8
10000_FRONT
370
    25
390
0
  6
CONTINUOUS
 62
     7
100
AcDbCircle
 10
40.624072
 20
138.928407
 30
0.0
 40
1.800935
100
AcDbArc
 50
210.666959
 51
359.891457
  0
ARC
  5
14B1
100
AcDbEntity
  8
10000_FRONT
370
    25
390
0
  6
CONTINUOUS
 62
     7
100
AcDbCircle
 10
41.517004
 20
164.173002
 30
0.0
 40
0.408
100
AcDbArc
 50
337.222408
 51
344.649475
  0
ARC
  5
14B2
100
AcDbEntity
  8
10000_FRONT
370
    25
390
0
  6
CONTINUOUS
 62
     7
100
AcDbCircle
 10
41.517004
 20
170.956988
 30
0.0
 40
0.408
100
AcDbArc
 50
15.350505
 51
22.777604
  0
ARC
  5
14B3
100
AcDbEntity
  8
10000_FRONT
370
    25
390
0
  6
CONTINUOUS
 62
     7
100
AcDbCircle
 10
44.725936
 20
138.928407
 30
0.0
 40
1.800935
100
AcDbArc
 50
180.108543
 51
329.333038
  0
ARC
  5
14B4
100
AcDbEntity
  8
10000_FRONT
370
    25
390
0
  6
CONTINUOUS
 62
     7
100
AcDbCircle
 10
44.875004
 20
139.674995
 30
0.0
 40
1.95
100
AcDbArc
 50
44.11463
 51
180.0
  0
LINE
  5
14B5
100
AcDbEntity
  8
10000_FRONT
370
    25
390
0
  6
CONTINUOUS
 62
     7
100
AcDbLine
 10
52.484995
 20
155.090891
 30
0.0
 11
52.7388
 21
155.007357
 31
0.0
  0
ARC
  5
14B6
100
AcDbEntity
  8
10000_FRONT
370
    25
390
0
  6
CONTINUOUS
 62
     7
100
AcDbCircle
 10
46.720549
 20
142.805311
 30
0.0
 40
9.841273
100
AcDbArc
 50
64.158713
 51
67.400277
  0
ARC
  5
14B7
100
AcDbEntity
  8
10000_FRONT
370
    25
390
0
  6
CONTINUOUS
 62
     7
100
AcDbCircle
 10
47.675004
 20
139.674995
 30
0.0
 40
1.95
100
AcDbArc
 50
0.0
 51
135.885378
  0
ARC
  5
14B8
100
AcDbEntity
  8
10000_FRONT
370
    25
390
0
  6
CONTINUOUS
 62
     7
100
AcDbCircle
 10
47.824072
 20
138.928407
 30
0.0
 40
1.800935
100
AcDbArc
 50
210.666956
 51
359.891457
  0
LINE
  5
14B9
100
AcDbEntity
  8
10000_FRONT
370
    25
390
0
  6
CONTINUOUS
 62
     7
100
AcDbLine
 10
52.479254
 20
155.256396
 30
0.0
 11
52.745691
 21
155.124671
 31
0.0
  0
LINE
  5
14BA
100
AcDbEntity
  8
10000_FRONT
370
    25
390
0
  6
CONTINUOUS
 62
     7
100
AcDbLine
 10
52.985716
 20
155.991624
 30
0.0
 11
53.143051
 21
155.937921
 31
0.0
  0
LINE
  5
14BB
100
AcDbEntity
  8
10000_FRONT
370
    25
390
0
  6
CONTINUOUS
 62
     7
100
AcDbLine
 10
52.990308
 20
156.111609
 30
0.0
 11
53.244113
 21
156.026991
 31
0.0
  0
ARC
  5
14BC
100
AcDbEntity
  8
10000_FRONT
370
    25
390
0
  6
CONTINUOUS
 62
     7
100
AcDbCircle
 10
49.475004
 20
150.164995
 30
0.0
 40
0.2
100
AcDbArc
 50
180.000066
 51
270.000027
  0
ARC
  5
14BD
100
AcDbEntity
  8
10000_FRONT
370
    25
390
0
  6
CONTINUOUS
 62
     7
100
AcDbCircle
 10
49.475004
 20
153.964995
 30
0.0
 40
0.2
100
AcDbArc
 50
89.999973
 51
179.999738
  0
LINE
  5
14BE
100
AcDbEntity
  8
10000_FRONT
370
    25
390
0
  6
CONTINUOUS
 62
     7
100
AcDbLine
 10
52.395418
 20
155.177307
 30
0.0
 11
52.484997
 21
155.090889
 31
0.0
  0
ARC
  5
14BF
100
AcDbEntity
  8
10000_FRONT
370
    25
390
0
  6
CONTINUOUS
 62
     7
100
AcDbCircle
 10
50.604027
 20
152.50489
 30
0.0
 40
0.582983
100
AcDbArc
 50
153.406653
 51
207.918136
  0
LINE
  5
14C0
100
AcDbEntity
  8
10000_FRONT
370
    25
390
0
  6
CONTINUOUS
 62
     7
100
AcDbLine
 10
57.803396
 20
155.091938
 30
0.0
 11
58.057201
 21
155.007357
 31
0.0
  0
ARC
  5
14C1
100
AcDbEntity
  8
10000_FRONT
370
    25
390
0
  6
CONTINUOUS
 62
     7
100
AcDbCircle
 10
50.693167
 20
152.411875
 30
0.0
 40
0.705659
100
AcDbArc
 50
101.936989
 51
149.891143
  0
ARC
  5
14C2
100
AcDbEntity
  8
10000_FRONT
370
    25
390
0
  6
CONTINUOUS
 62
     7
100
AcDbCircle
 10
50.739309
 20
153.645447
 30
0.0
 40
2.716631
100
AcDbArc
 50
255.845787
 51
278.740593
  0
ARC
  5
14C3
100
AcDbEntity
  8
10000_FRONT
370
    25
390
0
  6
CONTINUOUS
 62
     7
100
AcDbCircle
 10
50.750529
 20
152.597688
 30
0.0
 40
0.125967
100
AcDbArc
 50
144.861139
 51
206.967744
  0
ARC
  5
14C4
100
AcDbEntity
  8
10000_FRONT
370
    25
390
0
  6
CONTINUOUS
 62
     7
100
AcDbCircle
 10
50.766212
 20
151.938731
 30
0.0
 40
0.628003
100
AcDbArc
 50
266.066551
 51
292.858082
  0
LINE
  5
14C5
100
AcDbEntity
  8
10000_FRONT
370
    25
390
0
  6
CONTINUOUS
 62
     7
100
AcDbLine
 10
53.14305
 20
155.937921
 30
0.0
 11
53.253301
 21
155.865621
 31
0.0
  0
ARC
  5
14C6
100
AcDbEntity
  8
10000_FRONT
370
    25
390
0
  6
CONTINUOUS
 62
     7
100
AcDbCircle
 10
50.818411
 20
152.695316
 30
0.0
 40
0.864247
100
AcDbArc
 50
212.423422
 51
248.556784
  0
ARC
  5
14C7
100
AcDbEntity
  8
10000_FRONT
370
    25
390
0
  6
CONTINUOUS
 62
     7
100
AcDbCircle
 10
50.83641
 20
152.505341
 30
0.0
 40
0.25071
100
AcDbArc
 50
95.087273
 51
138.88842
  0
ARC
  5
14C8
100
AcDbEntity
  8
10000_FRONT
370
    25
390
0
  6
CONTINUOUS
 62
     7
100
AcDbCircle
 10
50.851522
 20
153.516055
 30
0.0
 40
2.207585
100
AcDbArc
 50
249.405596
 51
266.66588
  0
ARC
  5
14C9
100
AcDbEntity
  8
10000_FRONT
370
    25
390
0
  6
CONTINUOUS
 62
     7
100
AcDbCircle
 10
50.873581
 20
151.4015
 30
0.0
 40
0.898151
100
AcDbArc
 50
32.199
 51
67.096946
  0
ARC
  5
14CA
100
AcDbEntity
  8
10000_FRONT
370
    25
390
0
  6
CONTINUOUS
 62
     7
100
AcDbCircle
 10
50.924715
 20
151.502788
 30
0.0
 40
0.181136
100
AcDbArc
 50
0.731897
 51
61.854071
  0
ARC
  5
14CB
100
AcDbEntity
  8
10000_FRONT
370
    25
390
0
  6
CONTINUOUS
 62
     7
100
AcDbCircle
 10
50.933004
 20
164.173002
 30
0.0
 40
0.408
100
AcDbArc
 50
195.350532
 51
202.777603
  0
ARC
  5
14CC
100
AcDbEntity
  8
10000_FRONT
370
    25
390
0
  6
CONTINUOUS
 62
     7
100
AcDbCircle
 10
50.933004
 20
170.956988
 30
0.0
 40
0.408
100
AcDbArc
 50
157.222386
 51
164.649488
  0
ARC
  5
14CD
100
AcDbEntity
  8
10000_FRONT
370
    25
390
0
  6
CONTINUOUS
 62
     7
100
AcDbCircle
 10
50.948368
 20
151.504882
 30
0.0
 40
0.157468
100
AcDbArc
 50
293.104376
 51
0.079771
  0
ARC
  5
14CE
100
AcDbEntity
  8
10000_FRONT
370
    25
390
0
  6
CONTINUOUS
 62
     7
100
AcDbCircle
 10
50.975502
 20
151.702621
 30
0.0
 40
0.762982
100
AcDbArc
 50
283.385296
 51
330.29628
  0
ARC
  5
14CF
100
AcDbEntity
  8
10000_FRONT
370
    25
390
0
  6
CONTINUOUS
 62
     7
100
AcDbCircle
 10
50.983477
 20
151.100619
 30
0.0
 40
1.663084
100
AcDbArc
 50
70.694826
 51
95.842708
  0
ARC
  5
14D0
100
AcDbEntity
  8
10000_FRONT
370
    25
390
0
  6
CONTINUOUS
 62
     7
100
AcDbCircle
 10
50.99302
 20
151.078603
 30
0.0
 40
2.072196
100
AcDbArc
 50
74.886927
 51
102.423628
  0
ARC
  5
14D1
100
AcDbEntity
  8
10000_FRONT
370
    25
390
0
  6
CONTINUOUS
 62
     7
100
AcDbCircle
 10
51.052921
 20
152.927563
 30
0.0
 40
0.567198
100
AcDbArc
 50
223.023682
 51
247.996448
  0
ARC
  5
14D2
100
AcDbEntity
  8
10000_FRONT
370
    25
390
0
  6
CONTINUOUS
 62
     7
100
AcDbCircle
 10
51.080737
 20
151.597695
 30
0.0
 40
0.620808
100
AcDbArc
 50
333.897447
 51
27.057476
  0
LINE
  5
14D3
100
AcDbEntity
  8
10000_FRONT
370
    25
390
0
  6
CONTINUOUS
 62
     7
100
AcDbLine
 10
57.864953
 20
155.195639
 30
0.0
 11
58.075118
 21
155.124671
 31
0.0
  0
LINE
  5
14D4
100
AcDbEntity
  8
10000_FRONT
370
    25
390
0
  6
CONTINUOUS
 62
     7
100
AcDbLine
 10
52.29895
 20
155.371105
 30
0.0
 11
52.395418
 21
155.177309
 31
0.0
  0
LINE
  5
14D5
100
AcDbEntity
  8
10000_FRONT
370
    25
390
0
  6
CONTINUOUS
 62
     7
100
AcDbLine
 10
52.42298
 20
155.371104
 30
0.0
 11
52.479254
 21
155.256395
 31
0.0
  0
LINE
  5
14D6
100
AcDbEntity
  8
10000_FRONT
370
    25
390
0
  6
CONTINUOUS
 62
     7
100
AcDbLine
 10
53.244114
 20
156.026991
 30
0.0
 11
53.416379
 21
155.855404
 31
0.0
  0
LINE
  5
14D7
100
AcDbEntity
  8
10000_FRONT
370
    25
390
0
  6
CONTINUOUS
 62
     7
100
AcDbLine
 10
59.132995
 20
155.090891
 30
0.0
 11
59.3868
 21
155.007357
 31
0.0
  0
ARC
  5
14D8
100
AcDbEntity
  8
10000_FRONT
370
    25
390
0
  6
CONTINUOUS
 62
     7
100
AcDbCircle
 10
51.925936
 20
138.928407
 30
0.0
 40
1.800935
100
AcDbArc
 50
180.108543
 51
329.333042
  0
LINE
  5
14D9
100
AcDbEntity
  8
10000_FRONT
370
    25
390
0
  6
CONTINUOUS
 62
     7
100
AcDbLine
 10
54.399611
 20
156.650309
 30
0.0
 11
54.63481
 21
156.569864
 31
0.0
  0
ARC
  5
14DA
100
AcDbEntity
  8
10000_FRONT
370
    25
390
0
  6
CONTINUOUS
 62
     7
100
AcDbCircle
 10
52.075004
 20
139.674995
 30
0.0
 40
1.95
100
AcDbArc
 50
44.114624
 51
180.0
  0
LINE
  5
14DB
100
AcDbEntity
  8
10000_FRONT
370
    25
390
0
  6
CONTINUOUS
 62
     7
100
AcDbLine
 10
53.253301
 20
155.865621
 30
0.0
 11
53.326801
 21
155.754293
 31
0.0
  0
LINE
  5
14DC
100
AcDbEntity
  8
10000_FRONT
370
    25
390
0
  6
CONTINUOUS
 62
     7
100
AcDbLine
 10
54.405123
 20
156.767707
 30
0.0
 11
54.657779
 21
156.683065
 31
0.0
  0
ARC
  5
14DD
100
AcDbEntity
  8
10000_FRONT
370
    25
390
0
  6
CONTINUOUS
 62
     7
100
AcDbCircle
 10
52.517004
 20
164.173002
 30
0.0
 40
0.408
100
AcDbArc
 50
337.222408
 51
344.649475
  0
ARC
  5
14DE
100
AcDbEntity
  8
10000_FRONT
370
    25
390
0
  6
CONTINUOUS
 62
     7
100
AcDbCircle
 10
52.517004
 20
170.956988
 30
0.0
 40
0.408
100
AcDbArc
 50
15.350505
 51
22.777604
  0
LINE
  5
14DF
100
AcDbEntity
  8
10000_FRONT
370
    25
390
0
  6
CONTINUOUS
 62
     7
100
AcDbLine
 10
53.3268
 20
155.754294
 30
0.0
 11
53.380777
 21
155.597134
 31
0.0
  0
LINE
  5
14E0
100
AcDbEntity
  8
10000_FRONT
370
    25
390
0
  6
CONTINUOUS
 62
     7
100
AcDbLine
 10
53.416379
 20
155.855403
 30
0.0
 11
53.500215
 21
155.60237
 31
0.0
  0
LINE
  5
14E1
100
AcDbEntity
  8
10000_FRONT
370
    25
390
0
  6
CONTINUOUS
 62
     7
100
AcDbLine
 10
54.225737
 20
155.828685
 30
0.0
 11
54.718187
 21
155.007357
 31
0.0
  0
LINE
  5
14E2
100
AcDbEntity
  8
10000_FRONT
370
    25
390
0
  6
CONTINUOUS
 62
     7
100
AcDbLine
 10
54.352984
 20
155.828685
 30
0.0
 11
54.845434
 21
155.007357
 31
0.0
  0
LINE
  5
14E3
100
AcDbEntity
  8
10000_FRONT
370
    25
390
0
  6
CONTINUOUS
 62
     7
100
AcDbLine
 10
54.657779
 20
156.683064
 30
0.0
 11
54.747128
 21
156.597376
 31
0.0
  0
LINE
  5
14E4
100
AcDbEntity
  8
10000_FRONT
370
    25
390
0
  6
CONTINUOUS
 62
     7
100
AcDbLine
 10
52.703199
 20
155.991624
 30
0.0
 11
53.213105
 21
156.650309
 31
0.0
  0
LINE
  5
14E5
100
AcDbEntity
  8
10000_FRONT
370
    25
390
0
  6
CONTINUOUS
 62
     7
100
AcDbLine
 10
52.927144
 20
156.111609
 30
0.0
 11
53.443942
 21
156.767708
 31
0.0
  0
LINE
  5
14E6
100
AcDbEntity
  8
10000_FRONT
370
    25
390
0
  6
CONTINUOUS
 62
     7
100
AcDbLine
 10
53.326801
 20
155.361938
 30
0.0
 11
53.380777
 21
155.520392
 31
0.0
  0
LINE
  5
14E7
100
AcDbEntity
  8
10000_FRONT
370
    25
390
0
  6
CONTINUOUS
 62
     7
100
AcDbLine
 10
53.41638
 20
155.262418
 30
0.0
 11
53.500216
 21
155.515413
 31
0.0
  0
LINE
  5
14E8
100
AcDbEntity
  8
10000_FRONT
370
    25
390
0
  6
CONTINUOUS
 62
     7
100
AcDbLine
 10
54.634811
 20
156.569862
 30
0.0
 11
54.712905
 21
156.4171
 31
0.0
  0
ARC
  5
14E9
100
AcDbEntity
  8
10000_FRONT
370
    25
390
0
  6
CONTINUOUS
 62
     7
100
AcDbCircle
 10
54.200004
 20
160.864995
 30
0.0
 40
0.2
100
AcDbArc
 50
180.00012
 51
270.0
  0
ARC
  5
14EA
100
AcDbEntity
  8
10000_FRONT
370
    25
390
0
  6
CONTINUOUS
 62
     7
100
AcDbCircle
 10
54.200004
 20
162.464995
 30
0.0
 40
0.2
100
AcDbArc
 50
90.0
 51
180.0
  0
LINE
  5
14EB
100
AcDbEntity
  8
10000_FRONT
370
    25
390
0
  6
CONTINUOUS
 62
     7
100
AcDbLine
 10
54.747128
 20
156.597376
 30
0.0
 11
54.830504
 21
156.425747
 31
0.0
  0
LINE
  5
14EC
100
AcDbEntity
  8
10000_FRONT
370
    25
390
0
  6
CONTINUOUS
 62
     7
100
AcDbLine
 10
59.127254
 20
155.256396
 30
0.0
 11
59.393692
 21
155.124671
 31
0.0
  0
LINE
  5
14ED
100
AcDbEntity
  8
10000_FRONT
370
    25
390
0
  6
CONTINUOUS
 62
     7
100
AcDbLine
 10
53.253301
 20
155.251943
 30
0.0
 11
53.3268
 21
155.361937
 31
0.0
  0
ARC
  5
14EE
100
AcDbEntity
  8
10000_FRONT
370
    25
390
0
  6
CONTINUOUS
 62
     7
100
AcDbCircle
 10
54.875004
 20
139.674995
 30
0.0
 40
1.95
100
AcDbArc
 50
0.0
 51
135.885372
  0
LINE
  5
14EF
100
AcDbEntity
  8
10000_FRONT
370
    25
390
0
  6
CONTINUOUS
 62
     7
100
AcDbLine
 10
57.882639
 20
156.076242
 30
0.0
 11
58.017005
 21
156.01101
 31
0.0
  0
ARC
  5
14F0
100
AcDbEntity
  8
10000_FRONT
370
    25
390
0
  6
CONTINUOUS
 62
     7
100
AcDbCircle
 10
55.024072
 20
138.928407
 30
0.0
 40
1.800935
100
AcDbArc
 50
210.66696
 51
359.891457
  0
LINE
  5
14F1
100
AcDbEntity
  8
10000_FRONT
370
    25
390
0
  6
CONTINUOUS
 62
     7
100
AcDbLine
 10
58.259785
 20
155.961236
 30
0.0
 11
58.496364
 21
155.84545
 31
0.0
  0
LINE
  5
14F2
100
AcDbEntity
  8
10000_FRONT
370
    25
390
0
  6
CONTINUOUS
 62
     7
100
AcDbLine
 10
55.564525
 20
156.459286
 30
0.0
 11
55.921689
 21
155.5437
 31
0.0
  0
LINE
  5
14F3
100
AcDbEntity
  8
10000_FRONT
370
    25
390
0
  6
CONTINUOUS
 62
     7
100
AcDbLine
 10
55.966477
 20
155.426364
 30
0.0
 11
56.129555
 21
155.007356
 31
0.0
  0
LINE
  5
14F4
100
AcDbEntity
  8
10000_FRONT
370
    25
390
0
  6
CONTINUOUS
 62
     7
100
AcDbLine
 10
59.633716
 20
155.991624
 30
0.0
 11
59.791051
 21
155.937921
 31
0.0
  0
LINE
  5
14F5
100
AcDbEntity
  8
10000_FRONT
370
    25
390
0
  6
CONTINUOUS
 62
     7
100
AcDbLine
 10
57.953841
 20
156.175796
 30
0.0
 11
58.174341
 21
156.067859
 31
0.0
  0
LINE
  5
14F6
100
AcDbEntity
  8
10000_FRONT
370
    25
390
0
  6
CONTINUOUS
 62
     7
100
AcDbLine
 10
55.577157
 20
156.767707
 30
0.0
 11
56.25129
 21
155.007355
 31
0.0
  0
LINE
  5
14F7
100
AcDbEntity
  8
10000_FRONT
370
    25
390
0
  6
CONTINUOUS
 62
     7
100
AcDbLine
 10
57.713589
 20
155.178879
 30
0.0
 11
57.803397
 21
155.091938
 31
0.0
  0
LINE
  5
14F8
100
AcDbEntity
  8
10000_FRONT
370
    25
390
0
  6
CONTINUOUS
 62
     7
100
AcDbLine
 10
57.053757
 20
156.650309
 30
0.0
 11
57.209944
 21
156.572483
 31
0.0
  0
LINE
  5
14F9
100
AcDbEntity
  8
10000_FRONT
370
    25
390
0
  6
CONTINUOUS
 62
     7
100
AcDbLine
 10
54.634811
 20
156.026465
 30
0.0
 11
54.712904
 21
156.1792
 31
0.0
  0
LINE
  5
14FA
100
AcDbEntity
  8
10000_FRONT
370
    25
390
0
  6
CONTINUOUS
 62
     7
100
AcDbLine
 10
58.430902
 20
156.01101
 30
0.0
 11
58.565269
 21
155.944471
 31
0.0
  0
LINE
  5
14FB
100
AcDbEntity
  8
10000_FRONT
370
    25
390
0
  6
CONTINUOUS
 62
     7
100
AcDbLine
 10
57.810746
 20
155.24723
 30
0.0
 11
57.864952
 21
155.19564
 31
0.0
  0
LINE
  5
14FC
100
AcDbEntity
  8
10000_FRONT
370
    25
390
0
  6
CONTINUOUS
 62
     7
100
AcDbLine
 10
54.746897
 20
155.998958
 30
0.0
 11
54.830504
 21
156.170556
 31
0.0
  0
LINE
  5
14FD
100
AcDbEntity
  8
10000_FRONT
370
    25
390
0
  6
CONTINUOUS
 62
     7
100
AcDbLine
 10
59.638309
 20
156.111609
 30
0.0
 11
59.892113
 21
156.026991
 31
0.0
  0
LINE
  5
14FE
100
AcDbEntity
  8
10000_FRONT
370
    25
390
0
  6
CONTINUOUS
 62
     7
100
AcDbLine
 10
57.064093
 20
156.767708
 30
0.0
 11
57.23521
 21
156.682803
 31
0.0
  0
LINE
  5
14FF
100
AcDbEntity
  8
10000_FRONT
370
    25
390
0
  6
CONTINUOUS
 62
     7
100
AcDbLine
 10
53.244113
 20
155.091938
 30
0.0
 11
53.416379
 21
155.262419
 31
0.0
  0
LINE
  5
1500
100
AcDbEntity
  8
10000_FRONT
370
    25
390
0
  6
CONTINUOUS
 62
     7
100
AcDbLine
 10
54.877759
 20
155.007356
 30
0.0
 11
55.551892
 21
156.767707
 31
0.0
  0
LINE
  5
1501
100
AcDbEntity
  8
10000_FRONT
370
    25
390
0
  6
CONTINUOUS
 62
     7
100
AcDbLine
 10
58.371872
 20
156.650309
 30
0.0
 11
58.56481
 21
156.58611
 31
0.0
  0
LINE
  5
1502
100
AcDbEntity
  8
10000_FRONT
370
    25
390
0
  6
CONTINUOUS
 62
     7
100
AcDbLine
 10
55.000642
 20
155.007356
 30
0.0
 11
55.162571
 21
155.426364
 31
0.0
  0
LINE
  5
1503
100
AcDbEntity
  8
10000_FRONT
370
    25
390
0
  6
CONTINUOUS
 62
     7
100
AcDbLine
 10
55.20736
 20
155.543701
 30
0.0
 11
55.564524
 21
156.459286
 31
0.0
  0
LINE
  5
1504
100
AcDbEntity
  8
10000_FRONT
370
    25
390
0
  6
CONTINUOUS
 62
     7
100
AcDbLine
 10
58.391856
 20
156.767708
 30
0.0
 11
58.650254
 21
156.683065
 31
0.0
  0
LINE
  5
1505
100
AcDbEntity
  8
10000_FRONT
370
    25
390
0
  6
CONTINUOUS
 62
     7
100
AcDbLine
 10
54.657549
 20
155.913296
 30
0.0
 11
54.746897
 21
155.998958
 31
0.0
  0
LINE
  5
1506
100
AcDbEntity
  8
10000_FRONT
370
    25
390
0
  6
CONTINUOUS
 62
     7
100
AcDbLine
 10
57.23521
 20
156.682803
 30
0.0
 11
57.322492
 21
156.596853
 31
0.0
  0
LINE
  5
1507
100
AcDbEntity
  8
10000_FRONT
370
    25
390
0
  6
CONTINUOUS
 62
     7
100
AcDbLine
 10
57.795358
 20
156.16322
 30
0.0
 11
57.882639
 21
156.076242
 31
0.0
  0
LINE
  5
1508
100
AcDbEntity
  8
10000_FRONT
370
    25
390
0
  6
CONTINUOUS
 62
     7
100
AcDbLine
 10
57.628604
 20
155.349367
 30
0.0
 11
57.713588
 21
155.17888
 31
0.0
  0
LINE
  5
1509
100
AcDbEntity
  8
10000_FRONT
370
    25
390
0
  6
CONTINUOUS
 62
     7
100
AcDbLine
 10
57.894123
 20
156.23422
 30
0.0
 11
57.953842
 21
156.175796
 31
0.0
  0
LINE
  5
150A
100
AcDbEntity
  8
10000_FRONT
370
    25
390
0
  6
CONTINUOUS
 62
     7
100
AcDbLine
 10
59.043418
 20
155.177307
 30
0.0
 11
59.132996
 21
155.09089
 31
0.0
  0
LINE
  5
150B
100
AcDbEntity
  8
10000_FRONT
370
    25
390
0
  6
CONTINUOUS
 62
     7
100
AcDbLine
 10
53.143051
 20
155.179665
 30
0.0
 11
53.253301
 21
155.251943
 31
0.0
  0
LINE
  5
150C
100
AcDbEntity
  8
10000_FRONT
370
    25
390
0
  6
CONTINUOUS
 62
     7
100
AcDbLine
 10
57.746204
 20
155.376866
 30
0.0
 11
57.810746
 21
155.24723
 31
0.0
  0
LINE
  5
150D
100
AcDbEntity
  8
10000_FRONT
370
    25
390
0
  6
CONTINUOUS
 62
     7
100
AcDbLine
 10
57.209945
 20
156.572484
 30
0.0
 11
57.286891
 21
156.417626
 31
0.0
  0
LINE
  5
150E
100
AcDbEntity
  8
10000_FRONT
370
    25
390
0
  6
CONTINUOUS
 62
     7
100
AcDbLine
 10
58.496363
 20
155.845449
 30
0.0
 11
58.63831
 21
155.704523
 31
0.0
  0
LINE
  5
150F
100
AcDbEntity
  8
10000_FRONT
370
    25
390
0
  6
CONTINUOUS
 62
     7
100
AcDbLine
 10
57.322491
 20
156.596853
 30
0.0
 11
57.407475
 21
156.424962
 31
0.0
  0
LINE
  5
1510
100
AcDbEntity
  8
10000_FRONT
370
    25
390
0
  6
CONTINUOUS
 62
     7
100
AcDbLine
 10
56.381921
 20
156.426797
 30
0.0
 11
56.465757
 21
156.598687
 31
0.0
  0
LINE
  5
1511
100
AcDbEntity
  8
10000_FRONT
370
    25
390
0
  6
CONTINUOUS
 62
     7
100
AcDbLine
 10
58.56527
 20
155.94447
 30
0.0
 11
58.735468
 21
155.776295
 31
0.0
  0
LINE
  5
1512
100
AcDbEntity
  8
10000_FRONT
370
    25
390
0
  6
CONTINUOUS
 62
     7
100
AcDbLine
 10
56.501359
 20
156.417625
 30
0.0
 11
56.579453
 21
156.57222
 31
0.0
  0
LINE
  5
1513
100
AcDbEntity
  8
10000_FRONT
370
    25
390
0
  6
CONTINUOUS
 62
     7
100
AcDbLine
 10
72.289642
 20
166.799994
 30
0.0
 11
72.43453
 21
166.838827
 31
0.0
  0
LINE
  5
1514
100
AcDbEntity
  8
10000_FRONT
370
    25
390
0
  6
CONTINUOUS
 62
     7
100
AcDbLine
 10
57.711292
 20
156.333781
 30
0.0
 11
57.795358
 21
156.163221
 31
0.0
  0
LINE
  5
1515
100
AcDbEntity
  8
10000_FRONT
370
    25
390
0
  6
CONTINUOUS
 62
     7
100
AcDbLine
 10
57.830958
 20
156.363649
 30
0.0
 11
57.894122
 21
156.234219
 31
0.0
  0
LINE
  5
1516
100
AcDbEntity
  8
10000_FRONT
370
    25
390
0
  6
CONTINUOUS
 62
     7
100
AcDbLine
 10
56.465757
 20
156.598687
 30
0.0
 11
56.553039
 21
156.684113
 31
0.0
  0
LINE
  5
1517
100
AcDbEntity
  8
10000_FRONT
370
    25
390
0
  6
CONTINUOUS
 62
     7
100
AcDbLine
 10
59.79105
 20
155.937921
 30
0.0
 11
59.901301
 21
155.865621
 31
0.0
  0
ARC
  5
1518
100
AcDbEntity
  8
10000_FRONT
370
    25
390
0
  6
CONTINUOUS
 62
     7
100
AcDbCircle
 10
57.450004
 20
160.864995
 30
0.0
 40
0.2
100
AcDbArc
 50
270.0
 51
359.99988
  0
ARC
  5
1519
100
AcDbEntity
  8
10000_FRONT
370
    25
390
0
  6
CONTINUOUS
 62
     7
100
AcDbCircle
 10
57.450004
 20
162.464995
 30
0.0
 40
0.2
100
AcDbArc
 50
0.0
 51
90.0
  0
LINE
  5
151A
100
AcDbEntity
  8
10000_FRONT
370
    25
390
0
  6
CONTINUOUS
 62
     7
100
AcDbLine
 10
58.63831
 20
155.704524
 30
0.0
 11
58.701704
 21
155.576179
 31
0.0
  0
LINE
  5
151B
100
AcDbEntity
  8
10000_FRONT
370
    25
390
0
  6
CONTINUOUS
 62
     7
100
AcDbLine
 10
57.207648
 20
156.102441
 30
0.0
 11
57.28689
 21
156.263041
 31
0.0
  0
LINE
  5
151C
100
AcDbEntity
  8
10000_FRONT
370
    25
390
0
  6
CONTINUOUS
 62
     7
100
AcDbLine
 10
58.94695
 20
155.371105
 30
0.0
 11
59.043418
 21
155.177308
 31
0.0
  0
LINE
  5
151D
100
AcDbEntity
  8
10000_FRONT
370
    25
390
0
  6
CONTINUOUS
 62
     7
100
AcDbLine
 10
58.735467
 20
155.776296
 30
0.0
 11
58.819304
 21
155.604729
 31
0.0
  0
LINE
  5
151E
100
AcDbEntity
  8
10000_FRONT
370
    25
390
0
  6
CONTINUOUS
 62
     7
100
AcDbLine
 10
57.322491
 20
156.082266
 30
0.0
 11
57.407475
 21
156.250725
 31
0.0
  0
LINE
  5
151F
100
AcDbEntity
  8
10000_FRONT
370
    25
390
0
  6
CONTINUOUS
 62
     7
100
AcDbLine
 10
59.07098
 20
155.371104
 30
0.0
 11
59.127254
 21
155.256396
 31
0.0
  0
LINE
  5
1520
100
AcDbEntity
  8
10000_FRONT
370
    25
390
0
  6
CONTINUOUS
 62
     7
100
AcDbLine
 10
58.564811
 20
156.58611
 30
0.0
 11
58.61649
 21
156.480511
 31
0.0
  0
LINE
  5
1521
100
AcDbEntity
  8
10000_FRONT
370
    25
390
0
  6
CONTINUOUS
 62
     7
100
AcDbLine
 10
57.711291
 20
156.507762
 30
0.0
 11
57.797654
 21
156.683066
 31
0.0
  0
LINE
  5
1522
100
AcDbEntity
  8
10000_FRONT
370
    25
390
0
  6
CONTINUOUS
 62
     7
100
AcDbLine
 10
56.553038
 20
156.684114
 30
0.0
 11
56.725304
 21
156.767708
 31
0.0
  0
LINE
  5
1523
100
AcDbEntity
  8
10000_FRONT
370
    25
390
0
  6
CONTINUOUS
 62
     7
100
AcDbLine
 10
56.963031
 20
155.777083
 30
0.0
 11
57.207648
 21
156.102441
 31
0.0
  0
LINE
  5
1524
100
AcDbEntity
  8
10000_FRONT
370
    25
390
0
  6
CONTINUOUS
 62
     7
100
AcDbLine
 10
58.650254
 20
156.683066
 30
0.0
 11
58.737765
 21
156.507762
 31
0.0
  0
LINE
  5
1525
100
AcDbEntity
  8
10000_FRONT
370
    25
390
0
  6
CONTINUOUS
 62
     7
100
AcDbLine
 10
57.830959
 20
156.480511
 30
0.0
 11
57.882638
 21
156.58611
 31
0.0
  0
LINE
  5
1526
100
AcDbEntity
  8
10000_FRONT
370
    25
390
0
  6
CONTINUOUS
 62
     7
100
AcDbLine
 10
57.07328
 20
155.751149
 30
0.0
 11
57.322491
 21
156.082267
 31
0.0
  0
LINE
  5
1527
100
AcDbEntity
  8
10000_FRONT
370
    25
390
0
  6
CONTINUOUS
 62
     7
100
AcDbLine
 10
56.579453
 20
156.572221
 30
0.0
 11
56.734492
 21
156.650309
 31
0.0
  0
LINE
  5
1528
100
AcDbEntity
  8
10000_FRONT
370
    25
390
0
  6
CONTINUOUS
 62
     7
100
AcDbLine
 10
59.725426
 20
166.035134
 30
0.0
 11
59.751456
 21
166.182832
 31
0.0
  0
LINE
  5
1529
100
AcDbEntity
  8
10000_FRONT
370
    25
390
0
  6
CONTINUOUS
 62
     7
100
AcDbLine
 10
59.892114
 20
156.026991
 30
0.0
 11
60.064379
 21
155.855404
 31
0.0
  0
LINE
  5
152A
100
AcDbEntity
  8
10000_FRONT
370
    25
390
0
  6
CONTINUOUS
 62
     7
100
AcDbLine
 10
56.276265
 20
155.007357
 30
0.0
 11
56.963031
 21
155.777082
 31
0.0
  0
LINE
  5
152B
100
AcDbEntity
  8
10000_FRONT
370
    25
390
0
  6
CONTINUOUS
 62
     7
100
AcDbLine
 10
57.628604
 20
155.604729
 30
0.0
 11
57.713589
 21
155.776296
 31
0.0
  0
LINE
  5
152C
100
AcDbEntity
  8
10000_FRONT
370
    25
390
0
  6
CONTINUOUS
 62
     7
100
AcDbLine
 10
56.525476
 20
155.124671
 30
0.0
 11
57.073281
 21
155.751149
 31
0.0
  0
LINE
  5
152D
100
AcDbEntity
  8
10000_FRONT
370
    25
390
0
  6
CONTINUOUS
 62
     7
100
AcDbLine
 10
57.746204
 20
155.576179
 30
0.0
 11
57.810746
 21
155.704524
 31
0.0
  0
LINE
  5
152E
100
AcDbEntity
  8
10000_FRONT
370
    25
390
0
  6
CONTINUOUS
 62
     7
100
AcDbLine
 10
59.901301
 20
155.865621
 30
0.0
 11
59.974801
 21
155.754293
 31
0.0
  0
LINE
  5
152F
100
AcDbEntity
  8
10000_FRONT
370
    25
390
0
  6
CONTINUOUS
 62
     7
100
AcDbLine
 10
54.399611
 20
155.946043
 30
0.0
 11
54.634811
 21
156.026467
 31
0.0
  0
ARC
  5
1530
100
AcDbEntity
  8
10000_FRONT
370
    25
390
0
  6
CONTINUOUS
 62
     7
100
AcDbCircle
 10
59.056549
 20
142.805311
 30
0.0
 40
9.841273
100
AcDbArc
 50
64.158713
 51
67.400278
  0
ARC
  5
1531
100
AcDbEntity
  8
10000_FRONT
370
    25
390
0
  6
CONTINUOUS
 62
     7
100
AcDbCircle
 10
59.125936
 20
138.928407
 30
0.0
 40
1.800935
100
AcDbArc
 50
180.108543
 51
329.333039
  0
LINE
  5
1532
100
AcDbEntity
  8
10000_FRONT
370
    25
390
0
  6
CONTINUOUS
 62
     7
100
AcDbLine
 10
58.553326
 20
156.234221
 30
0.0
 11
58.61649
 21
156.363651
 31
0.0
  0
ARC
  5
1533
100
AcDbEntity
  8
10000_FRONT
370
    25
390
0
  6
CONTINUOUS
 62
     7
100
AcDbCircle
 10
59.275004
 20
139.674995
 30
0.0
 40
1.95
100
AcDbArc
 50
44.114628
 51
180.0
  0
LINE
  5
1534
100
AcDbEntity
  8
10000_FRONT
370
    25
390
0
  6
CONTINUOUS
 62
     7
100
AcDbLine
 10
58.65255
 20
156.163221
 30
0.0
 11
58.737765
 21
156.333782
 31
0.0
  0
LINE
  5
1535
100
AcDbEntity
  8
10000_FRONT
370
    25
390
0
  6
CONTINUOUS
 62
     7
100
AcDbLine
 10
54.404434
 20
155.828685
 30
0.0
 11
54.65755
 21
155.913297
 31
0.0
  0
LINE
  5
1536
100
AcDbEntity
  8
10000_FRONT
370
    25
390
0
  6
CONTINUOUS
 62
     7
100
AcDbLine
 10
61.042557
 20
156.650309
 30
0.0
 11
61.198744
 21
156.572483
 31
0.0
  0
LINE
  5
1537
100
AcDbEntity
  8
10000_FRONT
370
    25
390
0
  6
CONTINUOUS
 62
     7
100
AcDbLine
 10
59.9748
 20
155.754294
 30
0.0
 11
60.028777
 21
155.597134
 31
0.0
  0
LINE
  5
1538
100
AcDbEntity
  8
10000_FRONT
370
    25
390
0
  6
CONTINUOUS
 62
     7
100
AcDbLine
 10
57.713589
 20
155.776296
 30
0.0
 11
57.882639
 21
155.94447
 31
0.0
  0
LINE
  5
1539
100
AcDbEntity
  8
10000_FRONT
370
    25
390
0
  6
CONTINUOUS
 62
     7
100
AcDbLine
 10
60.064379
 20
155.855403
 30
0.0
 11
60.148215
 21
155.60237
 31
0.0
  0
LINE
  5
153A
100
AcDbEntity
  8
10000_FRONT
370
    25
390
0
  6
CONTINUOUS
 62
     7
100
AcDbLine
 10
57.810746
 20
155.704524
 30
0.0
 11
57.952693
 21
155.845449
 31
0.0
  0
LINE
  5
153B
100
AcDbEntity
  8
10000_FRONT
370
    25
390
0
  6
CONTINUOUS
 62
     7
100
AcDbLine
 10
61.052893
 20
156.767708
 30
0.0
 11
61.22401
 21
156.682803
 31
0.0
  0
LINE
  5
153C
100
AcDbEntity
  8
10000_FRONT
370
    25
390
0
  6
CONTINUOUS
 62
     7
100
AcDbLine
 10
58.63831
 20
155.247229
 30
0.0
 11
58.701704
 21
155.376865
 31
0.0
  0
LINE
  5
153D
100
AcDbEntity
  8
10000_FRONT
370
    25
390
0
  6
CONTINUOUS
 62
     7
100
AcDbLine
 10
52.985715
 20
155.124672
 30
0.0
 11
53.143051
 21
155.179665
 31
0.0
  0
LINE
  5
153E
100
AcDbEntity
  8
10000_FRONT
370
    25
390
0
  6
CONTINUOUS
 62
     7
100
AcDbLine
 10
58.494756
 20
156.175797
 30
0.0
 11
58.553326
 21
156.234221
 31
0.0
  0
LINE
  5
153F
100
AcDbEntity
  8
10000_FRONT
370
    25
390
0
  6
CONTINUOUS
 62
     7
100
AcDbLine
 10
58.735468
 20
155.178878
 30
0.0
 11
58.819304
 21
155.349365
 31
0.0
  0
LINE
  5
1540
100
AcDbEntity
  8
10000_FRONT
370
    25
390
0
  6
CONTINUOUS
 62
     7
100
AcDbLine
 10
58.565269
 20
156.076241
 30
0.0
 11
58.65255
 21
156.16322
 31
0.0
  0
LINE
  5
1541
100
AcDbEntity
  8
10000_FRONT
370
    25
390
0
  6
CONTINUOUS
 62
     7
100
AcDbLine
 10
57.797654
 20
156.683066
 30
0.0
 11
58.057201
 21
156.767709
 31
0.0
  0
LINE
  5
1542
100
AcDbEntity
  8
10000_FRONT
370
    25
390
0
  6
CONTINUOUS
 62
     7
100
AcDbLine
 10
61.22401
 20
156.682803
 30
0.0
 11
61.311292
 21
156.596853
 31
0.0
  0
LINE
  5
1543
100
AcDbEntity
  8
10000_FRONT
370
    25
390
0
  6
CONTINUOUS
 62
     7
100
AcDbLine
 10
52.990308
 20
155.007357
 30
0.0
 11
53.244113
 21
155.091938
 31
0.0
  0
LINE
  5
1544
100
AcDbEntity
  8
10000_FRONT
370
    25
390
0
  6
CONTINUOUS
 62
     7
100
AcDbLine
 10
59.351199
 20
155.991624
 30
0.0
 11
59.861105
 21
156.650309
 31
0.0
  0
LINE
  5
1545
100
AcDbEntity
  8
10000_FRONT
370
    25
390
0
  6
CONTINUOUS
 62
     7
100
AcDbLine
 10
57.882638
 20
156.586109
 30
0.0
 11
58.075575
 21
156.650309
 31
0.0
  0
LINE
  5
1546
100
AcDbEntity
  8
10000_FRONT
370
    25
390
0
  6
CONTINUOUS
 62
     7
100
AcDbLine
 10
59.575144
 20
156.111609
 30
0.0
 11
60.091942
 21
156.767708
 31
0.0
  0
LINE
  5
1547
100
AcDbEntity
  8
10000_FRONT
370
    25
390
0
  6
CONTINUOUS
 62
     7
100
AcDbLine
 10
59.974801
 20
155.361938
 30
0.0
 11
60.028777
 21
155.520392
 31
0.0
  0
LINE
  5
1548
100
AcDbEntity
  8
10000_FRONT
370
    25
390
0
  6
CONTINUOUS
 62
     7
100
AcDbLine
 10
61.198745
 20
156.572484
 30
0.0
 11
61.27569
 21
156.417626
 31
0.0
  0
LINE
  5
1549
100
AcDbEntity
  8
10000_FRONT
370
    25
390
0
  6
CONTINUOUS
 62
     7
100
AcDbLine
 10
60.06438
 20
155.262418
 30
0.0
 11
60.148216
 21
155.515413
 31
0.0
  0
LINE
  5
154A
100
AcDbEntity
  8
10000_FRONT
370
    25
390
0
  6
CONTINUOUS
 62
     7
100
AcDbLine
 10
61.311291
 20
156.596854
 30
0.0
 11
61.396275
 21
156.424962
 31
0.0
  0
LINE
  5
154B
100
AcDbEntity
  8
10000_FRONT
370
    25
390
0
  6
CONTINUOUS
 62
     7
100
AcDbLine
 10
60.370721
 20
156.426797
 30
0.0
 11
60.454558
 21
156.598688
 31
0.0
  0
LINE
  5
154C
100
AcDbEntity
  8
10000_FRONT
370
    25
390
0
  6
CONTINUOUS
 62
     7
100
AcDbLine
 10
57.882639
 20
155.944471
 30
0.0
 11
58.017006
 21
156.01101
 31
0.0
  0
LINE
  5
154D
100
AcDbEntity
  8
10000_FRONT
370
    25
390
0
  6
CONTINUOUS
 62
     7
100
AcDbLine
 10
60.490159
 20
156.417624
 30
0.0
 11
60.568253
 21
156.572221
 31
0.0
  0
LINE
  5
154E
100
AcDbEntity
  8
10000_FRONT
370
    25
390
0
  6
CONTINUOUS
 62
     7
100
AcDbLine
 10
58.582956
 20
155.19564
 30
0.0
 11
58.638311
 21
155.247231
 31
0.0
  0
LINE
  5
154F
100
AcDbEntity
  8
10000_FRONT
370
    25
390
0
  6
CONTINUOUS
 62
     7
100
AcDbLine
 10
58.645661
 20
155.091938
 30
0.0
 11
58.735468
 21
155.178879
 31
0.0
  0
LINE
  5
1550
100
AcDbEntity
  8
10000_FRONT
370
    25
390
0
  6
CONTINUOUS
 62
     7
100
AcDbLine
 10
58.273108
 20
156.067859
 30
0.0
 11
58.494756
 21
156.175796
 31
0.0
  0
LINE
  5
1551
100
AcDbEntity
  8
10000_FRONT
370
    25
390
0
  6
CONTINUOUS
 62
     7
100
AcDbLine
 10
57.952693
 20
155.84545
 30
0.0
 11
58.188122
 21
155.961236
 31
0.0
  0
LINE
  5
1552
100
AcDbEntity
  8
10000_FRONT
370
    25
390
0
  6
CONTINUOUS
 62
     7
100
AcDbLine
 10
60.454558
 20
156.598687
 30
0.0
 11
60.541839
 21
156.684113
 31
0.0
  0
LINE
  5
1553
100
AcDbEntity
  8
10000_FRONT
370
    25
390
0
  6
CONTINUOUS
 62
     7
100
AcDbLine
 10
59.901301
 20
155.251943
 30
0.0
 11
59.9748
 21
155.361937
 31
0.0
  0
LINE
  5
1554
100
AcDbEntity
  8
10000_FRONT
370
    25
390
0
  6
CONTINUOUS
 62
     7
100
AcDbLine
 10
58.430903
 20
156.01101
 30
0.0
 11
58.565269
 21
156.076242
 31
0.0
  0
LINE
  5
1555
100
AcDbEntity
  8
10000_FRONT
370
    25
390
0
  6
CONTINUOUS
 62
     7
100
AcDbLine
 10
60.369001
 20
165.921728
 30
0.0
 11
59.725425
 21
166.035135
 31
0.0
  0
LINE
  5
1556
100
AcDbEntity
  8
10000_FRONT
370
    25
390
0
  6
CONTINUOUS
 62
     7
100
AcDbLine
 10
61.196448
 20
156.102441
 30
0.0
 11
61.27569
 21
156.26304
 31
0.0
  0
LINE
  5
1557
100
AcDbEntity
  8
10000_FRONT
370
    25
390
0
  6
CONTINUOUS
 62
     7
100
AcDbLine
 10
61.311291
 20
156.082265
 30
0.0
 11
61.396276
 21
156.250726
 31
0.0
  0
ARC
  5
1558
100
AcDbEntity
  8
10000_FRONT
370
    25
390
0
  6
CONTINUOUS
 62
     7
100
AcDbCircle
 10
62.075004
 20
139.674995
 30
0.0
 40
1.95
100
AcDbArc
 50
0.0
 51
135.885376
  0
LINE
  5
1559
100
AcDbEntity
  8
10000_FRONT
370
    25
390
0
  6
CONTINUOUS
 62
     7
100
AcDbLine
 10
60.541838
 20
156.684114
 30
0.0
 11
60.714104
 21
156.767708
 31
0.0
  0
ARC
  5
155A
100
AcDbEntity
  8
10000_FRONT
370
    25
390
0
  6
CONTINUOUS
 62
     7
100
AcDbCircle
 10
62.224072
 20
138.928407
 30
0.0
 40
1.800935
100
AcDbArc
 50
210.666957
 51
359.891457
  0
LINE
  5
155B
100
AcDbEntity
  8
10000_FRONT
370
    25
390
0
  6
CONTINUOUS
 62
     7
100
AcDbLine
 10
60.951831
 20
155.777082
 30
0.0
 11
61.196448
 21
156.102441
 31
0.0
  0
LINE
  5
155C
100
AcDbEntity
  8
10000_FRONT
370
    25
390
0
  6
CONTINUOUS
 62
     7
100
AcDbLine
 10
59.892113
 20
155.091938
 30
0.0
 11
60.064379
 21
155.262419
 31
0.0
  0
LINE
  5
155D
100
AcDbEntity
  8
10000_FRONT
370
    25
390
0
  6
CONTINUOUS
 62
     7
100
AcDbLine
 10
61.06208
 20
155.751149
 30
0.0
 11
61.311291
 21
156.082266
 31
0.0
  0
LINE
  5
155E
100
AcDbEntity
  8
10000_FRONT
370
    25
390
0
  6
CONTINUOUS
 62
     7
100
AcDbLine
 10
60.568253
 20
156.572221
 30
0.0
 11
60.723292
 21
156.650309
 31
0.0
  0
LINE
  5
155F
100
AcDbEntity
  8
10000_FRONT
370
    25
390
0
  6
CONTINUOUS
 62
     7
100
AcDbLine
 10
60.265065
 20
155.007357
 30
0.0
 11
60.951831
 21
155.777082
 31
0.0
  0
LINE
  5
1560
100
AcDbEntity
  8
10000_FRONT
370
    25
390
0
  6
CONTINUOUS
 62
     7
100
AcDbLine
 10
60.404829
 20
166.0677
 30
0.0
 11
59.751455
 21
166.182832
 31
0.0
  0
LINE
  5
1561
100
AcDbEntity
  8
10000_FRONT
370
    25
390
0
  6
CONTINUOUS
 62
     7
100
AcDbLine
 10
60.514276
 20
155.124671
 30
0.0
 11
61.062081
 21
155.751149
 31
0.0
  0
LINE
  5
1562
100
AcDbEntity
  8
10000_FRONT
370
    25
390
0
  6
CONTINUOUS
 62
     7
100
AcDbLine
 10
63.897678
 20
168.822681
 30
0.0
 11
63.897355
 21
169.661213
 31
0.0
  0
LINE
  5
1563
100
AcDbEntity
  8
10000_FRONT
370
    25
390
0
  6
CONTINUOUS
 62
     7
100
AcDbLine
 10
64.047686
 20
168.822777
 30
0.0
 11
64.047363
 21
169.661223
 31
0.0
  0
ARC
  5
1564
100
AcDbEntity
  8
10000_FRONT
370
    25
390
0
  6
CONTINUOUS
 62
     7
100
AcDbCircle
 10
62.940027
 20
152.50489
 30
0.0
 40
0.582983
100
AcDbArc
 50
153.406655
 51
207.918135
  0
ARC
  5
1565
100
AcDbEntity
  8
10000_FRONT
370
    25
390
0
  6
CONTINUOUS
 62
     7
100
AcDbCircle
 10
62.971466
 20
164.842586
 30
0.0
 40
0.3
100
AcDbArc
 50
342.499966
 51
72.500039
  0
LINE
  5
1566
100
AcDbEntity
  8
10000_FRONT
370
    25
390
0
  6
CONTINUOUS
 62
     7
100
AcDbLine
 10
68.195177
 20
166.183435
 30
0.0
 11
67.544896
 21
166.06875
 31
0.0
  0
ARC
  5
1567
100
AcDbEntity
  8
10000_FRONT
370
    25
390
0
  6
CONTINUOUS
 62
     7
100
AcDbCircle
 10
63.029167
 20
152.411875
 30
0.0
 40
0.705659
100
AcDbArc
 50
101.936954
 51
149.891145
  0
ARC
  5
1568
100
AcDbEntity
  8
10000_FRONT
370
    25
390
0
  6
CONTINUOUS
 62
     7
100
AcDbCircle
 10
63.075309
 20
153.645447
 30
0.0
 40
2.716631
100
AcDbArc
 50
255.845786
 51
278.740592
  0
ARC
  5
1569
100
AcDbEntity
  8
10000_FRONT
370
    25
390
0
  6
CONTINUOUS
 62
     7
100
AcDbCircle
 10
63.086529
 20
152.597688
 30
0.0
 40
0.125967
100
AcDbArc
 50
144.861023
 51
206.967737
  0
ARC
  5
156A
100
AcDbEntity
  8
10000_FRONT
370
    25
390
0
  6
CONTINUOUS
 62
     7
100
AcDbCircle
 10
63.102212
 20
151.938731
 30
0.0
 40
0.628003
100
AcDbArc
 50
266.066548
 51
292.858079
  0
ARC
  5
156B
100
AcDbEntity
  8
10000_FRONT
370
    25
390
0
  6
CONTINUOUS
 62
     7
100
AcDbCircle
 10
63.154411
 20
152.695316
 30
0.0
 40
0.864247
100
AcDbArc
 50
212.423421
 51
248.556782
  0
ARC
  5
156C
100
AcDbEntity
  8
10000_FRONT
370
    25
390
0
  6
CONTINUOUS
 62
     7
100
AcDbCircle
 10
63.17241
 20
152.505341
 30
0.0
 40
0.25071
100
AcDbArc
 50
95.08728
 51
138.888353
  0
ARC
  5
156D
100
AcDbEntity
  8
10000_FRONT
370
    25
390
0
  6
CONTINUOUS
 62
     7
100
AcDbCircle
 10
63.187522
 20
153.516055
 30
0.0
 40
2.207585
100
AcDbArc
 50
249.405595
 51
266.665879
  0
ARC
  5
156E
100
AcDbEntity
  8
10000_FRONT
370
    25
390
0
  6
CONTINUOUS
 62
     7
100
AcDbCircle
 10
63.209581
 20
151.4015
 30
0.0
 40
0.898151
100
AcDbArc
 50
32.199001
 51
67.096948
  0
ARC
  5
156F
100
AcDbEntity
  8
10000_FRONT
370
    25
390
0
  6
CONTINUOUS
 62
     7
100
AcDbCircle
 10
63.260715
 20
151.502788
 30
0.0
 40
0.181136
100
AcDbArc
 50
0.731897
 51
61.854081
  0
ARC
  5
1570
100
AcDbEntity
  8
10000_FRONT
370
    25
390
0
  6
CONTINUOUS
 62
     7
100
AcDbCircle
 10
63.284368
 20
151.504882
 30
0.0
 40
0.157468
100
AcDbArc
 50
293.104365
 51
0.079771
  0
LINE
  5
1571
100
AcDbEntity
  8
10000_FRONT
370
    25
390
0
  6
CONTINUOUS
 62
     7
100
AcDbLine
 10
59.791051
 20
155.179665
 30
0.0
 11
59.901301
 21
155.251943
 31
0.0
  0
ARC
  5
1572
100
AcDbEntity
  8
10000_FRONT
370
    25
390
0
  6
CONTINUOUS
 62
     7
100
AcDbCircle
 10
63.311502
 20
151.702621
 30
0.0
 40
0.762982
100
AcDbArc
 50
283.385294
 51
330.296279
  0
ARC
  5
1573
100
AcDbEntity
  8
10000_FRONT
370
    25
390
0
  6
CONTINUOUS
 62
     7
100
AcDbCircle
 10
63.319477
 20
151.100619
 30
0.0
 40
1.663084
100
AcDbArc
 50
70.694827
 51
95.842709
  0
ARC
  5
1574
100
AcDbEntity
  8
10000_FRONT
370
    25
390
0
  6
CONTINUOUS
 62
     7
100
AcDbCircle
 10
63.32902
 20
151.078603
 30
0.0
 40
2.072196
100
AcDbArc
 50
74.886928
 51
102.423616
  0
ARC
  5
1575
100
AcDbEntity
  8
10000_FRONT
370
    25
390
0
  6
CONTINUOUS
 62
     7
100
AcDbCircle
 10
63.388921
 20
152.927563
 30
0.0
 40
0.567198
100
AcDbArc
 50
223.02368
 51
247.996445
  0
ARC
  5
1576
100
AcDbEntity
  8
10000_FRONT
370
    25
390
0
  6
CONTINUOUS
 62
     7
100
AcDbCircle
 10
63.416737
 20
151.597695
 30
0.0
 40
0.620808
100
AcDbArc
 50
333.897445
 51
27.057477
  0
ARC
  5
1577
100
AcDbEntity
  8
10000_FRONT
370
    25
390
0
  6
CONTINUOUS
 62
     7
100
AcDbCircle
 10
63.452595
 20
166.368533
 30
0.0
 40
0.3
100
AcDbArc
 50
252.499992
 51
342.499983
  0
LINE
  5
1578
100
AcDbEntity
  8
10000_FRONT
370
    25
390
0
  6
CONTINUOUS
 62
     7
100
AcDbLine
 10
68.221245
 20
166.035742
 30
0.0
 11
67.580769
 21
165.922785
 31
0.0
  0
CIRCLE
  5
1579
100
AcDbEntity
  8
10000_FRONT
370
    25
390
0
  6
CONTINUOUS
 62
     7
100
AcDbCircle
 10
63.975004
 20
165.364995
 30
0.0
 40
2.7
  0
CIRCLE
  5
157A
100
AcDbEntity
  8
10000_FRONT
370
    25
390
0
  6
CONTINUOUS
 62
     7
100
AcDbCircle
 10
63.975004
 20
165.364995
 30
0.0
 40
3.0
  0
CIRCLE
  5
157B
100
AcDbEntity
  8
10000_FRONT
370
    25
390
0
  6
CONTINUOUS
 62
     7
100
AcDbCircle
 10
63.975004
 20
165.364995
 30
0.0
 40
3.2
  0
ARC
  5
157C
100
AcDbEntity
  8
10000_FRONT
370
    25
390
0
  6
CONTINUOUS
 62
     7
100
AcDbCircle
 10
64.497413
 20
164.361457
 30
0.0
 40
0.3
100
AcDbArc
 50
72.500051
 51
162.500038
  0
ARC
  5
157D
100
AcDbEntity
  8
10000_FRONT
370
    25
390
0
  6
CONTINUOUS
 62
     7
100
AcDbCircle
 10
64.675004
 20
150.164995
 30
0.0
 40
0.2
100
AcDbArc
 50
269.999973
 51
359.999934
  0
ARC
  5
157E
100
AcDbEntity
  8
10000_FRONT
370
    25
390
0
  6
CONTINUOUS
 62
     7
100
AcDbCircle
 10
64.675004
 20
153.964995
 30
0.0
 40
0.2
100
AcDbArc
 50
0.000262
 51
90.000027
  0
ARC
  5
157F
100
AcDbEntity
  8
10000_FRONT
370
    25
390
0
  6
CONTINUOUS
 62
     7
100
AcDbCircle
 10
64.978542
 20
165.887404
 30
0.0
 40
0.3
100
AcDbArc
 50
162.499962
 51
252.499981
  0
LINE
  5
1580
100
AcDbEntity
  8
10000_FRONT
370
    25
390
0
  6
CONTINUOUS
 62
     7
100
AcDbLine
 10
58.372792
 20
155.124671
 30
0.0
 11
58.582956
 21
155.19564
 31
0.0
  0
LINE
  5
1581
100
AcDbEntity
  8
10000_FRONT
370
    25
390
0
  6
CONTINUOUS
 62
     7
100
AcDbLine
 10
58.391855
 20
155.007357
 30
0.0
 11
58.64566
 21
155.091938
 31
0.0
  0
ARC
  5
1582
100
AcDbEntity
  8
10000_FRONT
370
    25
390
0
  6
CONTINUOUS
 62
     7
100
AcDbCircle
 10
66.325936
 20
138.928407
 30
0.0
 40
1.800935
100
AcDbArc
 50
180.108543
 51
329.333044
  0
LINE
  5
1583
100
AcDbEntity
  8
10000_FRONT
370
    25
390
0
  6
CONTINUOUS
 62
     7
100
AcDbLine
 10
59.633715
 20
155.124672
 30
0.0
 11
59.791051
 21
155.179665
 31
0.0
  0
ARC
  5
1584
100
AcDbEntity
  8
10000_FRONT
370
    25
390
0
  6
CONTINUOUS
 62
     7
100
AcDbCircle
 10
66.475004
 20
139.674995
 30
0.0
 40
1.95
100
AcDbArc
 50
44.114622
 51
180.0
  0
LINE
  5
1585
100
AcDbEntity
  8
10000_FRONT
370
    25
390
0
  6
CONTINUOUS
 62
     7
100
AcDbLine
 10
59.638308
 20
155.007357
 30
0.0
 11
59.892113
 21
155.091938
 31
0.0
  0
LINE
  5
1586
100
AcDbEntity
  8
10000_FRONT
370
    25
390
0
  6
CONTINUOUS
 62
     7
100
AcDbLine
 10
68.221245
 20
166.035742
 30
0.0
 11
68.195178
 21
166.183435
 31
0.0
  0
LINE
  5
1587
100
AcDbEntity
  8
10000_FRONT
370
    25
390
0
  6
CONTINUOUS
 62
     7
100
AcDbLine
 10
70.381411
 20
159.6784
 30
0.0
 11
70.487476
 21
159.572363
 31
0.0
  0
ARC
  5
1588
100
AcDbEntity
  8
10000_FRONT
370
    25
390
0
  6
CONTINUOUS
 62
     7
100
AcDbCircle
 10
69.275004
 20
139.674995
 30
0.0
 40
1.95
100
AcDbArc
 50
0.0
 51
135.88537
  0
ARC
  5
1589
100
AcDbEntity
  8
10000_FRONT
370
    25
390
0
  6
CONTINUOUS
 62
     7
100
AcDbCircle
 10
69.424072
 20
138.928407
 30
0.0
 40
1.800935
100
AcDbArc
 50
210.666962
 51
359.891457
  0
ARC
  5
158A
100
AcDbEntity
  8
10000_FRONT
370
    25
390
0
  6
CONTINUOUS
 62
     7
100
AcDbCircle
 10
72.471466
 20
162.142586
 30
0.0
 40
0.3
100
AcDbArc
 50
342.500029
 51
72.500023
  0
ARC
  5
158B
100
AcDbEntity
  8
10000_FRONT
370
    25
390
0
  6
CONTINUOUS
 62
     7
100
AcDbCircle
 10
72.952595
 20
163.668533
 30
0.0
 40
0.3
100
AcDbArc
 50
252.499981
 51
342.49999
  0
LINE
  5
158C
100
AcDbEntity
  8
10000_FRONT
370
    25
390
0
  6
CONTINUOUS
 62
     7
100
AcDbLine
 10
76.982062
 20
161.648196
 30
0.0
 11
77.609075
 21
161.480209
 31
0.0
  0
LINE
  5
158D
100
AcDbEntity
  8
10000_FRONT
370
    25
390
0
  6
CONTINUOUS
 62
     7
100
AcDbLine
 10
72.289638
 20
166.799993
 30
0.0
 11
72.462727
 21
166.153863
 31
0.0
  0
LINE
  5
158E
100
AcDbEntity
  8
10000_FRONT
370
    25
390
0
  6
CONTINUOUS
 62
     7
100
AcDbLine
 10
70.381414
 20
159.678401
 30
0.0
 11
70.909145
 21
160.206005
 31
0.0
  0
CIRCLE
  5
158F
100
AcDbEntity
  8
10000_FRONT
370
    25
390
0
  6
CONTINUOUS
 62
     7
100
AcDbCircle
 10
73.475004
 20
162.664995
 30
0.0
 40
2.7
  0
CIRCLE
  5
1590
100
AcDbEntity
  8
10000_FRONT
370
    25
390
0
  6
CONTINUOUS
 62
     7
100
AcDbCircle
 10
73.475004
 20
162.664995
 30
0.0
 40
3.0
  0
CIRCLE
  5
1591
100
AcDbEntity
  8
10000_FRONT
370
    25
390
0
  6
CONTINUOUS
 62
     7
100
AcDbCircle
 10
73.475004
 20
162.664995
 30
0.0
 40
3.2
  0
ARC
  5
1592
100
AcDbEntity
  8
10000_FRONT
370
    25
390
0
  6
CONTINUOUS
 62
     7
100
AcDbCircle
 10
73.525936
 20
138.928407
 30
0.0
 40
1.800935
100
AcDbArc
 50
180.108543
 51
329.333041
  0
LINE
  5
1593
100
AcDbEntity
  8
10000_FRONT
370
    25
390
0
  6
CONTINUOUS
 62
     7
100
AcDbLine
 10
72.434527
 20
166.838826
 30
0.0
 11
72.608266
 21
166.190268
 31
0.0
  0
LINE
  5
1594
100
AcDbEntity
  8
10000_FRONT
370
    25
390
0
  6
CONTINUOUS
 62
     7
100
AcDbLine
 10
77.03037
 20
161.790527
 30
0.0
 11
77.647898
 21
161.62508
 31
0.0
  0
LINE
  5
1595
100
AcDbEntity
  8
10000_FRONT
370
    25
390
0
  6
CONTINUOUS
 62
     7
100
AcDbLine
 10
70.487479
 20
159.572362
 30
0.0
 11
71.019903
 21
160.104654
 31
0.0
  0
ARC
  5
1596
100
AcDbEntity
  8
10000_FRONT
370
    25
390
0
  6
CONTINUOUS
 62
     7
100
AcDbCircle
 10
73.675004
 20
139.674995
 30
0.0
 40
1.95
100
AcDbArc
 50
44.114626
 51
180.0
  0
ARC
  5
1597
100
AcDbEntity
  8
10000_FRONT
370
    25
390
0
  6
CONTINUOUS
 62
     7
100
AcDbCircle
 10
73.997413
 20
161.661457
 30
0.0
 40
0.3
100
AcDbArc
 50
72.499975
 51
162.50003
  0
ARC
  5
1598
100
AcDbEntity
  8
10000_FRONT
370
    25
390
0
  6
CONTINUOUS
 62
     7
100
AcDbCircle
 10
74.478542
 20
163.187404
 30
0.0
 40
0.3
100
AcDbArc
 50
162.499959
 51
252.499883
  0
ARC
  5
1599
100
AcDbEntity
  8
10000_FRONT
370
    25
390
0
  6
CONTINUOUS
 62
     7
100
AcDbCircle
 10
76.475004
 20
139.674995
 30
0.0
 40
1.95
100
AcDbArc
 50
0.0
 51
135.885374
  0
ARC
  5
159A
100
AcDbEntity
  8
10000_FRONT
370
    25
390
0
  6
CONTINUOUS
 62
     7
100
AcDbCircle
 10
76.624072
 20
138.928407
 30
0.0
 40
1.800935
100
AcDbArc
 50
210.666959
 51
359.891457
  0
LINE
  5
159B
100
AcDbEntity
  8
10000_FRONT
370
    25
390
0
  6
CONTINUOUS
 62
     7
100
AcDbLine
 10
77.609072
 20
161.480207
 30
0.0
 11
77.647898
 21
161.625088
 31
0.0
  0
ARC
  5
159C
100
AcDbEntity
  8
10000_FRONT
370
    25
390
0
  6
CONTINUOUS
 62
     7
100
AcDbCircle
 10
77.975004
 20
135.574995
 30
0.0
 40
1.5
100
AcDbArc
 50
269.999985
 51
297.818133
  0
ARC
  5
159D
100
AcDbEntity
  8
10000_FRONT
370
    25
390
0
  6
CONTINUOUS
 62
     7
100
AcDbCircle
 10
78.965004
 20
172.324995
 30
0.0
 40
0.6
100
AcDbArc
 50
44.338754
 51
90.000058
  0
ARC
  5
159E
100
AcDbEntity
  8
10000_FRONT
370
    25
390
0
  6
CONTINUOUS
 62
     7
100
AcDbCircle
 10
78.975004
 20
150.464995
 30
0.0
 40
0.6
100
AcDbArc
 50
280.475279
 51
0.000087
  0
ARC
  5
159F
100
AcDbEntity
  8
10000_FRONT
370
    25
390
0
  6
CONTINUOUS
 62
     7
100
AcDbCircle
 10
78.975004
 20
172.314995
 30
0.0
 40
0.6
100
AcDbArc
 50
47.10212
 51
90.000036
  0
TEXT
  5
15A0
100
AcDbEntity
  8
10000_FRONT
370
    25
390
0
  6
CONTINUOUS
 62
     7
100
AcDbText
 10
65.475004
 20
150.770995
 30
0.0
 40
2.957746
  1
S
100
AcDbText
  0
TEXT
  5
15A1
100
AcDbEntity
  8
10000_FRONT
370
    25
390
0
  6
CONTINUOUS
 62
     7
100
AcDbText
 10
67.691004
 20
150.770995
 30
0.0
 40
2.957746
  1
I
100
AcDbText
  0
TEXT
  5
15A2
100
AcDbEntity
  8
10000_FRONT
370
    25
390
0
  6
CONTINUOUS
 62
     7
100
AcDbText
 10
68.691004
 20
150.770995
 30
0.0
 40
2.957746
  1
R
100
AcDbText
  0
TEXT
  5
15A3
100
AcDbEntity
  8
10000_FRONT
370
    25
390
0
  6
CONTINUOUS
 62
     7
100
AcDbText
 10
70.907004
 20
150.770995
 30
0.0
 40
2.957746
  1
I
100
AcDbText
  0
TEXT
  5
15A4
100
AcDbEntity
  8
10000_FRONT
370
    25
390
0
  6
CONTINUOUS
 62
     7
100
AcDbText
 10
71.907004
 20
150.770995
 30
0.0
 40
2.957746
  1
U
100
AcDbText
  0
TEXT
  5
15A5
100
AcDbEntity
  8
10000_FRONT
370
    25
390
0
  6
CONTINUOUS
 62
     7
100
AcDbText
 10
74.339004
 20
150.770995
 30
0.0
 40
2.957746
  1
S
100
AcDbText
  0
TEXT
  5
15A6
100
AcDbEntity
  8
10000_FRONT
370
    25
390
0
  6
CONTINUOUS
 62
     7
100
AcDbText
 10
57.418004
 20
134.618595
 30
0.0
 40
1.774648
  1
B
100
AcDbText
  0
TEXT
  5
15A7
100
AcDbEntity
  8
10000_FRONT
370
    25
390
0
  6
CONTINUOUS
 62
     7
100
AcDbText
 10
58.664504
 20
134.618595
 30
0.0
 40
1.774648
  1
1
100
AcDbText
  0
TEXT
  5
15A8
100
AcDbEntity
  8
10000_FRONT
370
    25
390
0
  6
CONTINUOUS
 62
     7
100
AcDbText
 10
59.911004
 20
134.618595
 30
0.0
 40
1.774648
  1
(
100
AcDbText
  0
TEXT
  5
15A9
100
AcDbEntity
  8
10000_FRONT
370
    25
390
0
  6
CONTINUOUS
 62
     7
100
AcDbText
 10
60.883004
 20
134.618595
 30
0.0
 40
1.774648
  1
+
100
AcDbText
  0
TEXT
  5
15AA
100
AcDbEntity
  8
10000_FRONT
370
    25
390
0
  6
CONTINUOUS
 62
     7
100
AcDbText
 10
62.440004
 20
134.618595
 30
0.0
 40
1.774648
  1
)
100
AcDbText
  0
TEXT
  5
15AB
100
AcDbEntity
  8
10000_FRONT
370
    25
390
0
  6
CONTINUOUS
 62
     7
100
AcDbText
 10
65.091004
 20
134.618595
 30
0.0
 40
1.774648
  1
A
100
AcDbText
  0
TEXT
  5
15AC
100
AcDbEntity
  8
10000_FRONT
370
    25
390
0
  6
CONTINUOUS
 62
     7
100
AcDbText
 10
66.337504
 20
134.618595
 30
0.0
 40
1.774648
  1
4
100
AcDbText
  0
TEXT
  5
15AD
100
AcDbEntity
  8
10000_FRONT
370
    25
390
0
  6
CONTINUOUS
 62
     7
100
AcDbText
 10
67.584004
 20
134.618595
 30
0.0
 40
1.774648
  1
(
100
AcDbText
  0
TEXT
  5
15AE
100
AcDbEntity
  8
10000_FRONT
370
    25
390
0
  6
CONTINUOUS
 62
     7
100
AcDbText
 10
68.556004
 20
134.618595
 30
0.0
 40
1.774648
  1
-
100
AcDbText
  0
TEXT
  5
15AF
100
AcDbEntity
  8
10000_FRONT
370
    25
390
0
  6
CONTINUOUS
 62
     7
100
AcDbText
 10
70.167004
 20
134.618595
 30
0.0
 40
1.774648
  1
)
100
AcDbText
  0
TEXT
  5
15B0
100
AcDbEntity
  8
10000_FRONT
370
    25
390
0
  6
CONTINUOUS
 62
     7
100
AcDbText
 10
72.318004
 20
134.618595
 30
0.0
 40
1.774648
  1
A
100
AcDbText
  0
TEXT
  5
15B1
100
AcDbEntity
  8
10000_FRONT
370
    25
390
0
  6
CONTINUOUS
 62
     7
100
AcDbText
 10
73.564504
 20
134.618595
 30
0.0
 40
1.774648
  1
3
100
AcDbText
  0
TEXT
  5
15B2
100
AcDbEntity
  8
10000_FRONT
370
    25
390
0
  6
CONTINUOUS
 62
     7
100
AcDbText
 10
74.811004
 20
134.618595
 30
0.0
 40
1.774648
  1
(
100
AcDbText
  0
TEXT
  5
15B3
100
AcDbEntity
  8
10000_FRONT
370
    25
390
0
  6
CONTINUOUS
 62
     7
100
AcDbText
 10
75.783004
 20
134.618595
 30
0.0
 40
1.774648
  1
+
100
AcDbText
  0
TEXT
  5
15B4
100
AcDbEntity
  8
10000_FRONT
370
    25
390
0
  6
CONTINUOUS
 62
     7
100
AcDbText
 10
77.340004
 20
134.618595
 30
0.0
 40
1.774648
  1
)
100
AcDbText
  0
LINE
  5
15B5
100
AcDbEntity
  8
10100_FRONT_DIM
370
    13
390
0
  6
CONTINUOUS
 62
     7
100
AcDbLine
 10
34.575004
 20
172.224995
 30
0.0
 11
34.575004
 21
183.925005
 31
0.0
  0
LINE
  5
15B6
100
AcDbEntity
  8
10100_FRONT_DIM
370
    13
390
0
  6
CONTINUOUS
 62
     7
100
AcDbLine
 10
79.575004
 20
183.925005
 30
0.0
 11
79.575004
 21
172.224995
 31
0.0
  0
LINE
  5
15B7
100
AcDbEntity
  8
10100_FRONT_DIM
370
    13
390
0
  6
CONTINUOUS
 62
     7
100
AcDbLine
 10
34.575004
 20
182.925005
 30
0.0
 11
79.575004
 21
182.925005
 31
0.0
  0
TEXT
  5
15B8
100
AcDbEntity
  8
10100_FRONT_DIM
370
    13
390
0
  6
CONTINUOUS
 62
     7
100
AcDbText
 10
55.408337
 20
183.925005
 30
0.0
 40
2.0
  1
45
 72
     1
 11
57.075004
 21
183.925005
 31
0.0
100
AcDbText
  0
LINE
  5
15B9
100
AcDbEntity
  8
10100_FRONT_DIM
370
    13
390
0
  6
CONTINUOUS
 62
     7
100
AcDbLine
 10
36.175004
 20
134.074995
 30
0.0
 11
23.574994
 21
134.074995
 31
0.0
  0
LINE
  5
15BA
100
AcDbEntity
  8
10100_FRONT_DIM
370
    13
390
0
  6
CONTINUOUS
 62
     7
100
AcDbLine
 10
23.574994
 20
172.924995
 30
0.0
 11
35.275004
 21
172.924995
 31
0.0
  0
LINE
  5
15BB
100
AcDbEntity
  8
10100_FRONT_DIM
370
    13
390
0
  6
CONTINUOUS
 62
     7
100
AcDbLine
 10
24.574994
 20
134.074995
 30
0.0
 11
24.574994
 21
172.924995
 31
0.0
  0
TEXT
  5
15BC
100
AcDbEntity
  8
10100_FRONT_DIM
370
    13
390
0
  6
CONTINUOUS
 62
     7
100
AcDbText
 10
23.574994
 20
150.499995
 30
0.0
 40
2.0
  1
38.9
 50
90.0
 72
     1
 11
23.574994
 21
153.499995
 31
0.0
100
AcDbText
  0
SOLID
  5
15BD
100
AcDbEntity
  8
10100_FRONT_DIM
370
    13
390
0
  6
CONTINUOUS
 62
     7
100
AcDbTrace
 10
38.575004
 20
183.451615
 30
0.0
 11
34.575004
 21
182.925005
 31
0.0
 12
38.575004
 22
182.398395
 32
0.0
 13
34.575004
 23
182.925005
 33
0.0
  0
SOLID
  5
15BE
100
AcDbEntity
  8
10100_FRONT_DIM
370
    13
390
0
  6
CONTINUOUS
 62
     7
100
AcDbTrace
 10
75.575004
 20
182.398395
 30
0.0
 11
79.575004
 21
182.925005
 31
0.0
 12
75.575004
 22
183.451615
 32
0.0
 13
79.575004
 23
182.925005
 33
0.0
  0
SOLID
  5
15BF
100
AcDbEntity
  8
10100_FRONT_DIM
370
    13
390
0
  6
CONTINUOUS
 62
     7
100
AcDbTrace
 10
24.048384
 20
138.074995
 30
0.0
 11
24.574994
 21
134.074995
 31
0.0
 12
25.101604
 22
138.074995
 32
0.0
 13
24.574994
 23
134.074995
 33
0.0
  0
SOLID
  5
15C0
100
AcDbEntity
  8
10100_FRONT_DIM
370
    13
390
0
  6
CONTINUOUS
 62
     7
100
AcDbTrace
 10
25.101604
 20
168.924995
 30
0.0
 11
24.574994
 21
172.924995
 31
0.0
 12
24.048384
 22
168.924995
 32
0.0
 13
24.574994
 23
172.924995
 33
0.0
  0
LINE
  5
15C1
100
AcDbEntity
  8
11000_LEFT
370
    25
390
0
  6
CONTINUOUS
 62
     7
100
AcDbLine
 10
187.875002
 20
134.248344
 30
0.0
 11
187.872103
 21
134.286068
 31
0.0
  0
LINE
  5
15C2
100
AcDbEntity
  8
11000_LEFT
370
    25
390
0
  6
CONTINUOUS
 62
     7
100
AcDbLine
 10
187.916949
 20
172.35796
 30
0.0
 11
187.912867
 21
172.396907
 31
0.0
  0
LINE
  5
15C3
100
AcDbEntity
  8
11000_LEFT
370
    25
390
0
  6
CONTINUOUS
 62
     7
100
AcDbLine
 10
187.912867
 20
172.396907
 30
0.0
 11
187.906237
 21
172.435598
 31
0.0
  0
LINE
  5
15C4
100
AcDbEntity
  8
11000_LEFT
370
    25
390
0
  6
CONTINUOUS
 62
     7
100
AcDbLine
 10
187.872103
 20
134.286068
 30
0.0
 11
187.863665
 21
134.327888
 31
0.0
  0
LINE
  5
15C5
100
AcDbEntity
  8
11000_LEFT
370
    25
390
0
  6
CONTINUOUS
 62
     7
100
AcDbLine
 10
187.906237
 20
172.435598
 30
0.0
 11
187.897059
 21
172.473921
 31
0.0
  0
LINE
  5
15C6
100
AcDbEntity
  8
11000_LEFT
370
    25
390
0
  6
CONTINUOUS
 62
     7
100
AcDbLine
 10
187.863665
 20
134.327888
 30
0.0
 11
187.850054
 21
134.373401
 31
0.0
  0
LINE
  5
15C7
100
AcDbEntity
  8
11000_LEFT
370
    25
390
0
  6
CONTINUOUS
 62
     7
100
AcDbLine
 10
187.897059
 20
172.473921
 30
0.0
 11
187.885272
 21
172.51187
 31
0.0
  0
LINE
  5
15C8
100
AcDbEntity
  8
11000_LEFT
370
    25
390
0
  6
CONTINUOUS
 62
     7
100
AcDbLine
 10
186.687564
 20
135.574997
 30
0.0
 11
186.607356
 21
135.795379
 31
0.0
  0
LINE
  5
15C9
100
AcDbEntity
  8
11000_LEFT
370
    25
390
0
  6
CONTINUOUS
 62
     7
100
AcDbLine
 10
187.233523
 20
134.074997
 30
0.0
 11
186.687564
 21
135.574997
 31
0.0
  0
LINE
  5
15CA
100
AcDbEntity
  8
11000_LEFT
370
    25
390
0
  6
CONTINUOUS
 62
     7
100
AcDbLine
 10
187.850054
 20
134.373401
 30
0.0
 11
187.831652
 21
134.422184
 31
0.0
  0
LINE
  5
15CB
100
AcDbEntity
  8
11000_LEFT
370
    25
390
0
  6
CONTINUOUS
 62
     7
100
AcDbLine
 10
187.885272
 20
172.51187
 30
0.0
 11
187.870844
 21
172.549317
 31
0.0
  0
LINE
  5
15CC
100
AcDbEntity
  8
11000_LEFT
370
    25
390
0
  6
CONTINUOUS
 62
     7
100
AcDbLine
 10
187.831652
 20
134.422184
 30
0.0
 11
187.808856
 21
134.473819
 31
0.0
  0
LINE
  5
15CD
100
AcDbEntity
  8
11000_LEFT
370
    25
390
0
  6
CONTINUOUS
 62
     7
100
AcDbLine
 10
187.870844
 20
172.549317
 30
0.0
 11
187.853755
 21
172.586096
 31
0.0
  0
LINE
  5
15CE
100
AcDbEntity
  8
11000_LEFT
370
    25
390
0
  6
CONTINUOUS
 62
     7
100
AcDbLine
 10
187.808856
 20
134.473819
 30
0.0
 11
187.782237
 21
134.52774
 31
0.0
  0
LINE
  5
15CF
100
AcDbEntity
  8
11000_LEFT
370
    25
390
0
  6
CONTINUOUS
 62
     7
100
AcDbLine
 10
187.782237
 20
134.52774
 30
0.0
 11
187.752566
 21
134.583187
 31
0.0
  0
LINE
  5
15D0
100
AcDbEntity
  8
11000_LEFT
370
    25
390
0
  6
CONTINUOUS
 62
     7
100
AcDbLine
 10
187.853755
 20
172.586096
 30
0.0
 11
187.833979
 21
172.622041
 31
0.0
  0
LINE
  5
15D1
100
AcDbEntity
  8
11000_LEFT
370
    25
390
0
  6
CONTINUOUS
 62
     7
100
AcDbLine
 10
187.752566
 20
134.583187
 30
0.0
 11
187.720584
 21
134.639392
 31
0.0
  0
LINE
  5
15D2
100
AcDbEntity
  8
11000_LEFT
370
    25
390
0
  6
CONTINUOUS
 62
     7
100
AcDbLine
 10
187.720584
 20
134.639392
 30
0.0
 11
187.687052
 21
134.695579
 31
0.0
  0
LINE
  5
15D3
100
AcDbEntity
  8
11000_LEFT
370
    25
390
0
  6
CONTINUOUS
 62
     7
100
AcDbLine
 10
187.687052
 20
134.695579
 30
0.0
 11
187.652201
 21
134.751792
 31
0.0
  0
LINE
  5
15D4
100
AcDbEntity
  8
11000_LEFT
370
    25
390
0
  6
CONTINUOUS
 62
     7
100
AcDbLine
 10
187.652201
 20
134.751792
 30
0.0
 11
187.615
 21
134.809955
 31
0.0
  0
LINE
  5
15D5
100
AcDbEntity
  8
11000_LEFT
370
    25
390
0
  6
CONTINUOUS
 62
     7
100
AcDbLine
 10
187.833979
 20
172.622041
 30
0.0
 11
187.81148
 21
172.65699
 31
0.0
  0
LINE
  5
15D6
100
AcDbEntity
  8
11000_LEFT
370
    25
390
0
  6
CONTINUOUS
 62
     7
100
AcDbLine
 10
187.615
 20
134.809955
 30
0.0
 11
187.575617
 21
134.869968
 31
0.0
  0
LINE
  5
15D7
100
AcDbEntity
  8
11000_LEFT
370
    25
390
0
  6
CONTINUOUS
 62
     7
100
AcDbLine
 10
187.575617
 20
134.869968
 30
0.0
 11
187.534312
 21
134.931564
 31
0.0
  0
LINE
  5
15D8
100
AcDbEntity
  8
11000_LEFT
370
    25
390
0
  6
CONTINUOUS
 62
     7
100
AcDbLine
 10
187.534312
 20
134.931564
 30
0.0
 11
187.491343
 21
134.994487
 31
0.0
  0
LINE
  5
15D9
100
AcDbEntity
  8
11000_LEFT
370
    25
390
0
  6
CONTINUOUS
 62
     7
100
AcDbLine
 10
187.491343
 20
134.994487
 30
0.0
 11
187.446971
 21
135.058467
 31
0.0
  0
LINE
  5
15DA
100
AcDbEntity
  8
11000_LEFT
370
    25
390
0
  6
CONTINUOUS
 62
     7
100
AcDbLine
 10
187.446971
 20
135.058467
 30
0.0
 11
187.401461
 21
135.123249
 31
0.0
  0
LINE
  5
15DB
100
AcDbEntity
  8
11000_LEFT
370
    25
390
0
  6
CONTINUOUS
 62
     7
100
AcDbLine
 10
187.401461
 20
135.123249
 30
0.0
 11
187.35509
 21
135.188564
 31
0.0
  0
LINE
  5
15DC
100
AcDbEntity
  8
11000_LEFT
370
    25
390
0
  6
CONTINUOUS
 62
     7
100
AcDbLine
 10
187.35509
 20
135.188564
 30
0.0
 11
187.308146
 21
135.254123
 31
0.0
  0
LINE
  5
15DD
100
AcDbEntity
  8
11000_LEFT
370
    25
390
0
  6
CONTINUOUS
 62
     7
100
AcDbLine
 10
187.308146
 20
135.254123
 30
0.0
 11
187.26092
 21
135.319622
 31
0.0
  0
LINE
  5
15DE
100
AcDbEntity
  8
11000_LEFT
370
    25
390
0
  6
CONTINUOUS
 62
     7
100
AcDbLine
 10
187.26092
 20
135.319622
 30
0.0
 11
187.213717
 21
135.38475
 31
0.0
  0
LINE
  5
15DF
100
AcDbEntity
  8
11000_LEFT
370
    25
390
0
  6
CONTINUOUS
 62
     7
100
AcDbLine
 10
187.213717
 20
135.38475
 30
0.0
 11
187.166819
 21
135.449199
 31
0.0
  0
LINE
  5
15E0
100
AcDbEntity
  8
11000_LEFT
370
    25
390
0
  6
CONTINUOUS
 62
     7
100
AcDbLine
 10
187.166819
 20
135.449199
 30
0.0
 11
187.120524
 21
135.512664
 31
0.0
  0
LINE
  5
15E1
100
AcDbEntity
  8
11000_LEFT
370
    25
390
0
  6
CONTINUOUS
 62
     7
100
AcDbLine
 10
187.120524
 20
135.512664
 30
0.0
 11
187.075007
 21
135.574997
 31
0.0
  0
LINE
  5
15E2
100
AcDbEntity
  8
11000_LEFT
370
    25
390
0
  6
CONTINUOUS
 62
     7
100
AcDbLine
 10
187.81148
 20
172.65699
 30
0.0
 11
187.786219
 21
172.690795
 31
0.0
  0
LINE
  5
15E3
100
AcDbEntity
  8
11000_LEFT
370
    25
390
0
  6
CONTINUOUS
 62
     7
100
AcDbLine
 10
187.786219
 20
172.690795
 30
0.0
 11
187.758044
 21
172.723396
 31
0.0
  0
LINE
  5
15E4
100
AcDbEntity
  8
11000_LEFT
370
    25
390
0
  6
CONTINUOUS
 62
     7
100
AcDbLine
 10
187.758044
 20
172.723396
 30
0.0
 11
187.726901
 21
172.754536
 31
0.0
  0
LINE
  5
15E5
100
AcDbEntity
  8
11000_LEFT
370
    25
390
0
  6
CONTINUOUS
 62
     7
100
AcDbLine
 10
101.575004
 20
146.624996
 30
0.0
 11
99.875004
 21
146.964996
 31
0.0
  0
LINE
  5
15E6
100
AcDbEntity
  8
11000_LEFT
370
    25
390
0
  6
CONTINUOUS
 62
     7
100
AcDbLine
 10
101.575004
 20
166.824995
 30
0.0
 11
99.575004
 21
167.224995
 31
0.0
  0
LINE
  5
15E7
100
AcDbEntity
  8
11000_LEFT
370
    25
390
0
  6
CONTINUOUS
 62
     7
100
AcDbLine
 10
99.875004
 20
146.964996
 30
0.0
 11
99.575004
 21
147.024995
 31
0.0
  0
LINE
  5
15E8
100
AcDbEntity
  8
11000_LEFT
370
    25
390
0
  6
CONTINUOUS
 62
     7
100
AcDbLine
 10
168.375002
 20
134.974994
 30
0.0
 11
159.240275
 21
136.585693
 31
0.0
  0
LINE
  5
15E9
100
AcDbEntity
  8
11000_LEFT
370
    25
390
0
  6
CONTINUOUS
 62
     7
100
AcDbLine
 10
187.875002
 20
149.874996
 30
0.0
 11
187.430743
 21
149.885566
 31
0.0
  0
LINE
  5
15EA
100
AcDbEntity
  8
11000_LEFT
370
    25
390
0
  6
CONTINUOUS
 62
     7
100
AcDbLine
 10
187.233523
 20
134.074997
 30
0.0
 11
187.875002
 21
134.074997
 31
0.0
  0
LINE
  5
15EB
100
AcDbEntity
  8
11000_LEFT
370
    25
390
0
  6
CONTINUOUS
 62
     7
100
AcDbLine
 10
168.375002
 20
134.974994
 30
0.0
 11
178.575007
 21
134.974994
 31
0.0
  0
LINE
  5
15EC
100
AcDbEntity
  8
11000_LEFT
370
    25
390
0
  6
CONTINUOUS
 62
     7
100
AcDbLine
 10
186.687564
 20
135.574997
 30
0.0
 11
187.075007
 21
135.574997
 31
0.0
  0
LINE
  5
15ED
100
AcDbEntity
  8
11000_LEFT
370
    25
390
0
  6
CONTINUOUS
 62
     7
100
AcDbLine
 10
155.575003
 20
138.324997
 30
0.0
 11
159.075003
 21
138.324997
 31
0.0
  0
LINE
  5
15EE
100
AcDbEntity
  8
11000_LEFT
370
    25
390
0
  6
CONTINUOUS
 62
     7
100
AcDbLine
 10
132.175006
 20
138.424995
 30
0.0
 11
155.575003
 21
138.424995
 31
0.0
  0
LINE
  5
15EF
100
AcDbEntity
  8
11000_LEFT
370
    25
390
0
  6
CONTINUOUS
 62
     7
100
AcDbLine
 10
137.475005
 20
139.024995
 30
0.0
 11
155.575003
 21
139.024995
 31
0.0
  0
LINE
  5
15F0
100
AcDbEntity
  8
11000_LEFT
370
    25
390
0
  6
CONTINUOUS
 62
     7
100
AcDbLine
 10
114.275004
 20
140.924995
 30
0.0
 11
117.475004
 21
140.924995
 31
0.0
  0
LINE
  5
15F1
100
AcDbEntity
  8
11000_LEFT
370
    25
390
0
  6
CONTINUOUS
 62
     7
100
AcDbLine
 10
114.275004
 20
141.424995
 30
0.0
 11
117.475004
 21
141.424995
 31
0.0
  0
LINE
  5
15F2
100
AcDbEntity
  8
11000_LEFT
370
    25
390
0
  6
CONTINUOUS
 62
     7
100
AcDbLine
 10
99.875004
 20
143.524995
 30
0.0
 11
114.275031
 21
143.524995
 31
0.0
  0
LINE
  5
15F3
100
AcDbEntity
  8
11000_LEFT
370
    25
390
0
  6
CONTINUOUS
 62
     7
100
AcDbLine
 10
101.575004
 20
145.224994
 30
0.0
 11
107.475004
 21
145.224994
 31
0.0
  0
LINE
  5
15F4
100
AcDbEntity
  8
11000_LEFT
370
    25
390
0
  6
CONTINUOUS
 62
     7
100
AcDbLine
 10
115.375004
 20
146.024995
 30
0.0
 11
117.475004
 21
146.024995
 31
0.0
  0
LINE
  5
15F5
100
AcDbEntity
  8
11000_LEFT
370
    25
390
0
  6
CONTINUOUS
 62
     7
100
AcDbLine
 10
141.875004
 20
146.074995
 30
0.0
 11
145.875004
 21
146.074995
 31
0.0
  0
LINE
  5
15F6
100
AcDbEntity
  8
11000_LEFT
370
    25
390
0
  6
CONTINUOUS
 62
     7
100
AcDbLine
 10
101.575004
 20
146.624996
 30
0.0
 11
107.475004
 21
146.624996
 31
0.0
  0
LINE
  5
15F7
100
AcDbEntity
  8
11000_LEFT
370
    25
390
0
  6
CONTINUOUS
 62
     7
100
AcDbLine
 10
142.075003
 20
146.824995
 30
0.0
 11
145.475005
 21
146.824995
 31
0.0
  0
LINE
  5
15F8
100
AcDbEntity
  8
11000_LEFT
370
    25
390
0
  6
CONTINUOUS
 62
     7
100
AcDbLine
 10
99.875004
 20
147.624996
 30
0.0
 11
114.275007
 21
147.624996
 31
0.0
  0
LINE
  5
15F9
100
AcDbEntity
  8
11000_LEFT
370
    25
390
0
  6
CONTINUOUS
 62
     7
100
AcDbLine
 10
115.375004
 20
148.224994
 30
0.0
 11
117.475004
 21
148.224994
 31
0.0
  0
LINE
  5
15FA
100
AcDbEntity
  8
11000_LEFT
370
    25
390
0
  6
CONTINUOUS
 62
     7
100
AcDbLine
 10
115.375004
 20
149.424995
 30
0.0
 11
117.475004
 21
149.424995
 31
0.0
  0
LINE
  5
15FB
100
AcDbEntity
  8
11000_LEFT
370
    25
390
0
  6
CONTINUOUS
 62
     7
100
AcDbLine
 10
175.575003
 20
149.874996
 30
0.0
 11
187.875002
 21
149.874996
 31
0.0
  0
LINE
  5
15FC
100
AcDbEntity
  8
11000_LEFT
370
    25
390
0
  6
CONTINUOUS
 62
     7
100
AcDbLine
 10
184.275004
 20
150.464996
 30
0.0
 11
187.875002
 21
150.464996
 31
0.0
  0
LINE
  5
15FD
100
AcDbEntity
  8
11000_LEFT
370
    25
390
0
  6
CONTINUOUS
 62
     7
100
AcDbLine
 10
142.075003
 20
150.824995
 30
0.0
 11
145.475005
 21
150.824995
 31
0.0
  0
LINE
  5
15FE
100
AcDbEntity
  8
11000_LEFT
370
    25
390
0
  6
CONTINUOUS
 62
     7
100
AcDbLine
 10
141.875004
 20
151.074995
 30
0.0
 11
145.875004
 21
151.074995
 31
0.0
  0
LINE
  5
15FF
100
AcDbEntity
  8
11000_LEFT
370
    25
390
0
  6
CONTINUOUS
 62
     7
100
AcDbLine
 10
108.875004
 20
152.824995
 30
0.0
 11
114.275015
 21
152.824995
 31
0.0
  0
LINE
  5
1600
100
AcDbEntity
  8
11000_LEFT
370
    25
390
0
  6
CONTINUOUS
 62
     7
100
AcDbLine
 10
110.375004
 20
153.124996
 30
0.0
 11
114.275011
 21
153.124996
 31
0.0
  0
LINE
  5
1601
100
AcDbEntity
  8
11000_LEFT
370
    25
390
0
  6
CONTINUOUS
 62
     7
100
AcDbLine
 10
155.575003
 20
153.874996
 30
0.0
 11
175.575003
 21
153.874996
 31
0.0
  0
LINE
  5
1602
100
AcDbEntity
  8
11000_LEFT
370
    25
390
0
  6
CONTINUOUS
 62
     7
100
AcDbLine
 10
187.275004
 20
154.706529
 30
0.0
 11
187.882617
 21
154.706529
 31
0.0
  0
LINE
  5
1603
100
AcDbEntity
  8
11000_LEFT
370
    25
390
0
  6
CONTINUOUS
 62
     7
100
AcDbLine
 10
110.375004
 20
155.178995
 30
0.0
 11
114.275011
 21
155.178995
 31
0.0
  0
LINE
  5
1604
100
AcDbEntity
  8
11000_LEFT
370
    25
390
0
  6
CONTINUOUS
 62
     7
100
AcDbLine
 10
110.375004
 20
155.524995
 30
0.0
 11
114.275011
 21
155.524995
 31
0.0
  0
LINE
  5
1605
100
AcDbEntity
  8
11000_LEFT
370
    25
390
0
  6
CONTINUOUS
 62
     7
100
AcDbLine
 10
108.875004
 20
156.824995
 30
0.0
 11
110.375008
 21
156.824995
 31
0.0
  0
LINE
  5
1606
100
AcDbEntity
  8
11000_LEFT
370
    25
390
0
  6
CONTINUOUS
 62
     7
100
AcDbLine
 10
115.375004
 20
158.024995
 30
0.0
 11
117.475004
 21
158.024995
 31
0.0
  0
LINE
  5
1607
100
AcDbEntity
  8
11000_LEFT
370
    25
390
0
  6
CONTINUOUS
 62
     7
100
AcDbLine
 10
110.375004
 20
160.124995
 30
0.0
 11
114.275011
 21
160.124995
 31
0.0
  0
LINE
  5
1608
100
AcDbEntity
  8
11000_LEFT
370
    25
390
0
  6
CONTINUOUS
 62
     7
100
AcDbLine
 10
184.275004
 20
160.664995
 30
0.0
 11
184.275019
 21
160.664995
 31
0.0
  0
LINE
  5
1609
100
AcDbEntity
  8
11000_LEFT
370
    25
390
0
  6
CONTINUOUS
 62
     7
100
AcDbLine
 10
188.184954
 20
160.664995
 30
0.0
 11
188.425006
 21
160.664995
 31
0.0
  0
LINE
  5
160A
100
AcDbEntity
  8
11000_LEFT
370
    25
390
0
  6
CONTINUOUS
 62
     7
100
AcDbLine
 10
141.875004
 20
160.824995
 30
0.0
 11
145.875004
 21
160.824995
 31
0.0
  0
LINE
  5
160B
100
AcDbEntity
  8
11000_LEFT
370
    25
390
0
  6
CONTINUOUS
 62
     7
100
AcDbLine
 10
184.275004
 20
160.864995
 30
0.0
 11
184.275019
 21
160.864995
 31
0.0
  0
LINE
  5
160C
100
AcDbEntity
  8
11000_LEFT
370
    25
390
0
  6
CONTINUOUS
 62
     7
100
AcDbLine
 10
188.189959
 20
160.864995
 30
0.0
 11
188.425006
 21
160.864995
 31
0.0
  0
LINE
  5
160D
100
AcDbEntity
  8
11000_LEFT
370
    25
390
0
  6
CONTINUOUS
 62
     7
100
AcDbLine
 10
142.075003
 20
161.324995
 30
0.0
 11
145.475005
 21
161.324995
 31
0.0
  0
LINE
  5
160E
100
AcDbEntity
  8
11000_LEFT
370
    25
390
0
  6
CONTINUOUS
 62
     7
100
AcDbLine
 10
184.275004
 20
162.464995
 30
0.0
 11
184.275019
 21
162.464995
 31
0.0
  0
LINE
  5
160F
100
AcDbEntity
  8
11000_LEFT
370
    25
390
0
  6
CONTINUOUS
 62
     7
100
AcDbLine
 10
188.217967
 20
162.464995
 30
0.0
 11
188.425006
 21
162.464995
 31
0.0
  0
LINE
  5
1610
100
AcDbEntity
  8
11000_LEFT
370
    25
390
0
  6
CONTINUOUS
 62
     7
100
AcDbLine
 10
184.275004
 20
162.664995
 30
0.0
 11
184.275019
 21
162.664995
 31
0.0
  0
LINE
  5
1611
100
AcDbEntity
  8
11000_LEFT
370
    25
390
0
  6
CONTINUOUS
 62
     7
100
AcDbLine
 10
188.219966
 20
162.664995
 30
0.0
 11
188.425006
 21
162.664995
 31
0.0
  0
LINE
  5
1612
100
AcDbEntity
  8
11000_LEFT
370
    25
390
0
  6
CONTINUOUS
 62
     7
100
AcDbLine
 10
99.875004
 20
163.724995
 30
0.0
 11
114.275031
 21
163.724995
 31
0.0
  0
LINE
  5
1613
100
AcDbEntity
  8
11000_LEFT
370
    25
390
0
  6
CONTINUOUS
 62
     7
100
AcDbLine
 10
142.075003
 20
165.324995
 30
0.0
 11
145.475005
 21
165.324995
 31
0.0
  0
LINE
  5
1614
100
AcDbEntity
  8
11000_LEFT
370
    25
390
0
  6
CONTINUOUS
 62
     7
100
AcDbLine
 10
101.575004
 20
165.424995
 30
0.0
 11
107.475004
 21
165.424995
 31
0.0
  0
LINE
  5
1615
100
AcDbEntity
  8
11000_LEFT
370
    25
390
0
  6
CONTINUOUS
 62
     7
100
AcDbLine
 10
141.875004
 20
165.824995
 30
0.0
 11
145.875004
 21
165.824995
 31
0.0
  0
LINE
  5
1616
100
AcDbEntity
  8
11000_LEFT
370
    25
390
0
  6
CONTINUOUS
 62
     7
100
AcDbLine
 10
101.575004
 20
166.824995
 30
0.0
 11
107.475004
 21
166.824995
 31
0.0
  0
LINE
  5
1617
100
AcDbEntity
  8
11000_LEFT
370
    25
390
0
  6
CONTINUOUS
 62
     7
100
AcDbLine
 10
168.875002
 20
166.924995
 30
0.0
 11
172.575003
 21
166.924995
 31
0.0
  0
LINE
  5
1618
100
AcDbEntity
  8
11000_LEFT
370
    25
390
0
  6
CONTINUOUS
 62
     7
100
AcDbLine
 10
169.075003
 20
167.014995
 30
0.0
 11
172.375002
 21
167.014995
 31
0.0
  0
LINE
  5
1619
100
AcDbEntity
  8
11000_LEFT
370
    25
390
0
  6
CONTINUOUS
 62
     7
100
AcDbLine
 10
169.075003
 20
167.574995
 30
0.0
 11
172.375002
 21
167.574995
 31
0.0
  0
LINE
  5
161A
100
AcDbEntity
  8
11000_LEFT
370
    25
390
0
  6
CONTINUOUS
 62
     7
100
AcDbLine
 10
99.875004
 20
167.824995
 30
0.0
 11
114.275007
 21
167.824995
 31
0.0
  0
LINE
  5
161B
100
AcDbEntity
  8
11000_LEFT
370
    25
390
0
  6
CONTINUOUS
 62
     7
100
AcDbLine
 10
169.075003
 20
167.824995
 30
0.0
 11
172.375002
 21
167.824995
 31
0.0
  0
LINE
  5
161C
100
AcDbEntity
  8
11000_LEFT
370
    25
390
0
  6
CONTINUOUS
 62
     7
100
AcDbLine
 10
168.875002
 20
167.924995
 30
0.0
 11
172.575003
 21
167.924995
 31
0.0
  0
LINE
  5
161D
100
AcDbEntity
  8
11000_LEFT
370
    25
390
0
  6
CONTINUOUS
 62
     7
100
AcDbLine
 10
114.275004
 20
169.924995
 30
0.0
 11
117.475004
 21
169.924995
 31
0.0
  0
LINE
  5
161E
100
AcDbEntity
  8
11000_LEFT
370
    25
390
0
  6
CONTINUOUS
 62
     7
100
AcDbLine
 10
114.275004
 20
170.424995
 30
0.0
 11
117.475004
 21
170.424995
 31
0.0
  0
LINE
  5
161F
100
AcDbEntity
  8
11000_LEFT
370
    25
390
0
  6
CONTINUOUS
 62
     7
100
AcDbLine
 10
132.375004
 20
171.324995
 30
0.0
 11
137.475005
 21
171.324995
 31
0.0
  0
LINE
  5
1620
100
AcDbEntity
  8
11000_LEFT
370
    25
390
0
  6
CONTINUOUS
 62
     7
100
AcDbLine
 10
184.275004
 20
172.314995
 30
0.0
 11
187.318484
 21
172.314995
 31
0.0
  0
LINE
  5
1621
100
AcDbEntity
  8
11000_LEFT
370
    25
390
0
  6
CONTINUOUS
 62
     7
100
AcDbLine
 10
132.375004
 20
172.324995
 30
0.0
 11
184.275004
 21
172.324995
 31
0.0
  0
LINE
  5
1622
100
AcDbEntity
  8
11000_LEFT
370
    25
390
0
  6
CONTINUOUS
 62
     7
100
AcDbLine
 10
184.275004
 20
172.914995
 30
0.0
 11
187.318484
 21
172.914995
 31
0.0
  0
LINE
  5
1623
100
AcDbEntity
  8
11000_LEFT
370
    25
390
0
  6
CONTINUOUS
 62
     7
100
AcDbLine
 10
132.175004
 20
172.924995
 30
0.0
 11
184.275004
 21
172.924995
 31
0.0
  0
LINE
  5
1624
100
AcDbEntity
  8
11000_LEFT
370
    25
390
0
  6
CONTINUOUS
 62
     7
100
AcDbLine
 10
178.575007
 20
134.974994
 30
0.0
 11
186.286288
 21
135.990207
 31
0.0
  0
LINE
  5
1625
100
AcDbEntity
  8
11000_LEFT
370
    25
390
0
  6
CONTINUOUS
 62
     7
100
AcDbLine
 10
99.575004
 20
144.824995
 30
0.0
 11
99.875004
 21
144.884994
 31
0.0
  0
LINE
  5
1626
100
AcDbEntity
  8
11000_LEFT
370
    25
390
0
  6
CONTINUOUS
 62
     7
100
AcDbLine
 10
99.875004
 20
144.884994
 30
0.0
 11
101.575004
 21
145.224994
 31
0.0
  0
LINE
  5
1627
100
AcDbEntity
  8
11000_LEFT
370
    25
390
0
  6
CONTINUOUS
 62
     7
100
AcDbLine
 10
99.575004
 20
165.024995
 30
0.0
 11
101.575004
 21
165.424995
 31
0.0
  0
LINE
  5
1628
100
AcDbEntity
  8
11000_LEFT
370
    25
390
0
  6
CONTINUOUS
 62
     7
100
AcDbLine
 10
187.318484
 20
172.314995
 30
0.0
 11
187.358203
 21
172.357673
 31
0.0
  0
LINE
  5
1629
100
AcDbEntity
  8
11000_LEFT
370
    25
390
0
  6
CONTINUOUS
 62
     7
100
AcDbLine
 10
187.358203
 20
172.357673
 30
0.0
 11
187.397822
 21
172.400259
 31
0.0
  0
LINE
  5
162A
100
AcDbEntity
  8
11000_LEFT
370
    25
390
0
  6
CONTINUOUS
 62
     7
100
AcDbLine
 10
187.397822
 20
172.400259
 30
0.0
 11
187.43719
 21
172.44259
 31
0.0
  0
LINE
  5
162B
100
AcDbEntity
  8
11000_LEFT
370
    25
390
0
  6
CONTINUOUS
 62
     7
100
AcDbLine
 10
187.43719
 20
172.44259
 30
0.0
 11
187.476252
 21
172.484608
 31
0.0
  0
LINE
  5
162C
100
AcDbEntity
  8
11000_LEFT
370
    25
390
0
  6
CONTINUOUS
 62
     7
100
AcDbLine
 10
187.476252
 20
172.484608
 30
0.0
 11
187.51488
 21
172.526168
 31
0.0
  0
LINE
  5
162D
100
AcDbEntity
  8
11000_LEFT
370
    25
390
0
  6
CONTINUOUS
 62
     7
100
AcDbLine
 10
187.51488
 20
172.526168
 30
0.0
 11
187.552874
 21
172.567064
 31
0.0
  0
LINE
  5
162E
100
AcDbEntity
  8
11000_LEFT
370
    25
390
0
  6
CONTINUOUS
 62
     7
100
AcDbLine
 10
187.552874
 20
172.567064
 30
0.0
 11
187.590052
 21
172.607086
 31
0.0
  0
LINE
  5
162F
100
AcDbEntity
  8
11000_LEFT
370
    25
390
0
  6
CONTINUOUS
 62
     7
100
AcDbLine
 10
187.590052
 20
172.607086
 30
0.0
 11
187.626223
 21
172.646042
 31
0.0
  0
LINE
  5
1630
100
AcDbEntity
  8
11000_LEFT
370
    25
390
0
  6
CONTINUOUS
 62
     7
100
AcDbLine
 10
187.626223
 20
172.646042
 30
0.0
 11
187.66128
 21
172.683809
 31
0.0
  0
LINE
  5
1631
100
AcDbEntity
  8
11000_LEFT
370
    25
390
0
  6
CONTINUOUS
 62
     7
100
AcDbLine
 10
187.66128
 20
172.683809
 30
0.0
 11
187.694941
 21
172.720087
 31
0.0
  0
LINE
  5
1632
100
AcDbEntity
  8
11000_LEFT
370
    25
390
0
  6
CONTINUOUS
 62
     7
100
AcDbLine
 10
187.694941
 20
172.720087
 30
0.0
 11
187.726901
 21
172.754536
 31
0.0
  0
LINE
  5
1633
100
AcDbEntity
  8
11000_LEFT
370
    25
390
0
  6
CONTINUOUS
 62
     7
100
AcDbLine
 10
99.575004
 20
143.824995
 30
0.0
 11
99.575004
 21
147.324995
 31
0.0
  0
LINE
  5
1634
100
AcDbEntity
  8
11000_LEFT
370
    25
390
0
  6
CONTINUOUS
 62
     7
100
AcDbLine
 10
99.575004
 20
167.224995
 30
0.0
 11
99.575004
 21
167.524995
 31
0.0
  0
LINE
  5
1635
100
AcDbEntity
  8
11000_LEFT
370
    25
390
0
  6
CONTINUOUS
 62
     7
100
AcDbLine
 10
99.575004
 20
164.024995
 30
0.0
 11
99.575004
 21
165.024995
 31
0.0
  0
LINE
  5
1636
100
AcDbEntity
  8
11000_LEFT
370
    25
390
0
  6
CONTINUOUS
 62
     7
100
AcDbLine
 10
99.575004
 20
165.024995
 30
0.0
 11
99.575004
 21
167.224995
 31
0.0
  0
LINE
  5
1637
100
AcDbEntity
  8
11000_LEFT
370
    25
390
0
  6
CONTINUOUS
 62
     7
100
AcDbLine
 10
99.875004
 20
146.964996
 30
0.0
 11
99.875004
 21
147.624996
 31
0.0
  0
LINE
  5
1638
100
AcDbEntity
  8
11000_LEFT
370
    25
390
0
  6
CONTINUOUS
 62
     7
100
AcDbLine
 10
99.875004
 20
143.524995
 30
0.0
 11
99.875004
 21
144.884994
 31
0.0
  0
LINE
  5
1639
100
AcDbEntity
  8
11000_LEFT
370
    25
390
0
  6
CONTINUOUS
 62
     7
100
AcDbLine
 10
99.875004
 20
167.164995
 30
0.0
 11
99.875004
 21
167.824995
 31
0.0
  0
LINE
  5
163A
100
AcDbEntity
  8
11000_LEFT
370
    25
390
0
  6
CONTINUOUS
 62
     7
100
AcDbLine
 10
99.875004
 20
163.724995
 30
0.0
 11
99.875004
 21
165.084995
 31
0.0
  0
LINE
  5
163B
100
AcDbEntity
  8
11000_LEFT
370
    25
390
0
  6
CONTINUOUS
 62
     7
100
AcDbLine
 10
101.575004
 20
145.224994
 30
0.0
 11
101.575004
 21
146.624996
 31
0.0
  0
LINE
  5
163C
100
AcDbEntity
  8
11000_LEFT
370
    25
390
0
  6
CONTINUOUS
 62
     7
100
AcDbLine
 10
101.575004
 20
165.424995
 30
0.0
 11
101.575004
 21
166.824995
 31
0.0
  0
LINE
  5
163D
100
AcDbEntity
  8
11000_LEFT
370
    25
390
0
  6
CONTINUOUS
 62
     7
100
AcDbLine
 10
107.475004
 20
145.224994
 30
0.0
 11
107.475004
 21
146.624996
 31
0.0
  0
LINE
  5
163E
100
AcDbEntity
  8
11000_LEFT
370
    25
390
0
  6
CONTINUOUS
 62
     7
100
AcDbLine
 10
107.475004
 20
165.424995
 30
0.0
 11
107.475004
 21
166.824995
 31
0.0
  0
LINE
  5
163F
100
AcDbEntity
  8
11000_LEFT
370
    25
390
0
  6
CONTINUOUS
 62
     7
100
AcDbLine
 10
108.875004
 20
152.824995
 30
0.0
 11
108.875004
 21
156.824995
 31
0.0
  0
LINE
  5
1640
100
AcDbEntity
  8
11000_LEFT
370
    25
390
0
  6
CONTINUOUS
 62
     7
100
AcDbLine
 10
109.375004
 20
152.824995
 30
0.0
 11
109.375004
 21
156.824995
 31
0.0
  0
LINE
  5
1641
100
AcDbEntity
  8
11000_LEFT
370
    25
390
0
  6
CONTINUOUS
 62
     7
100
AcDbLine
 10
110.375004
 20
153.124996
 30
0.0
 11
110.375004
 21
160.124995
 31
0.0
  0
LINE
  5
1642
100
AcDbEntity
  8
11000_LEFT
370
    25
390
0
  6
CONTINUOUS
 62
     7
100
AcDbLine
 10
114.275004
 20
140.924995
 30
0.0
 11
114.275004
 21
170.424995
 31
0.0
  0
LINE
  5
1643
100
AcDbEntity
  8
11000_LEFT
370
    25
390
0
  6
CONTINUOUS
 62
     7
100
AcDbLine
 10
115.375004
 20
146.024995
 30
0.0
 11
115.375004
 21
148.224994
 31
0.0
  0
LINE
  5
1644
100
AcDbEntity
  8
11000_LEFT
370
    25
390
0
  6
CONTINUOUS
 62
     7
100
AcDbLine
 10
115.375004
 20
149.424995
 30
0.0
 11
115.375004
 21
158.024995
 31
0.0
  0
LINE
  5
1645
100
AcDbEntity
  8
11000_LEFT
370
    25
390
0
  6
CONTINUOUS
 62
     7
100
AcDbLine
 10
117.375004
 20
146.024995
 30
0.0
 11
117.375004
 21
148.224996
 31
0.0
  0
LINE
  5
1646
100
AcDbEntity
  8
11000_LEFT
370
    25
390
0
  6
CONTINUOUS
 62
     7
100
AcDbLine
 10
117.375004
 20
149.424997
 30
0.0
 11
117.375004
 21
158.024996
 31
0.0
  0
LINE
  5
1647
100
AcDbEntity
  8
11000_LEFT
370
    25
390
0
  6
CONTINUOUS
 62
     7
100
AcDbLine
 10
117.475004
 20
146.024995
 30
0.0
 11
117.475004
 21
148.224994
 31
0.0
  0
LINE
  5
1648
100
AcDbEntity
  8
11000_LEFT
370
    25
390
0
  6
CONTINUOUS
 62
     7
100
AcDbLine
 10
117.475004
 20
149.424995
 30
0.0
 11
117.475004
 21
158.024995
 31
0.0
  0
LINE
  5
1649
100
AcDbEntity
  8
11000_LEFT
370
    25
390
0
  6
CONTINUOUS
 62
     7
100
AcDbLine
 10
117.475004
 20
140.924995
 30
0.0
 11
117.475004
 21
141.424995
 31
0.0
  0
LINE
  5
164A
100
AcDbEntity
  8
11000_LEFT
370
    25
390
0
  6
CONTINUOUS
 62
     7
100
AcDbLine
 10
117.475004
 20
169.924995
 30
0.0
 11
117.475004
 21
170.424995
 31
0.0
  0
LINE
  5
164B
100
AcDbEntity
  8
11000_LEFT
370
    25
390
0
  6
CONTINUOUS
 62
     7
100
AcDbLine
 10
132.375004
 20
171.324995
 30
0.0
 11
132.375004
 21
172.924995
 31
0.0
  0
LINE
  5
164C
100
AcDbEntity
  8
11000_LEFT
370
    25
390
0
  6
CONTINUOUS
 62
     7
100
AcDbLine
 10
137.475005
 20
138.424995
 30
0.0
 11
137.475005
 21
171.324995
 31
0.0
  0
LINE
  5
164D
100
AcDbEntity
  8
11000_LEFT
370
    25
390
0
  6
CONTINUOUS
 62
     7
100
AcDbLine
 10
141.875004
 20
160.824995
 30
0.0
 11
141.875004
 21
165.824995
 31
0.0
  0
LINE
  5
164E
100
AcDbEntity
  8
11000_LEFT
370
    25
390
0
  6
CONTINUOUS
 62
     7
100
AcDbLine
 10
141.875004
 20
146.074995
 30
0.0
 11
141.875004
 21
151.074995
 31
0.0
  0
LINE
  5
164F
100
AcDbEntity
  8
11000_LEFT
370
    25
390
0
  6
CONTINUOUS
 62
     7
100
AcDbLine
 10
142.075003
 20
146.824995
 30
0.0
 11
142.075003
 21
150.824995
 31
0.0
  0
LINE
  5
1650
100
AcDbEntity
  8
11000_LEFT
370
    25
390
0
  6
CONTINUOUS
 62
     7
100
AcDbLine
 10
142.075003
 20
161.324995
 30
0.0
 11
142.075003
 21
165.324995
 31
0.0
  0
LINE
  5
1651
100
AcDbEntity
  8
11000_LEFT
370
    25
390
0
  6
CONTINUOUS
 62
     7
100
AcDbLine
 10
142.975005
 20
146.824995
 30
0.0
 11
142.975005
 21
150.824995
 31
0.0
  0
LINE
  5
1652
100
AcDbEntity
  8
11000_LEFT
370
    25
390
0
  6
CONTINUOUS
 62
     7
100
AcDbLine
 10
142.975005
 20
161.324995
 30
0.0
 11
142.975005
 21
165.324995
 31
0.0
  0
LINE
  5
1653
100
AcDbEntity
  8
11000_LEFT
370
    25
390
0
  6
CONTINUOUS
 62
     7
100
AcDbLine
 10
145.475005
 20
146.824995
 30
0.0
 11
145.475005
 21
150.824995
 31
0.0
  0
LINE
  5
1654
100
AcDbEntity
  8
11000_LEFT
370
    25
390
0
  6
CONTINUOUS
 62
     7
100
AcDbLine
 10
145.475005
 20
161.324995
 30
0.0
 11
145.475005
 21
165.324995
 31
0.0
  0
LINE
  5
1655
100
AcDbEntity
  8
11000_LEFT
370
    25
390
0
  6
CONTINUOUS
 62
     7
100
AcDbLine
 10
145.875004
 20
160.824995
 30
0.0
 11
145.875004
 21
165.824995
 31
0.0
  0
LINE
  5
1656
100
AcDbEntity
  8
11000_LEFT
370
    25
390
0
  6
CONTINUOUS
 62
     7
100
AcDbLine
 10
145.875004
 20
146.074995
 30
0.0
 11
145.875004
 21
151.074995
 31
0.0
  0
LINE
  5
1657
100
AcDbEntity
  8
11000_LEFT
370
    25
390
0
  6
CONTINUOUS
 62
     7
100
AcDbLine
 10
155.575003
 20
138.324997
 30
0.0
 11
155.575003
 21
153.874996
 31
0.0
  0
LINE
  5
1658
100
AcDbEntity
  8
11000_LEFT
370
    25
390
0
  6
CONTINUOUS
 62
     7
100
AcDbLine
 10
159.075003
 20
136.782657
 30
0.0
 11
159.075003
 21
138.324997
 31
0.0
  0
LINE
  5
1659
100
AcDbEntity
  8
11000_LEFT
370
    25
390
0
  6
CONTINUOUS
 62
     7
100
AcDbLine
 10
168.875002
 20
166.924995
 30
0.0
 11
168.875002
 21
167.924995
 31
0.0
  0
LINE
  5
165A
100
AcDbEntity
  8
11000_LEFT
370
    25
390
0
  6
CONTINUOUS
 62
     7
100
AcDbLine
 10
169.075003
 20
167.014995
 30
0.0
 11
169.075003
 21
167.824995
 31
0.0
  0
LINE
  5
165B
100
AcDbEntity
  8
11000_LEFT
370
    25
390
0
  6
CONTINUOUS
 62
     7
100
AcDbLine
 10
172.375002
 20
167.014995
 30
0.0
 11
172.375002
 21
167.824995
 31
0.0
  0
LINE
  5
165C
100
AcDbEntity
  8
11000_LEFT
370
    25
390
0
  6
CONTINUOUS
 62
     7
100
AcDbLine
 10
172.575003
 20
166.924995
 30
0.0
 11
172.575003
 21
167.924995
 31
0.0
  0
LINE
  5
165D
100
AcDbEntity
  8
11000_LEFT
370
    25
390
0
  6
CONTINUOUS
 62
     7
100
AcDbLine
 10
175.575003
 20
149.874996
 30
0.0
 11
175.575003
 21
153.874996
 31
0.0
  0
LINE
  5
165E
100
AcDbEntity
  8
11000_LEFT
370
    25
390
0
  6
CONTINUOUS
 62
     7
100
AcDbLine
 10
184.275004
 20
149.874996
 30
0.0
 11
184.275004
 21
172.924995
 31
0.0
  0
LINE
  5
165F
100
AcDbEntity
  8
11000_LEFT
370
    25
390
0
  6
CONTINUOUS
 62
     7
100
AcDbLine
 10
187.075007
 20
135.574997
 30
0.0
 11
187.075007
 21
149.874996
 31
0.0
  0
LINE
  5
1660
100
AcDbEntity
  8
11000_LEFT
370
    25
390
0
  6
CONTINUOUS
 62
     7
100
AcDbLine
 10
187.275004
 20
149.874996
 30
0.0
 11
187.275004
 21
154.706529
 31
0.0
  0
LINE
  5
1661
100
AcDbEntity
  8
11000_LEFT
370
    25
390
0
  6
CONTINUOUS
 62
     7
100
AcDbLine
 10
187.875002
 20
134.074997
 30
0.0
 11
187.875002
 21
149.874996
 31
0.0
  0
LINE
  5
1662
100
AcDbEntity
  8
11000_LEFT
370
    25
390
0
  6
CONTINUOUS
 62
     7
100
AcDbLine
 10
187.875002
 20
150.464996
 30
0.0
 11
187.875002
 21
154.706529
 31
0.0
  0
LINE
  5
1663
100
AcDbEntity
  8
11000_LEFT
370
    25
390
0
  6
CONTINUOUS
 62
     7
100
AcDbLine
 10
188.425006
 20
160.664995
 30
0.0
 11
188.425006
 21
162.664995
 31
0.0
  0
ARC
  5
1664
100
AcDbEntity
  8
11000_LEFT
370
    25
390
0
  6
CONTINUOUS
 62
     7
100
AcDbCircle
 10
68.225004
 20
163.764995
 30
0.0
 40
119.4
100
AcDbArc
 50
355.648986
 51
4.106353
  0
ARC
  5
1665
100
AcDbEntity
  8
11000_LEFT
370
    25
390
0
  6
CONTINUOUS
 62
     7
100
AcDbCircle
 10
68.225004
 20
163.764995
 30
0.0
 40
120.000001
100
AcDbArc
 50
355.670783
 51
4.106353
  0
ARC
  5
1666
100
AcDbEntity
  8
11000_LEFT
370
    25
390
0
  6
CONTINUOUS
 62
     7
100
AcDbCircle
 10
99.875004
 20
143.824995
 30
0.0
 40
0.3
100
AcDbArc
 50
180.000073
 51
270.000073
  0
ARC
  5
1667
100
AcDbEntity
  8
11000_LEFT
370
    25
390
0
  6
CONTINUOUS
 62
     7
100
AcDbCircle
 10
99.875004
 20
147.324995
 30
0.0
 40
0.3
100
AcDbArc
 50
89.999927
 51
180.000073
  0
ARC
  5
1668
100
AcDbEntity
  8
11000_LEFT
370
    25
390
0
  6
CONTINUOUS
 62
     7
100
AcDbCircle
 10
99.875004
 20
164.024995
 30
0.0
 40
0.3
100
AcDbArc
 50
180.0
 51
270.000073
  0
ARC
  5
1669
100
AcDbEntity
  8
11000_LEFT
370
    25
390
0
  6
CONTINUOUS
 62
     7
100
AcDbCircle
 10
99.875004
 20
167.524995
 30
0.0
 40
0.3
100
AcDbArc
 50
89.999927
 51
180.0
  0
ARC
  5
166A
100
AcDbEntity
  8
11000_LEFT
370
    25
390
0
  6
CONTINUOUS
 62
     7
100
AcDbCircle
 10
132.174999
 20
128.457013
 30
0.0
 40
44.467981
100
AcDbArc
 50
106.937441
 51
109.303668
  0
ARC
  5
166B
100
AcDbEntity
  8
11000_LEFT
370
    25
390
0
  6
CONTINUOUS
 62
     7
100
AcDbCircle
 10
132.175003
 20
128.456998
 30
0.0
 40
44.467997
100
AcDbArc
 50
92.419632
 51
106.937442
  0
ARC
  5
166C
100
AcDbEntity
  8
11000_LEFT
370
    25
390
0
  6
CONTINUOUS
 62
     7
100
AcDbCircle
 10
132.175003
 20
128.457014
 30
0.0
 40
44.467981
100
AcDbArc
 50
90.0
 51
92.419633
  0
ARC
  5
166D
100
AcDbEntity
  8
11000_LEFT
370
    25
390
0
  6
CONTINUOUS
 62
     7
100
AcDbCircle
 10
132.175004
 20
182.892975
 30
0.0
 40
44.46798
100
AcDbArc
 50
267.580351
 51
270.000001
  0
ARC
  5
166E
100
AcDbEntity
  8
11000_LEFT
370
    25
390
0
  6
CONTINUOUS
 62
     7
100
AcDbCircle
 10
132.175005
 20
182.893002
 30
0.0
 40
44.468007
100
AcDbArc
 50
253.062564
 51
267.580351
  0
ARC
  5
166F
100
AcDbEntity
  8
11000_LEFT
370
    25
390
0
  6
CONTINUOUS
 62
     7
100
AcDbCircle
 10
132.175012
 20
182.893022
 30
0.0
 40
44.468028
100
AcDbArc
 50
250.696335
 51
253.062563
  0
ARC
  5
1670
100
AcDbEntity
  8
11000_LEFT
370
    25
390
0
  6
CONTINUOUS
 62
     7
100
AcDbCircle
 10
159.275004
 20
136.782656
 30
0.0
 40
0.2
100
AcDbArc
 50
179.999613
 51
260.000246
  0
ARC
  5
1671
100
AcDbEntity
  8
11000_LEFT
370
    25
390
0
  6
CONTINUOUS
 62
     7
100
AcDbCircle
 10
186.325446
 20
135.692773
 30
0.0
 40
0.3
100
AcDbArc
 50
19.999975
 51
97.49999
  0
ARC
  5
1672
100
AcDbEntity
  8
11000_LEFT
370
    25
390
0
  6
CONTINUOUS
 62
     7
100
AcDbCircle
 10
187.275004
 20
150.464995
 30
0.0
 40
0.6
100
AcDbArc
 50
280.475136
 51
0.000087
  0
ARC
  5
1673
100
AcDbEntity
  8
11000_LEFT
370
    25
390
0
  6
CONTINUOUS
 62
     7
100
AcDbCircle
 10
187.318486
 20
172.314995
 30
0.0
 40
0.6
100
AcDbArc
 50
47.102252
 51
90.000217
  0
LINE
  5
1674
100
AcDbEntity
  8
11100_LEFT_DIM
370
    13
390
0
  6
CONTINUOUS
 62
     7
100
AcDbLine
 10
114.275004
 20
170.424995
 30
0.0
 11
114.275004
 21
183.925005
 31
0.0
  0
LINE
  5
1675
100
AcDbEntity
  8
11100_LEFT_DIM
370
    13
390
0
  6
CONTINUOUS
 62
     7
100
AcDbLine
 10
188.425004
 20
183.925005
 30
0.0
 11
188.425004
 21
162.674995
 31
0.0
  0
LINE
  5
1676
100
AcDbEntity
  8
11100_LEFT_DIM
370
    13
390
0
  6
CONTINUOUS
 62
     7
100
AcDbLine
 10
114.275004
 20
182.925005
 30
0.0
 11
188.425004
 21
182.925005
 31
0.0
  0
TEXT
  5
1677
100
AcDbEntity
  8
11100_LEFT_DIM
370
    13
390
0
  6
CONTINUOUS
 62
     7
100
AcDbText
 10
148.350004
 20
183.925005
 30
0.0
 40
2.0
  1
74.2
 72
     1
 11
151.350004
 21
183.925005
 31
0.0
100
AcDbText
  0
LINE
  5
1678
100
AcDbEntity
  8
11100_LEFT_DIM
370
    13
390
0
  6
CONTINUOUS
 62
     7
100
AcDbLine
 10
99.575004
 20
167.524995
 30
0.0
 11
99.575004
 21
190.925005
 31
0.0
  0
LINE
  5
1679
100
AcDbEntity
  8
11100_LEFT_DIM
370
    13
390
0
  6
CONTINUOUS
 62
     7
100
AcDbLine
 10
188.425004
 20
190.925005
 30
0.0
 11
188.425004
 21
162.674995
 31
0.0
  0
LINE
  5
167A
100
AcDbEntity
  8
11100_LEFT_DIM
370
    13
390
0
  6
CONTINUOUS
 62
     7
100
AcDbLine
 10
99.575004
 20
189.925005
 30
0.0
 11
188.425004
 21
189.925005
 31
0.0
  0
TEXT
  5
167B
100
AcDbEntity
  8
11100_LEFT_DIM
370
    13
390
0
  6
CONTINUOUS
 62
     7
100
AcDbText
 10
141.000004
 20
190.925005
 30
0.0
 40
2.0
  1
88.9
 72
     1
 11
144.000004
 21
190.925005
 31
0.0
100
AcDbText
  0
SOLID
  5
167C
100
AcDbEntity
  8
11100_LEFT_DIM
370
    13
390
0
  6
CONTINUOUS
 62
     7
100
AcDbTrace
 10
118.275004
 20
183.451615
 30
0.0
 11
114.275004
 21
182.925005
 31
0.0
 12
118.275004
 22
182.398395
 32
0.0
 13
114.275004
 23
182.925005
 33
0.0
  0
SOLID
  5
167D
100
AcDbEntity
  8
11100_LEFT_DIM
370
    13
390
0
  6
CONTINUOUS
 62
     7
100
AcDbTrace
 10
184.425004
 20
182.398395
 30
0.0
 11
188.425004
 21
182.925005
 31
0.0
 12
184.425004
 22
183.451615
 32
0.0
 13
188.425004
 23
182.925005
 33
0.0
  0
SOLID
  5
167E
100
AcDbEntity
  8
11100_LEFT_DIM
370
    13
390
0
  6
CONTINUOUS
 62
     7
100
AcDbTrace
 10
103.575004
 20
190.451615
 30
0.0
 11
99.575004
 21
189.925005
 31
0.0
 12
103.575004
 22
189.398395
 32
0.0
 13
99.575004
 23
189.925005
 33
0.0
  0
SOLID
  5
167F
100
AcDbEntity
  8
11100_LEFT_DIM
370
    13
390
0
  6
CONTINUOUS
 62
     7
100
AcDbTrace
 10
184.425004
 20
189.398395
 30
0.0
 11
188.425004
 21
189.925005
 31
0.0
 12
184.425004
 22
190.451615
 32
0.0
 13
188.425004
 23
189.925005
 33
0.0
  0
LINE
  5
1680
100
AcDbEntity
  8
90000_FRAME
370
    13
  6
CONTINUOUS
 62
     7
100
AcDbLine
 10
4.999966
 20
4.999976
 30
0.0
 11
4.999966
 21
291.999976
 31
0.0
  0
LINE
  5
1681
100
AcDbEntity
  8
91000_TIP
370
    13
  6
CONTINUOUS
 62
     7
100
AcDbLine
 10
36.379427
 20
21.210067
 30
0.0
 11
46.379426
 21
23.710067
 31
0.0
  0
LINE
  5
1682
100
AcDbEntity
  8
91000_TIP
370
    13
  6
CONTINUOUS
 62
     7
100
AcDbLine
 10
35.099916
 20
18.710067
 30
0.0
 11
58.701905
 21
18.710067
 31
0.0
  0
LINE
  5
1683
100
AcDbEntity
  8
91000_TIP
370
    13
  6
CONTINUOUS
 62
     7
100
AcDbLine
 10
36.379427
 20
16.210068
 30
0.0
 11
46.379426
 21
13.710068
 31
0.0
  0
LINE
  5
1684
100
AcDbEntity
  8
91000_TIP
370
    13
  6
CONTINUOUS
 62
     7
100
AcDbLine
 10
36.379427
 20
21.210067
 30
0.0
 11
36.379427
 21
16.210068
 31
0.0
  0
LINE
  5
1685
100
AcDbEntity
  8
91000_TIP
370
    13
  6
CONTINUOUS
 62
     7
100
AcDbLine
 10
46.379426
 20
23.710067
 30
0.0
 11
46.379426
 21
13.710068
 31
0.0
  0
LINE
  5
1686
100
AcDbEntity
  8
91000_TIP
370
    13
  6
CONTINUOUS
 62
     7
100
AcDbLine
 10
52.879426
 20
12.988586
 30
0.0
 11
52.879426
 21
24.271972
 31
0.0
  0
CIRCLE
  5
1687
100
AcDbEntity
  8
91000_TIP
370
    13
  6
CONTINUOUS
 62
     7
100
AcDbCircle
 10
52.879426
 20
18.710067
 30
0.0
 40
5.0
  0
CIRCLE
  5
1688
100
AcDbEntity
  8
91000_TIP
370
    13
  6
CONTINUOUS
 62
     7
100
AcDbCircle
 10
52.879426
 20
18.710067
 30
0.0
 40
2.5
  0
TEXT
  5
1689
100
AcDbEntity
  8
90000_FRAME
370
    13
  6
CONTINUOUS
 62
     7
100
AcDbText
 10
65.559506
 20
29.777681
 30
0.0
 40
2.2
  1
All dimensions are in millimeters (mm)
 41
0.961374
100
AcDbText
  0
TEXT
  5
168A
100
AcDbEntity
  8
90000_FRAME
370
    13
  6
CONTINUOUS
 62
     7
100
AcDbText
 10
65.559506
 20
32.906703
 30
0.0
 40
2.2
  1
Alle Bemassungswerte sind in Millimeter (mm) angegeben.
 41
0.825144
100
AcDbText
  0
LINE
  5
168B
100
AcDbEntity
  8
90000_FRAME
370
    13
  6
CONTINUOUS
 62
     7
100
AcDbLine
 10
204.999966
 20
4.999976
 30
0.0
 11
204.999966
 21
291.999976
 31
0.0
  0
LINE
  5
168C
100
AcDbEntity
  8
90000_FRAME
370
    13
  6
CONTINUOUS
 62
     7
100
AcDbLine
 10
204.999966
 20
4.999976
 30
0.0
 11
4.999966
 21
4.999976
 31
0.0
  0
TEXT
  5
168D
100
AcDbEntity
  8
90000_FRAME
370
    13
  6
CONTINUOUS
 62
     7
100
AcDbText
 10
116.448049
 20
22.703118
 30
0.0
 40
3.0
  1
3RA2832-2DH10
 41
0.784213
100
AcDbText
  0
TEXT
  5
168E
100
AcDbEntity
  8
90000_FRAME
370
    13
  6
CONTINUOUS
 62
     7
100
AcDbText
 10
158.159966
 20
11.899976
 30
0.0
 40
2.2
  1
Massstab/Scale: 1:1
 41
0.9
100
AcDbText
  0
TEXT
  5
168F
100
AcDbEntity
  8
90000_FRAME
370
    13
  6
CONTINUOUS
 62
     7
100
AcDbText
 10
116.295894
 20
11.899976
 30
0.0
 40
2.2
  1
Format/Size: DIN A4
 41
0.803258
100
AcDbText
  0
LINE
  5
1690
100
AcDbEntity
  8
90000_FRAME
370
    13
  6
CONTINUOUS
 62
     7
100
AcDbLine
 10
199.999966
 20
9.999976
 30
0.0
 11
199.999966
 21
27.999976
 31
0.0
  0
LINE
  5
1691
100
AcDbEntity
  8
90000_FRAME
370
    13
  6
CONTINUOUS
 62
     7
100
AcDbLine
 10
157.499966
 20
9.999976
 30
0.0
 11
157.499966
 21
15.999976
 31
0.0
  0
LINE
  5
1692
100
AcDbEntity
  8
90000_FRAME
370
    13
  6
CONTINUOUS
 62
     7
100
AcDbLine
 10
114.999966
 20
9.999976
 30
0.0
 11
114.999966
 21
27.999976
 31
0.0
  0
LINE
  5
1693
100
AcDbEntity
  8
90000_FRAME
370
    13
  6
CONTINUOUS
 62
     7
100
AcDbLine
 10
64.999966
 20
27.999976
 30
0.0
 11
199.999966
 21
27.999976
 31
0.0
  0
LINE
  5
1694
100
AcDbEntity
  8
90000_FRAME
370
    13
  6
CONTINUOUS
 62
     7
100
AcDbLine
 10
114.999966
 20
15.999976
 30
0.0
 11
199.999966
 21
15.999976
 31
0.0
  0
LINE
  5
1695
100
AcDbEntity
  8
90000_FRAME
370
    13
  6
CONTINUOUS
 62
     7
100
AcDbLine
 10
64.999966
 20
9.999976
 30
0.0
 11
64.999966
 21
27.999976
 31
0.0
  0
LINE
  5
1696
100
AcDbEntity
  8
90000_FRAME
370
    13
  6
CONTINUOUS
 62
     7
100
AcDbLine
 10
64.999966
 20
9.999976
 30
0.0
 11
199.999966
 21
9.999976
 31
0.0
  0
LINE
  5
1697
100
AcDbEntity
  8
90000_FRAME
370
    13
  6
CONTINUOUS
 62
     7
100
AcDbLine
 10
79.186166
 20
21.414524
 30
0.0
 11
79.186166
 21
16.661255
 31
0.0
  0
LINE
  5
1698
100
AcDbEntity
  8
90000_FRAME
370
    13
  6
CONTINUOUS
 62
     7
100
AcDbLine
 10
80.612147
 20
21.414524
 30
0.0
 11
80.612147
 21
16.661255
 31
0.0
  0
LINE
  5
1699
100
AcDbEntity
  8
90000_FRAME
370
    13
  6
CONTINUOUS
 62
     7
100
AcDbLine
 10
79.186166
 20
16.661255
 30
0.0
 11
80.612147
 21
16.661255
 31
0.0
  0
LINE
  5
169A
100
AcDbEntity
  8
90000_FRAME
370
    13
  6
CONTINUOUS
 62
     7
100
AcDbLine
 10
79.186166
 20
21.414524
 30
0.0
 11
80.612147
 21
21.414524
 31
0.0
  0
LINE
  5
169B
100
AcDbEntity
  8
90000_FRAME
370
    13
  6
CONTINUOUS
 62
     7
100
AcDbLine
 10
81.705399
 20
21.414524
 30
0.0
 11
81.705399
 21
16.661255
 31
0.0
  0
LINE
  5
169C
100
AcDbEntity
  8
90000_FRAME
370
    13
  6
CONTINUOUS
 62
     7
100
AcDbLine
 10
81.705399
 20
16.661255
 30
0.0
 11
85.270351
 21
16.661255
 31
0.0
  0
LINE
  5
169D
100
AcDbEntity
  8
90000_FRAME
370
    13
  6
CONTINUOUS
 62
     7
100
AcDbLine
 10
85.270351
 20
17.564376
 30
0.0
 11
83.083847
 21
17.564376
 31
0.0
  0
LINE
  5
169E
100
AcDbEntity
  8
90000_FRAME
370
    13
  6
CONTINUOUS
 62
     7
100
AcDbLine
 10
85.270351
 20
17.564376
 30
0.0
 11
85.270351
 21
16.661255
 31
0.0
  0
LINE
  5
169F
100
AcDbEntity
  8
90000_FRAME
370
    13
  6
CONTINUOUS
 62
     7
100
AcDbLine
 10
85.222818
 20
21.414524
 30
0.0
 11
81.705399
 21
21.414524
 31
0.0
  0
LINE
  5
16A0
100
AcDbEntity
  8
90000_FRAME
370
    13
  6
CONTINUOUS
 62
     7
100
AcDbLine
 10
85.222818
 20
20.53517
 30
0.0
 11
83.083847
 21
20.53517
 31
0.0
  0
LINE
  5
16A1
100
AcDbEntity
  8
90000_FRAME
370
    13
  6
CONTINUOUS
 62
     7
100
AcDbLine
 10
85.222818
 20
21.414524
 30
0.0
 11
85.222818
 21
20.53517
 31
0.0
  0
LINE
  5
16A2
100
AcDbEntity
  8
90000_FRAME
370
    13
  6
CONTINUOUS
 62
     7
100
AcDbLine
 10
84.937622
 20
18.681395
 30
0.0
 11
83.083847
 21
18.681395
 31
0.0
  0
LINE
  5
16A3
100
AcDbEntity
  8
90000_FRAME
370
    13
  6
CONTINUOUS
 62
     7
100
AcDbLine
 10
84.937622
 20
19.465684
 30
0.0
 11
84.937622
 21
18.681395
 31
0.0
  0
LINE
  5
16A4
100
AcDbEntity
  8
90000_FRAME
370
    13
  6
CONTINUOUS
 62
     7
100
AcDbLine
 10
84.937622
 20
19.465684
 30
0.0
 11
83.083847
 21
19.465684
 31
0.0
  0
LINE
  5
16A5
100
AcDbEntity
  8
90000_FRAME
370
    13
  6
CONTINUOUS
 62
     7
100
AcDbLine
 10
83.083847
 20
20.53517
 30
0.0
 11
83.083847
 21
19.465684
 31
0.0
  0
LINE
  5
16A6
100
AcDbEntity
  8
90000_FRAME
370
    13
  6
CONTINUOUS
 62
     7
100
AcDbLine
 10
83.083847
 20
18.681395
 30
0.0
 11
83.083847
 21
17.564376
 31
0.0
  0
LINE
  5
16A7
100
AcDbEntity
  8
90000_FRAME
370
    13
  6
CONTINUOUS
 62
     7
100
AcDbLine
 10
86.078406
 20
16.661255
 30
0.0
 11
86.078406
 21
21.414524
 31
0.0
  0
LINE
  5
16A8
100
AcDbEntity
  8
90000_FRAME
370
    13
  6
CONTINUOUS
 62
     7
100
AcDbLine
 10
86.078406
 20
16.661255
 30
0.0
 11
87.02906
 21
16.661255
 31
0.0
  0
LINE
  5
16A9
100
AcDbEntity
  8
90000_FRAME
370
    13
  6
CONTINUOUS
 62
     7
100
AcDbLine
 10
91.924927
 20
21.414524
 30
0.0
 11
91.924927
 21
16.661255
 31
0.0
  0
LINE
  5
16AA
100
AcDbEntity
  8
90000_FRAME
370
    13
  6
CONTINUOUS
 62
     7
100
AcDbLine
 10
91.924927
 20
16.661255
 30
0.0
 11
90.546479
 21
16.661255
 31
0.0
  0
LINE
  5
16AB
100
AcDbEntity
  8
90000_FRAME
370
    13
  6
CONTINUOUS
 62
     7
100
AcDbLine
 10
88.359976
 20
16.613723
 30
0.0
 11
89.215564
 21
16.613723
 31
0.0
  0
LINE
  5
16AC
100
AcDbEntity
  8
90000_FRAME
370
    13
  6
CONTINUOUS
 62
     7
100
AcDbLine
 10
88.359976
 20
16.613723
 30
0.0
 11
87.02906
 21
19.703348
 31
0.0
  0
LINE
  5
16AD
100
AcDbEntity
  8
90000_FRAME
370
    13
  6
CONTINUOUS
 62
     7
100
AcDbLine
 10
87.02906
 20
16.661255
 30
0.0
 11
87.02906
 21
19.703348
 31
0.0
  0
LINE
  5
16AE
100
AcDbEntity
  8
90000_FRAME
370
    13
  6
CONTINUOUS
 62
     7
100
AcDbLine
 10
90.546479
 20
19.75088
 30
0.0
 11
89.215564
 21
16.613723
 31
0.0
  0
LINE
  5
16AF
100
AcDbEntity
  8
90000_FRAME
370
    13
  6
CONTINUOUS
 62
     7
100
AcDbLine
 10
87.789583
 20
21.414524
 30
0.0
 11
86.078406
 21
21.414524
 31
0.0
  0
LINE
  5
16B0
100
AcDbEntity
  8
90000_FRAME
370
    13
  6
CONTINUOUS
 62
     7
100
AcDbLine
 10
91.924927
 20
21.414524
 30
0.0
 11
90.213751
 21
21.414524
 31
0.0
  0
LINE
  5
16B1
100
AcDbEntity
  8
90000_FRAME
370
    13
  6
CONTINUOUS
 62
     7
100
AcDbLine
 10
87.789583
 20
21.414524
 30
0.0
 11
89.025433
 21
18.51503
 31
0.0
  0
LINE
  5
16B2
100
AcDbEntity
  8
90000_FRAME
370
    13
  6
CONTINUOUS
 62
     7
100
AcDbLine
 10
90.213751
 20
21.414524
 30
0.0
 11
89.025433
 21
18.51503
 31
0.0
  0
LINE
  5
16B3
100
AcDbEntity
  8
90000_FRAME
370
    13
  6
CONTINUOUS
 62
     7
100
AcDbLine
 10
90.546479
 20
19.75088
 30
0.0
 11
90.546479
 21
16.661255
 31
0.0
  0
LINE
  5
16B4
100
AcDbEntity
  8
90000_FRAME
370
    13
  6
CONTINUOUS
 62
     7
100
AcDbLine
 10
93.018179
 20
21.414524
 30
0.0
 11
93.018179
 21
16.661255
 31
0.0
  0
LINE
  5
16B5
100
AcDbEntity
  8
90000_FRAME
370
    13
  6
CONTINUOUS
 62
     7
100
AcDbLine
 10
93.018179
 20
16.661255
 30
0.0
 11
96.583131
 21
16.661255
 31
0.0
  0
LINE
  5
16B6
100
AcDbEntity
  8
90000_FRAME
370
    13
  6
CONTINUOUS
 62
     7
100
AcDbLine
 10
96.583131
 20
17.564376
 30
0.0
 11
94.396627
 21
17.564376
 31
0.0
  0
LINE
  5
16B7
100
AcDbEntity
  8
90000_FRAME
370
    13
  6
CONTINUOUS
 62
     7
100
AcDbLine
 10
96.583131
 20
17.564376
 30
0.0
 11
96.583131
 21
16.661255
 31
0.0
  0
LINE
  5
16B8
100
AcDbEntity
  8
90000_FRAME
370
    13
  6
CONTINUOUS
 62
     7
100
AcDbLine
 10
96.535598
 20
21.414524
 30
0.0
 11
93.018179
 21
21.414524
 31
0.0
  0
LINE
  5
16B9
100
AcDbEntity
  8
90000_FRAME
370
    13
  6
CONTINUOUS
 62
     7
100
AcDbLine
 10
96.535598
 20
20.53517
 30
0.0
 11
94.396627
 21
20.53517
 31
0.0
  0
LINE
  5
16BA
100
AcDbEntity
  8
90000_FRAME
370
    13
  6
CONTINUOUS
 62
     7
100
AcDbLine
 10
96.535598
 20
21.414524
 30
0.0
 11
96.535598
 21
20.53517
 31
0.0
  0
LINE
  5
16BB
100
AcDbEntity
  8
90000_FRAME
370
    13
  6
CONTINUOUS
 62
     7
100
AcDbLine
 10
96.250402
 20
18.681395
 30
0.0
 11
94.396627
 21
18.681395
 31
0.0
  0
LINE
  5
16BC
100
AcDbEntity
  8
90000_FRAME
370
    13
  6
CONTINUOUS
 62
     7
100
AcDbLine
 10
96.250402
 20
19.465684
 30
0.0
 11
96.250402
 21
18.681395
 31
0.0
  0
LINE
  5
16BD
100
AcDbEntity
  8
90000_FRAME
370
    13
  6
CONTINUOUS
 62
     7
100
AcDbLine
 10
96.250402
 20
19.465684
 30
0.0
 11
94.396627
 21
19.465684
 31
0.0
  0
LINE
  5
16BE
100
AcDbEntity
  8
90000_FRAME
370
    13
  6
CONTINUOUS
 62
     7
100
AcDbLine
 10
94.396627
 20
20.53517
 30
0.0
 11
94.396627
 21
19.465684
 31
0.0
  0
LINE
  5
16BF
100
AcDbEntity
  8
90000_FRAME
370
    13
  6
CONTINUOUS
 62
     7
100
AcDbLine
 10
94.396627
 20
18.681395
 30
0.0
 11
94.396627
 21
17.564376
 31
0.0
  0
LINE
  5
16C0
100
AcDbEntity
  8
90000_FRAME
370
    13
  6
CONTINUOUS
 62
     7
100
AcDbLine
 10
97.367421
 20
16.661255
 30
0.0
 11
97.367421
 21
21.414524
 31
0.0
  0
LINE
  5
16C1
100
AcDbEntity
  8
90000_FRAME
370
    13
  6
CONTINUOUS
 62
     7
100
AcDbLine
 10
101.550297
 20
21.414524
 30
0.0
 11
101.550297
 21
16.661255
 31
0.0
  0
LINE
  5
16C2
100
AcDbEntity
  8
90000_FRAME
370
    13
  6
CONTINUOUS
 62
     7
100
AcDbLine
 10
97.367421
 20
16.661255
 30
0.0
 11
98.318074
 21
16.661255
 31
0.0
  0
LINE
  5
16C3
100
AcDbEntity
  8
90000_FRAME
370
    13
  6
CONTINUOUS
 62
     7
100
AcDbLine
 10
101.550297
 20
21.414524
 30
0.0
 11
100.599643
 21
21.414524
 31
0.0
  0
LINE
  5
16C4
100
AcDbEntity
  8
90000_FRAME
370
    13
  6
CONTINUOUS
 62
     7
100
AcDbLine
 10
98.912233
 20
21.414524
 30
0.0
 11
97.367421
 21
21.414524
 31
0.0
  0
LINE
  5
16C5
100
AcDbEntity
  8
90000_FRAME
370
    13
  6
CONTINUOUS
 62
     7
100
AcDbLine
 10
101.550297
 20
16.661255
 30
0.0
 11
100.029251
 21
16.661255
 31
0.0
  0
LINE
  5
16C6
100
AcDbEntity
  8
90000_FRAME
370
    13
  6
CONTINUOUS
 62
     7
100
AcDbLine
 10
100.029251
 20
16.661255
 30
0.0
 11
98.318074
 21
19.703348
 31
0.0
  0
LINE
  5
16C7
100
AcDbEntity
  8
90000_FRAME
370
    13
  6
CONTINUOUS
 62
     7
100
AcDbLine
 10
98.912233
 20
21.414524
 30
0.0
 11
100.599643
 21
18.467498
 31
0.0
  0
LINE
  5
16C8
100
AcDbEntity
  8
90000_FRAME
370
    13
  6
CONTINUOUS
 62
     7
100
AcDbLine
 10
100.599643
 20
21.414524
 30
0.0
 11
100.599643
 21
18.467498
 31
0.0
  0
LINE
  5
16C9
100
AcDbEntity
  8
90000_FRAME
370
    13
  6
CONTINUOUS
 62
     7
100
AcDbLine
 10
98.318074
 20
16.661255
 30
0.0
 11
98.318074
 21
19.703348
 31
0.0
  0
LINE
  5
16CA
100
AcDbEntity
  8
90000_FRAME
370
    13
  6
CONTINUOUS
 62
     7
100
AcDbLine
 10
102.358353
 20
16.756321
 30
0.0
 11
102.358353
 21
17.706974
 31
0.0
  0
LINE
  5
16CB
100
AcDbEntity
  8
90000_FRAME
370
    13
  6
CONTINUOUS
 62
     7
100
AcDbLine
 10
105.685641
 20
20.416338
 30
0.0
 11
105.685641
 21
21.366992
 31
0.0
  0
ARC
  5
16CC
100
AcDbEntity
  8
90000_FRAME
370
    13
  6
CONTINUOUS
 62
     7
100
AcDbCircle
 10
104.062994
 20
18.618414
 30
0.0
 40
1.111619
100
AcDbArc
 50
277.709996
 51
295.688493
  0
ARC
  5
16CD
100
AcDbEntity
  8
90000_FRAME
370
    13
  6
CONTINUOUS
 62
     7
100
AcDbCircle
 10
104.347304
 20
17.893588
 30
0.0
 40
0.340169
100
AcDbArc
 50
305.503221
 51
72.46529
  0
ARC
  5
16CE
100
AcDbEntity
  8
90000_FRAME
370
    13
  6
CONTINUOUS
 62
     7
100
AcDbCircle
 10
103.78131
 20
21.295295
 30
0.0
 40
4.756795
100
AcDbArc
 50
252.59392
 51
280.98166
  0
ARC
  5
16CF
100
AcDbEntity
  8
90000_FRAME
370
    13
  6
CONTINUOUS
 62
     7
100
AcDbCircle
 10
104.236146
 20
18.677281
 30
0.0
 40
2.100727
100
AcDbArc
 50
282.405836
 51
311.864443
  0
ARC
  5
16D0
100
AcDbEntity
  8
90000_FRAME
370
    13
  6
CONTINUOUS
 62
     7
100
AcDbCircle
 10
103.962581
 20
20.285623
 30
0.0
 40
0.302963
100
AcDbArc
 50
154.440035
 51
221.82017
  0
ARC
  5
16D1
100
AcDbEntity
  8
90000_FRAME
370
    13
  6
CONTINUOUS
 62
     7
100
AcDbCircle
 10
104.041803
 20
20.206402
 30
0.0
 40
0.410309
100
AcDbArc
 50
102.828783
 51
149.225964
  0
ARC
  5
16D2
100
AcDbEntity
  8
90000_FRAME
370
    13
  6
CONTINUOUS
 62
     7
100
AcDbCircle
 10
104.458829
 20
18.464066
 30
0.0
 40
2.201837
100
AcDbArc
 50
84.040006
 51
103.342766
  0
ARC
  5
16D3
100
AcDbEntity
  8
90000_FRAME
370
    13
  6
CONTINUOUS
 62
     7
100
AcDbCircle
 10
104.117866
 20
16.046703
 30
0.0
 40
4.642374
100
AcDbArc
 50
70.262586
 51
82.952419
  0
ARC
  5
16D4
100
AcDbEntity
  8
90000_FRAME
370
    13
  6
CONTINUOUS
 62
     7
100
AcDbCircle
 10
103.603847
 20
20.718325
 30
0.0
 40
3.258756
100
AcDbArc
 50
247.530021
 51
280.757952
  0
ARC
  5
16D5
100
AcDbEntity
  8
90000_FRAME
370
    13
  6
CONTINUOUS
 62
     7
100
AcDbCircle
 10
97.218881
 20
2.466805
 30
0.0
 40
17.331608
100
AcDbArc
 50
65.341467
 51
67.399777
  0
ARC
  5
16D6
100
AcDbEntity
  8
90000_FRAME
370
    13
  6
CONTINUOUS
 62
     7
100
AcDbCircle
 10
108.014743
 20
28.259232
 30
0.0
 40
10.629164
100
AcDbArc
 50
242.86201
 51
247.104203
  0
ARC
  5
16D7
100
AcDbEntity
  8
90000_FRAME
370
    13
  6
CONTINUOUS
 62
     7
100
AcDbCircle
 10
104.159842
 20
20.7253
 30
0.0
 40
2.166292
100
AcDbArc
 50
227.311928
 51
242.704032
  0
ARC
  5
16D8
100
AcDbEntity
  8
90000_FRAME
370
    13
  6
CONTINUOUS
 62
     7
100
AcDbCircle
 10
103.555811
 20
20.019623
 30
0.0
 40
1.238522
100
AcDbArc
 50
194.795219
 51
225.717655
  0
ARC
  5
16D9
100
AcDbEntity
  8
90000_FRAME
370
    13
  6
CONTINUOUS
 62
     7
100
AcDbCircle
 10
103.617969
 20
20.059843
 30
0.0
 40
1.309092
100
AcDbArc
 50
164.197486
 51
195.802514
  0
ARC
  5
16DA
100
AcDbEntity
  8
90000_FRAME
370
    13
  6
CONTINUOUS
 62
     7
100
AcDbCircle
 10
104.174993
 20
19.171576
 30
0.0
 40
2.366925
100
AcDbArc
 50
86.221802
 51
120.42726
  0
ARC
  5
16DB
100
AcDbEntity
  8
90000_FRAME
370
    13
  6
CONTINUOUS
 62
     7
100
AcDbCircle
 10
103.906136
 20
12.475408
 30
0.0
 40
9.067905
100
AcDbArc
 50
78.682705
 51
87.31476
  0
ARC
  5
16DC
100
AcDbEntity
  8
90000_FRAME
370
    13
  6
CONTINUOUS
 62
     7
100
AcDbCircle
 10
103.450067
 20
20.16735
 30
0.0
 40
1.119747
100
AcDbArc
 50
142.813918
 51
167.152295
  0
ARC
  5
16DD
100
AcDbEntity
  8
90000_FRAME
370
    13
  6
CONTINUOUS
 62
     7
100
AcDbCircle
 10
103.795376
 20
19.860769
 30
0.0
 40
1.580547
100
AcDbArc
 50
121.214095
 51
141.525477
  0
ARC
  5
16DE
100
AcDbEntity
  8
90000_FRAME
370
    13
  6
CONTINUOUS
 62
     7
100
AcDbCircle
 10
104.372551
 20
20.671826
 30
0.0
 40
0.866128
100
AcDbArc
 50
222.776039
 51
239.036243
  0
ARC
  5
16DF
100
AcDbEntity
  8
90000_FRAME
370
    13
  6
CONTINUOUS
 62
     7
100
AcDbCircle
 10
101.865841
 20
13.341554
 30
0.0
 40
6.858774
100
AcDbArc
 50
59.902027
 51
68.203648
  0
ARC
  5
16E0
100
AcDbEntity
  8
90000_FRAME
370
    13
  6
CONTINUOUS
 62
     7
100
AcDbCircle
 10
105.274336
 20
22.26744
 30
0.0
 40
2.698741
100
AcDbArc
 50
240.0482
 51
251.377967
  0
ARC
  5
16E1
100
AcDbEntity
  8
90000_FRAME
370
    13
  6
CONTINUOUS
 62
     7
100
AcDbCircle
 10
104.608879
 20
18.110542
 30
0.0
 40
1.433447
100
AcDbArc
 50
315.890455
 51
333.522926
  0
ARC
  5
16E2
100
AcDbEntity
  8
90000_FRAME
370
    13
  6
CONTINUOUS
 62
     7
100
AcDbCircle
 10
104.613517
 20
18.057135
 30
0.0
 40
1.406229
100
AcDbArc
 50
335.386797
 51
24.391512
  0
ARC
  5
16E3
100
AcDbEntity
  8
90000_FRAME
370
    13
  6
CONTINUOUS
 62
     7
100
AcDbCircle
 10
104.541312
 20
17.979278
 30
0.0
 40
1.504703
100
AcDbArc
 50
25.956292
 51
59.483483
  0
LINE
  5
16E4
100
AcDbEntity
  8
90000_FRAME
370
    13
  6
CONTINUOUS
 62
     7
100
AcDbLine
 10
74.765626
 20
16.756321
 30
0.0
 11
74.765626
 21
17.706974
 31
0.0
  0
LINE
  5
16E5
100
AcDbEntity
  8
90000_FRAME
370
    13
  6
CONTINUOUS
 62
     7
100
AcDbLine
 10
78.092914
 20
20.416338
 30
0.0
 11
78.092914
 21
21.366992
 31
0.0
  0
ARC
  5
16E6
100
AcDbEntity
  8
90000_FRAME
370
    13
  6
CONTINUOUS
 62
     7
100
AcDbCircle
 10
76.470267
 20
18.618414
 30
0.0
 40
1.111619
100
AcDbArc
 50
277.709996
 51
295.688493
  0
ARC
  5
16E7
100
AcDbEntity
  8
90000_FRAME
370
    13
  6
CONTINUOUS
 62
     7
100
AcDbCircle
 10
76.754577
 20
17.893588
 30
0.0
 40
0.340169
100
AcDbArc
 50
305.503221
 51
72.46529
  0
ARC
  5
16E8
100
AcDbEntity
  8
90000_FRAME
370
    13
  6
CONTINUOUS
 62
     7
100
AcDbCircle
 10
76.188583
 20
21.295295
 30
0.0
 40
4.756795
100
AcDbArc
 50
252.59392
 51
280.98166
  0
ARC
  5
16E9
100
AcDbEntity
  8
90000_FRAME
370
    13
  6
CONTINUOUS
 62
     7
100
AcDbCircle
 10
76.643419
 20
18.677281
 30
0.0
 40
2.100727
100
AcDbArc
 50
282.405836
 51
311.864443
  0
ARC
  5
16EA
100
AcDbEntity
  8
90000_FRAME
370
    13
  6
CONTINUOUS
 62
     7
100
AcDbCircle
 10
76.369854
 20
20.285623
 30
0.0
 40
0.302963
100
AcDbArc
 50
154.440035
 51
221.82017
  0
ARC
  5
16EB
100
AcDbEntity
  8
90000_FRAME
370
    13
  6
CONTINUOUS
 62
     7
100
AcDbCircle
 10
76.449075
 20
20.206402
 30
0.0
 40
0.410309
100
AcDbArc
 50
102.828783
 51
149.225964
  0
ARC
  5
16EC
100
AcDbEntity
  8
90000_FRAME
370
    13
  6
CONTINUOUS
 62
     7
100
AcDbCircle
 10
76.866102
 20
18.464066
 30
0.0
 40
2.201837
100
AcDbArc
 50
84.040006
 51
103.342766
  0
ARC
  5
16ED
100
AcDbEntity
  8
90000_FRAME
370
    13
  6
CONTINUOUS
 62
     7
100
AcDbCircle
 10
76.525139
 20
16.046703
 30
0.0
 40
4.642374
100
AcDbArc
 50
70.262586
 51
82.952419
  0
ARC
  5
16EE
100
AcDbEntity
  8
90000_FRAME
370
    13
  6
CONTINUOUS
 62
     7
100
AcDbCircle
 10
76.01112
 20
20.718325
 30
0.0
 40
3.258756
100
AcDbArc
 50
247.530021
 51
280.757952
  0
ARC
  5
16EF
100
AcDbEntity
  8
90000_FRAME
370
    13
  6
CONTINUOUS
 62
     7
100
AcDbCircle
 10
69.626154
 20
2.466805
 30
0.0
 40
17.331608
100
AcDbArc
 50
65.341467
 51
67.399777
  0
ARC
  5
16F0
100
AcDbEntity
  8
90000_FRAME
370
    13
  6
CONTINUOUS
 62
     7
100
AcDbCircle
 10
80.422016
 20
28.259232
 30
0.0
 40
10.629164
100
AcDbArc
 50
242.86201
 51
247.104203
  0
ARC
  5
16F1
100
AcDbEntity
  8
90000_FRAME
370
    13
  6
CONTINUOUS
 62
     7
100
AcDbCircle
 10
76.567115
 20
20.7253
 30
0.0
 40
2.166292
100
AcDbArc
 50
227.311928
 51
242.704032
  0
ARC
  5
16F2
100
AcDbEntity
  8
90000_FRAME
370
    13
  6
CONTINUOUS
 62
     7
100
AcDbCircle
 10
75.963084
 20
20.019623
 30
0.0
 40
1.238522
100
AcDbArc
 50
194.795219
 51
225.717655
  0
ARC
  5
16F3
100
AcDbEntity
  8
90000_FRAME
370
    13
  6
CONTINUOUS
 62
     7
100
AcDbCircle
 10
76.582266
 20
19.171576
 30
0.0
 40
2.366925
100
AcDbArc
 50
86.221802
 51
120.42726
  0
ARC
  5
16F4
100
AcDbEntity
  8
90000_FRAME
370
    13
  6
CONTINUOUS
 62
     7
100
AcDbCircle
 10
76.313409
 20
12.475408
 30
0.0
 40
9.067905
100
AcDbArc
 50
78.682705
 51
87.31476
  0
ARC
  5
16F5
100
AcDbEntity
  8
90000_FRAME
370
    13
  6
CONTINUOUS
 62
     7
100
AcDbCircle
 10
76.202649
 20
19.860769
 30
0.0
 40
1.580547
100
AcDbArc
 50
121.214095
 51
141.525477
  0
ARC
  5
16F6
100
AcDbEntity
  8
90000_FRAME
370
    13
  6
CONTINUOUS
 62
     7
100
AcDbCircle
 10
76.779824
 20
20.671826
 30
0.0
 40
0.866128
100
AcDbArc
 50
222.776039
 51
239.036243
  0
ARC
  5
16F7
100
AcDbEntity
  8
90000_FRAME
370
    13
  6
CONTINUOUS
 62
     7
100
AcDbCircle
 10
74.273114
 20
13.341554
 30
0.0
 40
6.858774
100
AcDbArc
 50
59.902027
 51
68.203648
  0
ARC
  5
16F8
100
AcDbEntity
  8
90000_FRAME
370
    13
  6
CONTINUOUS
 62
     7
100
AcDbCircle
 10
77.681609
 20
22.26744
 30
0.0
 40
2.698741
100
AcDbArc
 50
240.0482
 51
251.377967
  0
ARC
  5
16F9
100
AcDbEntity
  8
90000_FRAME
370
    13
  6
CONTINUOUS
 62
     7
100
AcDbCircle
 10
77.016152
 20
18.110542
 30
0.0
 40
1.433447
100
AcDbArc
 50
315.890455
 51
333.522926
  0
ARC
  5
16FA
100
AcDbEntity
  8
90000_FRAME
370
    13
  6
CONTINUOUS
 62
     7
100
AcDbCircle
 10
77.02079
 20
18.057135
 30
0.0
 40
1.406229
100
AcDbArc
 50
335.386797
 51
24.391512
  0
ARC
  5
16FB
100
AcDbEntity
  8
90000_FRAME
370
    13
  6
CONTINUOUS
 62
     7
100
AcDbCircle
 10
76.948585
 20
17.979278
 30
0.0
 40
1.504703
100
AcDbArc
 50
25.956292
 51
59.483483
  0
LINE
  5
16FC
100
AcDbEntity
  8
90000_FRAME
370
    13
  6
CONTINUOUS
 62
     7
100
AcDbLine
 10
74.957455
 20
20.833719
 30
0.0
 11
75.23152
 21
21.107792
 31
0.0
  0
ARC
  5
16FD
100
AcDbEntity
  8
90000_FRAME
370
    13
  6
CONTINUOUS
 62
     7
100
AcDbCircle
 10
76.025242
 20
20.059843
 30
0.0
 40
1.309092
100
AcDbArc
 50
164.197486
 51
195.802514
  0
ARC
  5
16FE
100
AcDbEntity
  8
90000_FRAME
370
    13
  6
CONTINUOUS
 62
     7
100
AcDbCircle
 10
75.85734
 20
20.16735
 30
0.0
 40
1.119747
100
AcDbArc
 50
142.813918
 51
167.152295
  0
LINE
  5
16FF
100
AcDbEntity
  8
90000_FRAME
370
    13
  6
CONTINUOUS
 62
     7
100
AcDbLine
 10
204.999966
 20
291.999976
 30
0.0
 11
4.999966
 21
291.999976
 31
0.0
  0
LINE
  5
1700
100
AcDbEntity
  8
90000_FRAME
370
    13
  6
CONTINUOUS
 62
     7
100
AcDbLine
 10
209.999966
 20
296.999976
 30
0.0
 11
-0.000034
 21
296.999976
 31
0.0
  0
LINE
  5
1701
100
AcDbEntity
  8
90000_FRAME
370
    13
  6
CONTINUOUS
 62
     7
100
AcDbLine
 10
209.999966
 20
-0.000024
 30
0.0
 11
-0.000034
 21
-0.000024
 31
0.0
  0
LINE
  5
1702
100
AcDbEntity
  8
90000_FRAME
370
    13
  6
CONTINUOUS
 62
     7
100
AcDbLine
 10
-0.000034
 20
-0.000024
 30
0.0
 11
-0.000034
 21
296.999976
 31
0.0
  0
LINE
  5
1703
100
AcDbEntity
  8
90000_FRAME
370
    13
  6
CONTINUOUS
 62
     7
100
AcDbLine
 10
209.999966
 20
-0.000024
 30
0.0
 11
209.999966
 21
296.999976
 31
0.0
  0
ENDSEC
  0
SECTION
  2
OBJECTS
  0
DICTIONARY
  5
10CF
100
AcDbDictionary
280
     0
281
     1
  3
ACAD_GROUP
350
10D0
  3
ACAD_MLINESTYLE
350
10D1
  0
DICTIONARY
  5
10D0
102
{ACAD_REACTORS
330
10CF
102
}
100
AcDbDictionary
280
     0
281
     1
  0
DICTIONARY
  5
10D1
102
{ACAD_REACTORS
330
10CF
102
}
100
AcDbDictionary
280
     0
281
     1
  3
Standard
350
10D2
  0
MLINESTYLE
  5
10D2
102
{ACAD_REACTORS
330
10D1
102
}
100
AcDbMlineStyle
  2
Standard
 70
     0
  3

 62
     0
 51
90.0
 52
90.0
 71
     2
 49
0.5
 62
   256
  6
ByLayer
 49
-0.5
 62
   256
  6
ByLayer
  0
ENDSEC
  0
EOF
