  0
SECTION
  2
HEADER
  9
$ACADVER
  1
AC1015
  9
$ACADMAINTVER
 70
     6
  9
$DWGCODEPAGE
  3
ANSI_1252
  9
$INSBASE
 10
0.0
 20
0.0
 30
0.0
  9
$EXTMIN
 10
69.395417
 20
287.976483
 30
-1.0
  9
$EXTMAX
 10
1026.514554
 20
492.804657
 30
0.7
  9
$LIMMIN
 10
0.0
 20
0.0
  9
$LIMMAX
 10
12.0
 20
9.0
  9
$ORTHOMODE
 70
     0
  9
$REGENMODE
 70
     1
  9
$FILLMODE
 70
     1
  9
$QTEXTMODE
 70
     0
  9
$MIRRTEXT
 70
     0
  9
$LTSCALE
 40
5.0
  9
$ATTMODE
 70
     1
  9
$TEXTSIZE
 40
0.2
  9
$TRACEWID
 40
0.05
  9
$TEXTSTYLE
  7
STANDARD
  9
$CLAYER
  8
0
  9
$CELTYPE
  6
ByLayer
  9
$CECOLOR
 62
   256
  9
$CELTSCALE
 40
1.0
  9
$DISPSILH
 70
     0
  9
$DIMSCALE
 40
1.0
  9
$DIMASZ
 40
0.18
  9
$DIMEXO
 40
0.0625
  9
$DIMDLI
 40
0.38
  9
$DIMRND
 40
0.0
  9
$DIMDLE
 40
0.0
  9
$DIMEXE
 40
0.18
  9
$DIMTP
 40
0.0
  9
$DIMTM
 40
0.0
  9
$DIMTXT
 40
0.18
  9
$DIMCEN
 40
0.09
  9
$DIMTSZ
 40
0.0
  9
$DIMTOL
 70
     0
  9
$DIMLIM
 70
     0
  9
$DIMTIH
 70
     1
  9
$DIMTOH
 70
     1
  9
$DIMSE1
 70
     0
  9
$DIMSE2
 70
     0
  9
$DIMTAD
 70
     0
  9
$DIMZIN
 70
     0
  9
$DIMBLK
  1

  9
$DIMASO
 70
     1
  9
$DIMSHO
 70
     1
  9
$DIMPOST
  1

  9
$DIMAPOST
  1

  9
$DIMALT
 70
     0
  9
$DIMALTD
 70
     2
  9
$DIMALTF
 40
25.4
  9
$DIMLFAC
 40
1.0
  9
$DIMTOFL
 70
     0
  9
$DIMTVP
 40
0.0
  9
$DIMTIX
 70
     0
  9
$DIMSOXD
 70
     0
  9
$DIMSAH
 70
     0
  9
$DIMBLK1
  1

  9
$DIMBLK2
  1

  9
$DIMSTYLE
  2
STANDARD
  9
$DIMCLRD
 70
     0
  9
$DIMCLRE
 70
     0
  9
$DIMCLRT
 70
     0
  9
$DIMTFAC
 40
1.0
  9
$DIMGAP
 40
0.09
  9
$DIMJUST
 70
     0
  9
$DIMSD1
 70
     0
  9
$DIMSD2
 70
     0
  9
$DIMTOLJ
 70
     1
  9
$DIMTZIN
 70
     0
  9
$DIMALTZ
 70
     0
  9
$DIMALTTZ
 70
     0
  9
$DIMUPT
 70
     0
  9
$DIMDEC
 70
     4
  9
$DIMTDEC
 70
     4
  9
$DIMALTU
 70
     2
  9
$DIMALTTD
 70
     2
  9
$DIMTXSTY
  7
STANDARD
  9
$DIMAUNIT
 70
     0
  9
$DIMADEC
 70
     0
  9
$DIMALTRND
 40
0.0
  9
$DIMAZIN
 70
     0
  9
$DIMDSEP
 70
     0
  9
$DIMATFIT
 70
     3
  9
$DIMFRAC
 70
     0
  9
$DIMLDRBLK
  1

  9
$DIMLUNIT
 70
     2
  9
$DIMLWD
 70
     0
  9
$DIMLWE
 70
     0
  9
$DIMTMOVE
 70
     0
  9
$LUNITS
 70
     2
  9
$LUPREC
 70
     4
  9
$SKETCHINC
 40
0.1
  9
$FILLETRAD
 40
0.0
  9
$AUNITS
 70
     0
  9
$AUPREC
 70
     0
  9
$MENU
  1
.
  9
$ELEVATION
 40
0.0
  9
$PELEVATION
 40
0.0
  9
$THICKNESS
 40
0.0
  9
$LIMCHECK
 70
     0
  9
$CHAMFERA
 40
0.0
  9
$CHAMFERB
 40
0.0
  9
$CHAMFERC
 40
0.0
  9
$CHAMFERD
 40
0.0
  9
$SKPOLY
 70
     0
  9
$TDCREATE
 40
2453353.758792454
  9
$TDUCREATE
 40
0.000000000
  9
$TDUPDATE
 40
0.000000000
  9
$TDUUPDATE
 40
2447892.958333334
  9
$TDINDWG
 40
19583144.0627810880
  9
$TDUSRTIMER
 40
0.0000000000
  9
$USRTIMER
 70
     1
  9
$ANGBASE
 50
0.0
  9
$ANGDIR
 70
     0
  9
$PDMODE
 70
     0
  9
$PDSIZE
 40
0.0
  9
$PLINEWID
 40
0.0
  9
$SPLFRAME
 70
     0
  9
$SPLINETYPE
 70
     6
  9
$SPLINESEGS
 70
     8
  9
$HANDSEED
  5
1178
  9
$SURFTAB1
 70
     6
  9
$SURFTAB2
 70
     6
  9
$SURFTYPE
 70
     6
  9
$SURFU
 70
     6
  9
$SURFV
 70
     6
  9
$UCSBASE
  2

  9
$UCSNAME
  2

  9
$UCSORG
 10
0.0
 20
0.0
 30
0.0
  9
$UCSXDIR
 10
1.0
 20
0.0
 30
0.0
  9
$UCSYDIR
 10
0.0
 20
1.0
 30
0.0
  9
$UCSORTHOREF
  2

  9
$UCSORTHOVIEW
 70
     0
  9
$UCSORGTOP
 10
0.0
 20
0.0
 30
0.0
  9
$UCSORGBOTTOM
 10
0.0
 20
0.0
 30
0.0
  9
$UCSORGLEFT
 10
0.0
 20
0.0
 30
0.0
  9
$UCSORGRIGHT
 10
0.0
 20
0.0
 30
0.0
  9
$UCSORGFRONT
 10
0.0
 20
0.0
 30
0.0
  9
$UCSORGBACK
 10
0.0
 20
0.0
 30
0.0
  9
$PUCSBASE
  2

  9
$PUCSNAME
  2

  9
$PUCSORG
 10
0.0
 20
0.0
 30
0.0
  9
$PUCSXDIR
 10
1.0
 20
0.0
 30
0.0
  9
$PUCSYDIR
 10
0.0
 20
1.0
 30
0.0
  9
$PUCSORTHOREF
  2

  9
$PUCSORTHOVIEW
 70
     0
  9
$PUCSORGTOP
 10
0.0
 20
0.0
 30
0.0
  9
$PUCSORGBOTTOM
 10
0.0
 20
0.0
 30
0.0
  9
$PUCSORGLEFT
 10
0.0
 20
0.0
 30
0.0
  9
$PUCSORGRIGHT
 10
0.0
 20
0.0
 30
0.0
  9
$PUCSORGFRONT
 10
0.0
 20
0.0
 30
0.0
  9
$PUCSORGBACK
 10
0.0
 20
0.0
 30
0.0
  9
$USERI1
 70
     0
  9
$USERI2
 70
     0
  9
$USERI3
 70
     0
  9
$USERI4
 70
     0
  9
$USERI5
 70
     0
  9
$USERR1
 40
0.0
  9
$USERR2
 40
0.0
  9
$USERR3
 40
0.0
  9
$USERR4
 40
0.0
  9
$USERR5
 40
0.0
  9
$WORLDVIEW
 70
     1
  9
$SHADEDGE
 70
     3
  9
$SHADEDIF
 70
    70
  9
$TILEMODE
 70
     1
  9
$MAXACTVP
 70
    64
  9
$PINSBASE
 10
0.0
 20
0.0
 30
0.0
  9
$PLIMCHECK
 70
     0
  9
$PEXTMIN
 10
0.0
 20
0.0
 30
0.0
  9
$PEXTMAX
 10
0.0
 20
0.0
 30
0.0
  9
$PLIMMIN
 10
0.0
 20
0.0
  9
$PLIMMAX
 10
0.0
 20
0.0
  9
$UNITMODE
 70
     0
  9
$VISRETAIN
 70
     1
  9
$PLINEGEN
 70
     0
  9
$PSLTSCALE
 70
     1
  9
$TREEDEPTH
 70
  3020
  9
$CMLSTYLE
  2
Standard
  9
$CMLJUST
 70
     0
  9
$CMLSCALE
 40
1.0
  9
$PROXYGRAPHICS
 70
     0
  9
$MEASUREMENT
 70
     0
  9
$CELWEIGHT
370
     0
  9
$ENDCAPS
280
     0
  9
$JOINSTYLE
280
     0
  9
$LWDISPLAY
290
     0
  9
$INSUNITS
 70
     0
  9
$HYPERLINKBASE
  1

  9
$STYLESHEET
  1

  9
$XEDIT
290
     1
  9
$CEPSNTYPE
380
     0
  9
$PSTYLEMODE
290
     1
  9
$FINGERPRINTGUID
  2

  9
$VERSIONGUID
  2

  9
$EXTNAMES
290
     1
  9
$PSVPSCALE
 40
0.0
  0
ENDSEC
  0
SECTION
  2
CLASSES
  0
CLASS
  1
LWPOLYLINE
  2
AcDbPolyline
  3
AutoCAD 2000
 90
        0
280
     0
281
     1
  0
CLASS
  1
IMAGE
  2
AcDbRasterImage
  3
ISM
 90
      127
280
     0
281
     1
  0
CLASS
  1
OLE2FRAME
  2
AcDbOle2Frame
  3
AutoCAD 2000
 90
        0
280
     0
281
     1
  0
CLASS
  1
HATCH
  2
AcDbHatch
  3
AutoCAD 2000
 90
        0
280
     0
281
     1
  0
CLASS
  1
DICTIONARYVAR
  2
AcDbDictionaryVar
  3
AutoCAD 2000
 90
        0
280
     0
281
     0
  0
CLASS
  1
RASTERVARIABLES
  2
AcDbRasterVariables
  3
ISM
 90
        0
280
     0
281
     0
  0
CLASS
  1
IMAGEDEF
  2
AcDbRasterImageDef
  3
ISM
 90
        0
280
     0
281
     0
  0
CLASS
  1
IMAGEDEF_REACTOR
  2
AcDbRasterImageDefReactor
  3
ISM
 90
        1
280
     0
281
     0
  0
CLASS
  1
IDBUFFER
  2
AcDbIdBuffer
  3
AutoCAD 2000
 90
        0
280
     0
281
     0
  0
CLASS
  1
SPATIAL_FILTER
  2
AcDbSpatialFilter
  3
AutoCAD 2000
 90
        0
280
     0
281
     0
  0
CLASS
  1
XRECORD
  2
AcDbXrecord
  3
AutoCAD 2000
 90
        0
280
     0
281
     0
  0
CLASS
  1
SORTENTSTABLE
  2
AcDbSortentsTable
  3
AutoCAD 2000
 90
        0
280
     0
281
     0
  0
CLASS
  1
LAYER_INDEX
  2
AcDbLayerIndex
  3
AutoCAD 2000
 90
        0
280
     0
281
     0
  0
CLASS
  1
SPATIAL_INDEX
  2
AcDbSpatialIndex
  3
AutoCAD 2000
 90
        0
280
     0
281
     0
  0
CLASS
  1
OBJECT_PTR
  2
CAseDLPNTableRecord
  3
"ASE-LPNTableRecord"
 90
        1
280
     0
281
     0
  0
CLASS
  1
LAYOUT
  2
AcDbLayout
  3
AutoCAD 2000
 90
        0
280
     0
281
     0
  0
CLASS
  1
PLOTSETTINGS
  2
AcDbPlotSettings
  3
AutoCAD 2000
 90
        0
280
     0
281
     0
  0
CLASS
  1
ACDBDICTIONARYWDFLT
  2
AcDbDictionaryWithDefault
  3
AutoCAD 2000
 90
        0
280
     0
281
     0
  0
CLASS
  1
ACDBPLACEHOLDER
  2
AcDbPlaceHolder
  3
AutoCAD 2000
 90
        0
280
     0
281
     0
  0
CLASS
  1
VBA_PROJECT
  2
AcDbVbaProject
  3
acadvba
 90
        0
280
     0
281
     0
  0
CLASS
  1
WIPEOUT
  2
AcDbWipeout
  3
WipeOut|AutoCAD Express Tool|expresstools@autodesk.com
 90
      127
280
     0
281
     1
  0
CLASS
  1
WIPEOUTVARIABLES
  2
AcDbWipeoutVariables
  3
WipeOut|AutoCAD Express Tool|expresstools@autodesk.com
 90
        0
280
     0
281
     0
  0
CLASS
  1
RTEXT
  2
RText
  3
RText|AutoCAD Express Tool|expresstools@autodesk.com
 90
        0
280
     0
281
     1
  0
CLASS
  1
ARCALIGNEDTEXT
  2
AcDbArcAlignedText
  3
ATEXT|AutoCAD Express Tool|expresstools@autodesk.com
 90
        0
280
     0
281
     1
  0
ENDSEC
  0
SECTION
  2
TABLES
  0
TABLE
  2
VPORT
  5
FB2
100
AcDbSymbolTable
 70
     1
  0
VPORT
  5
FD1
100
AcDbSymbolTableRecord
100
AcDbViewportTableRecord
  2
*ACTIVE
 70
     0
 10
0.0
 20
0.0
 11
1.0
 21
1.0
 12
450.328833
 22
266.374849
 13
0.0
 23
0.0
 14
0.5
 24
0.5
 15
0.5
 25
0.5
 16
0.0
 26
0.0
 36
1.0
 17
0.0
 27
0.0
 37
0.0
 40
620.078606
 41
1.701534
 42
50.0
 43
0.0
 44
0.0
 50
0.0
 51
0.0
 71
    16
 72
  1000
 73
     1
 74
     3
 75
     0
 76
     0
 77
     0
 78
     0
281
     0
 65
     0
110
0.0
120
0.0
130
0.0
111
1.0
121
0.0
131
0.0
112
0.0
122
1.0
132
0.0
345
0
346
0
 79
     0
146
0.0
  0
ENDTAB
  0
TABLE
  2
LTYPE
  5
FAF
100
AcDbSymbolTable
 70
     6
  0
LTYPE
  5
FB8
100
AcDbSymbolTableRecord
100
AcDbLinetypeTableRecord
  2
ByBlock
 70
    64
  3

 72
    65
 73
     0
 40
0.0
  0
LTYPE
  5
FB9
100
AcDbSymbolTableRecord
100
AcDbLinetypeTableRecord
  2
ByLayer
 70
    64
  3

 72
    65
 73
     0
 40
0.0
  0
LTYPE
  5
FBA
100
AcDbSymbolTableRecord
100
AcDbLinetypeTableRecord
  2
CONTINUOUS
 70
     0
  3
Solid line
 72
    65
 73
     0
 40
0.0
  0
LTYPE
  5
FBB
100
AcDbSymbolTableRecord
100
AcDbLinetypeTableRecord
  2
CENTER
 70
     0
  3
____ _ ____ _ ____ _ ____ _ ____ _ ____ _ ____
 72
    65
 73
     4
 40
0.6
 49
0.375
 74
     0
 49
-0.075
 74
     0
 49
0.075
 74
     0
 49
-0.075
 74
     0
  0
LTYPE
  5
FBC
100
AcDbSymbolTableRecord
100
AcDbLinetypeTableRecord
  2
ACAD_ISO02W100
 70
     0
  3
ISO Strichlinie __ __ __ __ __ __ __ __ __ __ _
 72
    65
 73
     2
 40
15.0
 49
12.0
 74
     0
 49
-3.0
 74
     0
  0
LTYPE
  5
FBD
100
AcDbSymbolTableRecord
100
AcDbLinetypeTableRecord
  2
DASHED
 70
     0
  3
_ _ _ _ _ _ _ _ _ _ _ _ _ _ _ _ _ _ _ _ _ _ _ _
 72
    65
 73
     2
 40
0.375
 49
0.25
 74
     0
 49
-0.125
 74
     0
  0
ENDTAB
  0
TABLE
  2
LAYER
  5
FAD
100
AcDbSymbolTable
 70
     5
  0
LAYER
  5
FBE
100
AcDbSymbolTableRecord
100
AcDbLayerTableRecord
  2
0
 70
     0
 62
     7
  6
CONTINUOUS
290
     1
370
    -3
390
0
  0
LAYER
  5
FBF
100
AcDbSymbolTableRecord
100
AcDbLayerTableRecord
  2
90000_FRAME
 70
     0
 62
     7
  6
CONTINUOUS
290
     1
370
    -3
390
0
  0
LAYER
  5
FC0
100
AcDbSymbolTableRecord
100
AcDbLayerTableRecord
  2
91000_TIP
 70
     0
 62
     7
  6
CONTINUOUS
290
     1
370
    -3
390
0
  0
LAYER
  5
FC1
100
AcDbSymbolTableRecord
100
AcDbLayerTableRecord
  2
10000_FRONT
 70
     0
 62
     7
  6
CONTINUOUS
290
     1
370
    -3
390
0
  0
LAYER
  5
FC5
100
AcDbSymbolTableRecord
100
AcDbLayerTableRecord
  2
DEFPOINTS
 70
     0
 62
     7
  6
CONTINUOUS
290
     0
370
    -3
390
0
  0
ENDTAB
  0
TABLE
  2
STYLE
  5
FAE
100
AcDbSymbolTable
 70
     1
  0
STYLE
  5
FD5
100
AcDbSymbolTableRecord
100
AcDbTextStyleTableRecord
  2
STANDARD
 70
     0
 40
0.0
 41
1.0
 50
0.0
 71
     0
 42
0.2
  3
txt.shx
  4

  0
ENDTAB
  0
TABLE
  2
VIEW
  5
FB0
100
AcDbSymbolTable
 70
     0
  0
ENDTAB
  0
TABLE
  2
UCS
  5
FB1
100
AcDbSymbolTable
 70
     0
  0
ENDTAB
  0
TABLE
  2
APPID
  5
FB3
100
AcDbSymbolTable
 70
     3
  0
APPID
  5
FD2
100
AcDbSymbolTableRecord
100
AcDbRegAppTableRecord
  2
ACAD
 70
     0
  0
APPID
  5
FD3
100
AcDbSymbolTableRecord
100
AcDbRegAppTableRecord
  2
AUSTER_ANSICHT
 70
     0
  0
APPID
  5
FD4
100
AcDbSymbolTableRecord
100
AcDbRegAppTableRecord
  2
AUSTER_FOLIE
 70
     0
  0
ENDTAB
  0
TABLE
  2
DIMSTYLE
  5
FB4
100
AcDbSymbolTable
 70
     3
100
AcDbDimStyleTable
 71
     0
  0
DIMSTYLE
105
FDF
100
AcDbSymbolTableRecord
100
AcDbDimStyleTableRecord
  2
STANDARD
 70
     0
  3

  4

 40
1.0
 41
0.18
 42
0.0625
 43
0.38
 44
0.18
 45
0.0
 46
0.0
 47
0.0
 48
0.0
 71
     0
 72
     0
 73
     1
 74
     1
 75
     0
 76
     0
 77
     0
 78
     0
 79
     0
140
0.18
141
0.09
142
0.0
143
25.4
144
1.0
145
0.0
146
1.0
147
0.09
148
0.0
170
     0
171
     2
172
     0
173
     0
174
     0
175
     0
176
     0
177
     0
178
     0
179
     0
271
     4
272
     4
273
     2
274
     2
275
     0
276
     0
277
     2
278
    46
279
     0
280
     0
281
     0
282
     0
283
     1
284
     0
285
     0
286
     0
288
     0
289
     3
340
FD5
341
0
342
0
343
0
344
0
371
    -2
372
    -2
  0
DIMSTYLE
105
FE0
100
AcDbSymbolTableRecord
100
AcDbDimStyleTableRecord
  2
DSTYLE1
 70
     0
  3

  4

 40
1.0
 41
3.0
 42
0.0
 43
0.38
 44
1.0
 45
0.0
 46
0.0
 47
0.0
 48
0.0
 71
     0
 72
     0
 73
     0
 74
     0
 75
     0
 76
     0
 77
     1
 78
     3
 79
     0
140
2.5
141
0.09
142
0.0
143
0.03937
144
1.0
145
0.0
146
1.0
147
1.0
148
0.0
170
     0
171
     2
172
     0
173
     0
174
     0
175
     0
176
     0
177
     0
178
     0
179
     0
271
     4
272
     4
273
     2
274
     2
275
     0
276
     0
277
     2
278
    46
279
     0
280
     0
281
     0
282
     0
283
     1
284
     0
285
     0
286
     0
288
     0
289
     3
340
FD5
341
0
342
0
343
0
344
0
371
    -2
372
    -2
  0
DIMSTYLE
105
FE1
100
AcDbSymbolTableRecord
100
AcDbDimStyleTableRecord
  2
H035
 70
     0
  3

  4

 40
0.0
 41
3.5
 42
0.0
 43
3.75
 44
2.0
 45
0.0
 46
0.0
 47
0.0
 48
0.0
 71
     0
 72
     0
 73
     0
 74
     0
 75
     0
 76
     0
 77
     1
 78
     8
 79
     0
140
3.5
141
2.5
142
0.0
143
0.039
144
1.0
145
0.0
146
1.0
147
0.5
148
0.0
170
     0
171
     4
172
     1
173
     0
174
     0
175
     0
176
   256
177
     7
178
     7
179
     0
271
     4
272
     4
273
     2
274
     2
275
     0
276
     0
277
     2
278
    46
279
     0
280
     0
281
     0
282
     0
283
     1
284
     0
285
     0
286
     0
288
     0
289
     3
340
FD5
341
0
342
0
343
0
344
0
371
    -2
372
    -2
  0
ENDTAB
  0
TABLE
  2
BLOCK_RECORD
  5
FDA
100
AcDbSymbolTable
 70
     2
  0
BLOCK_RECORD
  5
FD8
100
AcDbSymbolTableRecord
100
AcDbBlockTableRecord
  2
*Model_Space
340
0
  0
BLOCK_RECORD
  5
FD9
100
AcDbSymbolTableRecord
100
AcDbBlockTableRecord
  2
*Paper_Space
340
0
  0
BLOCK_RECORD
  5
FD6
100
AcDbSymbolTableRecord
100
AcDbBlockTableRecord
  2
$MODEL_SPACE
340
0
  0
BLOCK_RECORD
  5
FD7
100
AcDbSymbolTableRecord
100
AcDbBlockTableRecord
  2
$PAPER_SPACE
340
0
  0
ENDTAB
  0
ENDSEC
  0
SECTION
  2
BLOCKS
  0
BLOCK
  5
FDB
100
AcDbEntity
  8
0
390
0
100
AcDbBlockBegin
  2
*Model_Space
 70
     0
 10
0.0
 20
0.0
 30
0.0
  3
*Model_Space
  1

  0
ENDBLK
  5
FDC
100
AcDbEntity
  8
0
390
0
100
AcDbBlockEnd
  0
BLOCK
  5
FDD
100
AcDbEntity
 67
     1
  8
0
390
0
100
AcDbBlockBegin
  2
*Paper_Space
 70
     0
 10
0.0
 20
0.0
 30
0.0
  3
*Paper_Space
  1

  0
ENDBLK
  5
FDE
100
AcDbEntity
 67
     1
  8
0
390
0
100
AcDbBlockEnd
  0
BLOCK
  5
FE2
100
AcDbEntity
  8
0
100
AcDbBlockBegin
  2
$MODEL_SPACE
 70
     0
 10
0.0
 20
0.0
 30
0.0
  3
$MODEL_SPACE
  1

  0
ENDBLK
  5
21
100
AcDbEntity
  8
0
100
AcDbBlockEnd
  0
BLOCK
  5
FE3
100
AcDbEntity
  8
0
100
AcDbBlockBegin
  2
$PAPER_SPACE
 70
     0
 10
0.0
 20
0.0
 30
0.0
  3
$PAPER_SPACE
  1

  0
ENDBLK
  5
76
100
AcDbEntity
  8
0
100
AcDbBlockEnd
  0
ENDSEC
  0
SECTION
  2
ENTITIES
  0
ARC
  5
FE9
100
AcDbEntity
  8
10000_FRONT
370
    50
390
0
  6
CONTINUOUS
 62
     7
100
AcDbCircle
 10
151.000001
 20
200.584019
 30
0.0
 40
1.75
100
AcDbArc
 50
210.949735
 51
30.949743
  0
ARC
  5
FEA
100
AcDbEntity
  8
10000_FRONT
370
    50
390
0
  6
CONTINUOUS
 62
     7
100
AcDbCircle
 10
140.76
 20
201.784019
 30
0.0
 40
1.6
100
AcDbArc
 50
0.0
 51
180.0
  0
ARC
  5
FEB
100
AcDbEntity
  8
10000_FRONT
370
    50
390
0
  6
CONTINUOUS
 62
     7
100
AcDbCircle
 10
140.27
 20
198.484019
 30
0.0
 40
1.1
100
AcDbArc
 50
0.0
 51
180.00004
  0
ARC
  5
FEC
100
AcDbEntity
  8
10000_FRONT
370
    50
390
0
  6
CONTINUOUS
 62
     7
100
AcDbCircle
 10
140.27
 20
198.484019
 30
0.0
 40
1.1
100
AcDbArc
 50
180.00004
 51
0.0
  0
ARC
  5
FED
100
AcDbEntity
  8
10000_FRONT
370
    50
390
0
  6
CONTINUOUS
 62
     7
100
AcDbCircle
 10
140.76
 20
201.784019
 30
0.0
 40
1.6
100
AcDbArc
 50
180.0
 51
0.0
  0
LINE
  5
FEE
100
AcDbEntity
  8
10000_FRONT
370
    50
390
0
  6
CONTINUOUS
 62
     7
100
AcDbLine
 10
143.565798
 20
198.937607
 30
0.0
 11
143.565798
 21
200.151009
 31
0.0
  0
ARC
  5
FEF
100
AcDbEntity
  8
10000_FRONT
370
    50
390
0
  6
CONTINUOUS
 62
     7
100
AcDbCircle
 10
138.665798
 20
204.175712
 30
0.0
 40
0.5
100
AcDbArc
 50
80.000029
 51
178.999966
  0
LINE
  5
FF0
100
AcDbEntity
  8
10000_FRONT
370
    50
390
0
  6
CONTINUOUS
 62
     7
100
AcDbLine
 10
138.165874
 20
204.184439
 30
0.0
 11
138.122841
 21
201.719059
 31
0.0
  0
ARC
  5
FF1
100
AcDbEntity
  8
10000_FRONT
370
    50
390
0
  6
CONTINUOUS
 62
     7
100
AcDbCircle
 10
137.622917
 20
201.727786
 30
0.0
 40
0.5
100
AcDbArc
 50
275.000032
 51
358.99995
  0
LINE
  5
FF2
100
AcDbEntity
  8
10000_FRONT
370
    50
390
0
  6
CONTINUOUS
 62
     7
100
AcDbLine
 10
137.666495
 20
201.229689
 30
0.0
 11
132.54701
 21
200.824112
 31
0.0
  0
ARC
  5
FF3
100
AcDbEntity
  8
10000_FRONT
370
    50
390
0
  6
CONTINUOUS
 62
     7
100
AcDbCircle
 10
132.515626
 20
201.222879
 30
0.0
 40
0.4
100
AcDbArc
 50
94.499908
 51
274.500045
  0
LINE
  5
FF4
100
AcDbEntity
  8
10000_FRONT
370
    50
390
0
  6
CONTINUOUS
 62
     7
100
AcDbLine
 10
132.484243
 20
201.621647
 30
0.0
 11
136.751293
 21
201.95747
 31
0.0
  0
LINE
  5
FF5
100
AcDbEntity
  8
10000_FRONT
370
    50
390
0
  6
CONTINUOUS
 62
     7
100
AcDbLine
 10
136.751293
 20
201.95747
 30
0.0
 11
136.649296
 21
203.253462
 31
0.0
  0
LINE
  5
FF6
100
AcDbEntity
  8
10000_FRONT
370
    50
390
0
  6
CONTINUOUS
 62
     7
100
AcDbLine
 10
136.649296
 20
203.253462
 30
0.0
 11
135.585075
 21
202.768471
 31
0.0
  0
LINE
  5
FF7
100
AcDbEntity
  8
10000_FRONT
370
    50
390
0
  6
CONTINUOUS
 62
     7
100
AcDbLine
 10
135.585075
 20
202.768471
 30
0.0
 11
132.221476
 21
202.50375
 31
0.0
  0
ARC
  5
FF8
100
AcDbEntity
  8
10000_FRONT
370
    50
390
0
  6
CONTINUOUS
 62
     7
100
AcDbCircle
 10
132.315627
 20
201.307448
 30
0.0
 40
1.2
100
AcDbArc
 50
94.500007
 51
180.0
  0
LINE
  5
FF9
100
AcDbEntity
  8
10000_FRONT
370
    50
390
0
  6
CONTINUOUS
 62
     7
100
AcDbLine
 10
131.115627
 20
201.307447
 30
0.0
 11
131.115627
 21
199.259891
 31
0.0
  0
ARC
  5
FFA
100
AcDbEntity
  8
10000_FRONT
370
    50
390
0
  6
CONTINUOUS
 62
     7
100
AcDbCircle
 10
132.315627
 20
199.259892
 30
0.0
 40
1.2
100
AcDbArc
 50
180.0
 51
265.499992
  0
LINE
  5
FFB
100
AcDbEntity
  8
10000_FRONT
370
    50
390
0
  6
CONTINUOUS
 62
     7
100
AcDbLine
 10
132.221476
 20
198.063591
 30
0.0
 11
135.585075
 21
197.79887
 31
0.0
  0
LINE
  5
FFC
100
AcDbEntity
  8
10000_FRONT
370
    50
390
0
  6
CONTINUOUS
 62
     7
100
AcDbLine
 10
135.585075
 20
197.79887
 30
0.0
 11
136.649296
 21
197.313877
 31
0.0
  0
LINE
  5
FFD
100
AcDbEntity
  8
10000_FRONT
370
    50
390
0
  6
CONTINUOUS
 62
     7
100
AcDbLine
 10
136.649296
 20
197.313877
 30
0.0
 11
136.751293
 21
198.609871
 31
0.0
  0
LINE
  5
FFE
100
AcDbEntity
  8
10000_FRONT
370
    50
390
0
  6
CONTINUOUS
 62
     7
100
AcDbLine
 10
136.751293
 20
198.609871
 30
0.0
 11
132.484243
 21
198.945694
 31
0.0
  0
ARC
  5
FFF
100
AcDbEntity
  8
10000_FRONT
370
    50
390
0
  6
CONTINUOUS
 62
     7
100
AcDbCircle
 10
132.515626
 20
199.344461
 30
0.0
 40
0.4
100
AcDbArc
 50
85.499957
 51
265.50009
  0
LINE
  5
1000
100
AcDbEntity
  8
10000_FRONT
370
    50
390
0
  6
CONTINUOUS
 62
     7
100
AcDbLine
 10
132.54701
 20
199.743229
 30
0.0
 11
137.664645
 21
199.337809
 31
0.0
  0
ARC
  5
1001
100
AcDbEntity
  8
10000_FRONT
370
    50
390
0
  6
CONTINUOUS
 62
     7
100
AcDbCircle
 10
137.621067
 20
198.839711
 30
0.0
 40
0.5
100
AcDbArc
 50
0.999898
 51
84.999988
  0
LINE
  5
1002
100
AcDbEntity
  8
10000_FRONT
370
    50
390
0
  6
CONTINUOUS
 62
     7
100
AcDbLine
 10
138.120991
 20
198.848436
 30
0.0
 11
138.165874
 21
196.2771
 31
0.0
  0
ARC
  5
1003
100
AcDbEntity
  8
10000_FRONT
370
    50
390
0
  6
CONTINUOUS
 62
     7
100
AcDbCircle
 10
138.665798
 20
196.285826
 30
0.0
 40
0.5
100
AcDbArc
 50
181.000076
 51
290.000053
  0
LINE
  5
1004
100
AcDbEntity
  8
10000_FRONT
370
    50
390
0
  6
CONTINUOUS
 62
     7
100
AcDbLine
 10
138.836808
 20
195.815981
 30
0.0
 11
142.249838
 21
197.058222
 31
0.0
  0
ARC
  5
1005
100
AcDbEntity
  8
10000_FRONT
370
    50
390
0
  6
CONTINUOUS
 62
     7
100
AcDbCircle
 10
141.565798
 20
198.937606
 30
0.0
 40
2.0
100
AcDbArc
 50
290.000004
 51
0.0
  0
LINE
  5
1006
100
AcDbEntity
  8
10000_FRONT
370
    50
390
0
  6
CONTINUOUS
 62
     7
100
AcDbLine
 10
143.565798
 20
201.017031
 30
0.0
 11
143.565798
 21
202.145542
 31
0.0
  0
ARC
  5
1007
100
AcDbEntity
  8
10000_FRONT
370
    50
390
0
  6
CONTINUOUS
 62
     7
100
AcDbCircle
 10
141.57486
 20
202.14884
 30
0.0
 40
1.99094
100
AcDbArc
 50
359.905097
 51
80.218798
  0
LINE
  5
1008
100
AcDbEntity
  8
10000_FRONT
370
    50
390
0
  6
CONTINUOUS
 62
     7
100
AcDbLine
 10
141.913094
 20
204.11084
 30
0.0
 11
138.752622
 21
204.668116
 31
0.0
  0
LINE
  5
1009
100
AcDbEntity
  8
10000_FRONT
370
    50
390
0
  6
CONTINUOUS
 62
     7
100
AcDbLine
 10
145.805216
 20
201.462902
 30
0.0
 11
143.565798
 21
201.017031
 31
0.0
  0
LINE
  5
100A
100
AcDbEntity
  8
10000_FRONT
370
    50
390
0
  6
CONTINUOUS
 62
     7
100
AcDbLine
 10
143.565798
 20
200.151009
 30
0.0
 11
145.824258
 21
199.701345
 31
0.0
  0
ARC
  5
100B
100
AcDbEntity
  8
10000_FRONT
370
    50
390
0
  6
CONTINUOUS
 62
     7
100
AcDbCircle
 10
146.000001
 20
200.58402
 30
0.0
 40
0.9
100
AcDbArc
 50
258.739527
 51
270.000001
  0
LINE
  5
100C
100
AcDbEntity
  8
10000_FRONT
370
    50
390
0
  6
CONTINUOUS
 62
     7
100
AcDbLine
 10
146.000001
 20
199.684019
 30
0.0
 11
149.499168
 21
199.684019
 31
0.0
  0
ARC
  5
100D
100
AcDbEntity
  8
10000_FRONT
370
    50
390
0
  6
CONTINUOUS
 62
     7
100
AcDbCircle
 10
151.000001
 20
200.584019
 30
0.0
 40
1.75
100
AcDbArc
 50
30.949743
 51
44.415289
  0
LINE
  5
100E
100
AcDbEntity
  8
10000_FRONT
370
    50
390
0
  6
CONTINUOUS
 62
     7
100
AcDbLine
 10
152.250001
 20
201.808763
 30
0.0
 11
152.250001
 21
206.38402
 31
0.0
  0
ARC
  5
100F
100
AcDbEntity
  8
10000_FRONT
370
    50
390
0
  6
CONTINUOUS
 62
     7
100
AcDbCircle
 10
151.000001
 20
206.384019
 30
0.0
 40
1.25
100
AcDbArc
 50
0.0
 51
14.805182
  0
LINE
  5
1010
100
AcDbEntity
  8
10000_FRONT
370
    50
390
0
  6
CONTINUOUS
 62
     7
100
AcDbLine
 10
152.208501
 20
206.703436
 30
0.0
 11
151.526432
 21
209.284019
 31
0.0
  0
LINE
  5
1011
100
AcDbEntity
  8
10000_FRONT
370
    50
390
0
  6
CONTINUOUS
 62
     7
100
AcDbLine
 10
150.473569
 20
209.284019
 30
0.0
 11
149.7915
 21
206.703436
 31
0.0
  0
ARC
  5
1012
100
AcDbEntity
  8
10000_FRONT
370
    50
390
0
  6
CONTINUOUS
 62
     7
100
AcDbCircle
 10
151.000001
 20
206.384019
 30
0.0
 40
1.25
100
AcDbArc
 50
165.194823
 51
180.0
  0
LINE
  5
1013
100
AcDbEntity
  8
10000_FRONT
370
    50
390
0
  6
CONTINUOUS
 62
     7
100
AcDbLine
 10
149.75
 20
206.38402
 30
0.0
 11
149.75
 21
201.808765
 31
0.0
  0
ARC
  5
1014
100
AcDbEntity
  8
10000_FRONT
370
    50
390
0
  6
CONTINUOUS
 62
     7
100
AcDbCircle
 10
151.000001
 20
200.584019
 30
0.0
 40
1.750001
100
AcDbArc
 50
135.584671
 51
149.050257
  0
LINE
  5
1015
100
AcDbEntity
  8
10000_FRONT
370
    50
390
0
  6
CONTINUOUS
 62
     7
100
AcDbLine
 10
149.499167
 20
201.48402
 30
0.0
 11
145.979989
 21
201.480228
 31
0.0
  0
ARC
  5
1016
100
AcDbEntity
  8
10000_FRONT
370
    50
390
0
  6
CONTINUOUS
 62
     7
100
AcDbCircle
 10
145.980959
 20
200.580229
 30
0.0
 40
0.899999
100
AcDbArc
 50
90.061739
 51
101.260484
  0
LINE
  5
1017
100
AcDbEntity
  8
10000_FRONT
370
    50
390
0
  6
CONTINUOUS
 62
     7
100
AcDbLine
 10
151.57624
 20
209.284019
 30
0.0
 11
150.42376
 21
209.284019
 31
0.0
  0
LINE
  5
1018
100
AcDbEntity
  8
10000_FRONT
370
    50
390
0
  6
CONTINUOUS
 62
     7
100
AcDbLine
 10
130.049999
 20
206.584019
 30
0.0
 11
130.049999
 21
205.88402
 31
0.0
  0
LINE
  5
1019
100
AcDbEntity
  8
10000_FRONT
370
    50
390
0
  6
CONTINUOUS
 62
     7
100
AcDbLine
 10
131.049999
 20
205.88402
 30
0.0
 11
130.049999
 21
205.88402
 31
0.0
  0
LINE
  5
101A
100
AcDbEntity
  8
10000_FRONT
370
    50
390
0
  6
CONTINUOUS
 62
     7
100
AcDbLine
 10
131.049999
 20
205.88402
 30
0.0
 11
131.049999
 21
206.584019
 31
0.0
  0
LINE
  5
101B
100
AcDbEntity
  8
10000_FRONT
370
    50
390
0
  6
CONTINUOUS
 62
     7
100
AcDbLine
 10
130.049999
 20
205.584019
 30
0.0
 11
130.049999
 21
205.88402
 31
0.0
  0
LINE
  5
101C
100
AcDbEntity
  8
10000_FRONT
370
    50
390
0
  6
CONTINUOUS
 62
     7
100
AcDbLine
 10
131.049999
 20
205.584019
 30
0.0
 11
130.049999
 21
205.584019
 31
0.0
  0
LINE
  5
101D
100
AcDbEntity
  8
10000_FRONT
370
    50
390
0
  6
CONTINUOUS
 62
     7
100
AcDbLine
 10
131.049999
 20
205.584019
 30
0.0
 11
131.049999
 21
205.88402
 31
0.0
  0
LINE
  5
101E
100
AcDbEntity
  8
10000_FRONT
370
    50
390
0
  6
CONTINUOUS
 62
     7
100
AcDbLine
 10
170.950001
 20
206.584019
 30
0.0
 11
170.950001
 21
205.88402
 31
0.0
  0
LINE
  5
101F
100
AcDbEntity
  8
10000_FRONT
370
    50
390
0
  6
CONTINUOUS
 62
     7
100
AcDbLine
 10
171.950001
 20
205.88402
 30
0.0
 11
170.950001
 21
205.88402
 31
0.0
  0
LINE
  5
1020
100
AcDbEntity
  8
10000_FRONT
370
    50
390
0
  6
CONTINUOUS
 62
     7
100
AcDbLine
 10
171.950001
 20
205.88402
 30
0.0
 11
171.950001
 21
206.584019
 31
0.0
  0
LINE
  5
1021
100
AcDbEntity
  8
10000_FRONT
370
    50
390
0
  6
CONTINUOUS
 62
     7
100
AcDbLine
 10
170.950001
 20
205.584019
 30
0.0
 11
170.950001
 21
205.88402
 31
0.0
  0
LINE
  5
1022
100
AcDbEntity
  8
10000_FRONT
370
    50
390
0
  6
CONTINUOUS
 62
     7
100
AcDbLine
 10
171.950001
 20
205.584019
 30
0.0
 11
170.950001
 21
205.584019
 31
0.0
  0
LINE
  5
1023
100
AcDbEntity
  8
10000_FRONT
370
    50
390
0
  6
CONTINUOUS
 62
     7
100
AcDbLine
 10
171.950001
 20
205.584019
 30
0.0
 11
171.950001
 21
205.88402
 31
0.0
  0
LINE
  5
1024
100
AcDbEntity
  8
10000_FRONT
370
    50
390
0
  6
CONTINUOUS
 62
     7
100
AcDbLine
 10
172.049999
 20
222.384019
 30
0.0
 11
172.049999
 21
225.284019
 31
0.0
  0
LINE
  5
1025
100
AcDbEntity
  8
10000_FRONT
370
    50
390
0
  6
CONTINUOUS
 62
     7
100
AcDbLine
 10
172.049999
 20
222.384019
 30
0.0
 11
162.75
 21
222.384019
 31
0.0
  0
LINE
  5
1026
100
AcDbEntity
  8
10000_FRONT
370
    50
390
0
  6
CONTINUOUS
 62
     7
100
AcDbLine
 10
162.75
 20
222.384019
 30
0.0
 11
162.75
 21
225.284019
 31
0.0
  0
LINE
  5
1027
100
AcDbEntity
  8
10000_FRONT
370
    50
390
0
  6
CONTINUOUS
 62
     7
100
AcDbLine
 10
162.75
 20
225.284019
 30
0.0
 11
172.049999
 21
225.284019
 31
0.0
  0
LINE
  5
1028
100
AcDbEntity
  8
10000_FRONT
370
    50
390
0
  6
CONTINUOUS
 62
     7
100
AcDbLine
 10
142.8
 20
208.484018
 30
0.0
 11
142.8
 21
206.88402
 31
0.0
  0
LINE
  5
1029
100
AcDbEntity
  8
10000_FRONT
370
    50
390
0
  6
CONTINUOUS
 62
     7
100
AcDbLine
 10
142.8
 20
206.884018
 30
0.0
 11
142.799142
 21
206.861406
 31
0.0
  0
LINE
  5
102A
100
AcDbEntity
  8
10000_FRONT
370
    50
390
0
  6
CONTINUOUS
 62
     7
100
AcDbLine
 10
142.799142
 20
206.861406
 30
0.0
 11
142.796582
 21
206.838888
 31
0.0
  0
LINE
  5
102B
100
AcDbEntity
  8
10000_FRONT
370
    50
390
0
  6
CONTINUOUS
 62
     7
100
AcDbLine
 10
142.796582
 20
206.838888
 30
0.0
 11
142.792347
 21
206.81669
 31
0.0
  0
LINE
  5
102C
100
AcDbEntity
  8
10000_FRONT
370
    50
390
0
  6
CONTINUOUS
 62
     7
100
AcDbLine
 10
142.792347
 20
206.81669
 30
0.0
 11
142.786492
 21
206.795031
 31
0.0
  0
LINE
  5
102D
100
AcDbEntity
  8
10000_FRONT
370
    50
390
0
  6
CONTINUOUS
 62
     7
100
AcDbLine
 10
142.786492
 20
206.795031
 30
0.0
 11
142.779136
 21
206.774099
 31
0.0
  0
LINE
  5
102E
100
AcDbEntity
  8
10000_FRONT
370
    50
390
0
  6
CONTINUOUS
 62
     7
100
AcDbLine
 10
142.779136
 20
206.774099
 30
0.0
 11
142.770395
 21
206.754087
 31
0.0
  0
LINE
  5
102F
100
AcDbEntity
  8
10000_FRONT
370
    50
390
0
  6
CONTINUOUS
 62
     7
100
AcDbLine
 10
142.770395
 20
206.754087
 30
0.0
 11
142.760402
 21
206.73514
 31
0.0
  0
LINE
  5
1030
100
AcDbEntity
  8
10000_FRONT
370
    50
390
0
  6
CONTINUOUS
 62
     7
100
AcDbLine
 10
142.760402
 20
206.73514
 30
0.0
 11
142.74936
 21
206.717354
 31
0.0
  0
LINE
  5
1031
100
AcDbEntity
  8
10000_FRONT
370
    50
390
0
  6
CONTINUOUS
 62
     7
100
AcDbLine
 10
142.74936
 20
206.717354
 30
0.0
 11
142.737483
 21
206.700813
 31
0.0
  0
LINE
  5
1032
100
AcDbEntity
  8
10000_FRONT
370
    50
390
0
  6
CONTINUOUS
 62
     7
100
AcDbLine
 10
142.737483
 20
206.700813
 30
0.0
 11
142.724983
 21
206.685608
 31
0.0
  0
LINE
  5
1033
100
AcDbEntity
  8
10000_FRONT
370
    50
390
0
  6
CONTINUOUS
 62
     7
100
AcDbLine
 10
142.724983
 20
206.685608
 30
0.0
 11
142.712074
 21
206.671829
 31
0.0
  0
LINE
  5
1034
100
AcDbEntity
  8
10000_FRONT
370
    50
390
0
  6
CONTINUOUS
 62
     7
100
AcDbLine
 10
142.712074
 20
206.671829
 30
0.0
 11
142.698739
 21
206.659323
 31
0.0
  0
LINE
  5
1035
100
AcDbEntity
  8
10000_FRONT
370
    50
390
0
  6
CONTINUOUS
 62
     7
100
AcDbLine
 10
142.698739
 20
206.659323
 30
0.0
 11
142.684896
 21
206.647861
 31
0.0
  0
LINE
  5
1036
100
AcDbEntity
  8
10000_FRONT
370
    50
390
0
  6
CONTINUOUS
 62
     7
100
AcDbLine
 10
142.684896
 20
206.647861
 30
0.0
 11
142.670672
 21
206.637438
 31
0.0
  0
LINE
  5
1037
100
AcDbEntity
  8
10000_FRONT
370
    50
390
0
  6
CONTINUOUS
 62
     7
100
AcDbLine
 10
142.670672
 20
206.637438
 30
0.0
 11
142.656195
 21
206.628042
 31
0.0
  0
LINE
  5
1038
100
AcDbEntity
  8
10000_FRONT
370
    50
390
0
  6
CONTINUOUS
 62
     7
100
AcDbLine
 10
142.656195
 20
206.628042
 30
0.0
 11
142.641589
 21
206.619667
 31
0.0
  0
LINE
  5
1039
100
AcDbEntity
  8
10000_FRONT
370
    50
390
0
  6
CONTINUOUS
 62
     7
100
AcDbLine
 10
142.641589
 20
206.619667
 30
0.0
 11
142.626985
 21
206.612305
 31
0.0
  0
LINE
  5
103A
100
AcDbEntity
  8
10000_FRONT
370
    50
390
0
  6
CONTINUOUS
 62
     7
100
AcDbLine
 10
142.626985
 20
206.612305
 30
0.0
 11
142.612505
 21
206.605942
 31
0.0
  0
LINE
  5
103B
100
AcDbEntity
  8
10000_FRONT
370
    50
390
0
  6
CONTINUOUS
 62
     7
100
AcDbLine
 10
142.612505
 20
206.605942
 30
0.0
 11
142.598279
 21
206.600574
 31
0.0
  0
LINE
  5
103C
100
AcDbEntity
  8
10000_FRONT
370
    50
390
0
  6
CONTINUOUS
 62
     7
100
AcDbLine
 10
142.598279
 20
206.600574
 30
0.0
 11
142.584217
 21
206.596098
 31
0.0
  0
LINE
  5
103D
100
AcDbEntity
  8
10000_FRONT
370
    50
390
0
  6
CONTINUOUS
 62
     7
100
AcDbLine
 10
142.584217
 20
206.596098
 30
0.0
 11
142.570319
 21
206.592403
 31
0.0
  0
LINE
  5
103E
100
AcDbEntity
  8
10000_FRONT
370
    50
390
0
  6
CONTINUOUS
 62
     7
100
AcDbLine
 10
142.570319
 20
206.592403
 30
0.0
 11
142.556852
 21
206.58947
 31
0.0
  0
LINE
  5
103F
100
AcDbEntity
  8
10000_FRONT
370
    50
390
0
  6
CONTINUOUS
 62
     7
100
AcDbLine
 10
142.556852
 20
206.58947
 30
0.0
 11
142.544086
 21
206.587276
 31
0.0
  0
LINE
  5
1040
100
AcDbEntity
  8
10000_FRONT
370
    50
390
0
  6
CONTINUOUS
 62
     7
100
AcDbLine
 10
142.544086
 20
206.587276
 30
0.0
 11
142.531887
 21
206.585724
 31
0.0
  0
LINE
  5
1041
100
AcDbEntity
  8
10000_FRONT
370
    50
390
0
  6
CONTINUOUS
 62
     7
100
AcDbLine
 10
142.531887
 20
206.585724
 30
0.0
 11
142.520445
 21
206.584717
 31
0.0
  0
LINE
  5
1042
100
AcDbEntity
  8
10000_FRONT
370
    50
390
0
  6
CONTINUOUS
 62
     7
100
AcDbLine
 10
142.520445
 20
206.584717
 30
0.0
 11
142.509928
 21
206.584183
 31
0.0
  0
LINE
  5
1043
100
AcDbEntity
  8
10000_FRONT
370
    50
390
0
  6
CONTINUOUS
 62
     7
100
AcDbLine
 10
142.509928
 20
206.584183
 30
0.0
 11
142.5
 21
206.584019
 31
0.0
  0
LINE
  5
1044
100
AcDbEntity
  8
10000_FRONT
370
    50
390
0
  6
CONTINUOUS
 62
     7
100
AcDbLine
 10
142.5
 20
206.584019
 30
0.0
 11
128.799999
 21
206.584019
 31
0.0
  0
LINE
  5
1045
100
AcDbEntity
  8
10000_FRONT
370
    50
390
0
  6
CONTINUOUS
 62
     7
100
AcDbLine
 10
128.799999
 20
206.584019
 30
0.0
 11
128.790073
 21
206.584183
 31
0.0
  0
LINE
  5
1046
100
AcDbEntity
  8
10000_FRONT
370
    50
390
0
  6
CONTINUOUS
 62
     7
100
AcDbLine
 10
128.790073
 20
206.584183
 30
0.0
 11
128.779556
 21
206.584717
 31
0.0
  0
LINE
  5
1047
100
AcDbEntity
  8
10000_FRONT
370
    50
390
0
  6
CONTINUOUS
 62
     7
100
AcDbLine
 10
128.779556
 20
206.584717
 30
0.0
 11
128.768112
 21
206.585724
 31
0.0
  0
LINE
  5
1048
100
AcDbEntity
  8
10000_FRONT
370
    50
390
0
  6
CONTINUOUS
 62
     7
100
AcDbLine
 10
128.768112
 20
206.585724
 30
0.0
 11
128.755915
 21
206.587276
 31
0.0
  0
LINE
  5
1049
100
AcDbEntity
  8
10000_FRONT
370
    50
390
0
  6
CONTINUOUS
 62
     7
100
AcDbLine
 10
128.755915
 20
206.587276
 30
0.0
 11
128.743147
 21
206.58947
 31
0.0
  0
LINE
  5
104A
100
AcDbEntity
  8
10000_FRONT
370
    50
390
0
  6
CONTINUOUS
 62
     7
100
AcDbLine
 10
128.743147
 20
206.58947
 30
0.0
 11
128.729681
 21
206.592403
 31
0.0
  0
LINE
  5
104B
100
AcDbEntity
  8
10000_FRONT
370
    50
390
0
  6
CONTINUOUS
 62
     7
100
AcDbLine
 10
128.729681
 20
206.592403
 30
0.0
 11
128.715782
 21
206.596098
 31
0.0
  0
LINE
  5
104C
100
AcDbEntity
  8
10000_FRONT
370
    50
390
0
  6
CONTINUOUS
 62
     7
100
AcDbLine
 10
128.715782
 20
206.596098
 30
0.0
 11
128.701721
 21
206.600574
 31
0.0
  0
LINE
  5
104D
100
AcDbEntity
  8
10000_FRONT
370
    50
390
0
  6
CONTINUOUS
 62
     7
100
AcDbLine
 10
128.701721
 20
206.600574
 30
0.0
 11
128.687494
 21
206.605942
 31
0.0
  0
LINE
  5
104E
100
AcDbEntity
  8
10000_FRONT
370
    50
390
0
  6
CONTINUOUS
 62
     7
100
AcDbLine
 10
128.687494
 20
206.605942
 30
0.0
 11
128.673016
 21
206.612303
 31
0.0
  0
LINE
  5
104F
100
AcDbEntity
  8
10000_FRONT
370
    50
390
0
  6
CONTINUOUS
 62
     7
100
AcDbLine
 10
128.673016
 20
206.612303
 30
0.0
 11
128.658411
 21
206.619667
 31
0.0
  0
LINE
  5
1050
100
AcDbEntity
  8
10000_FRONT
370
    50
390
0
  6
CONTINUOUS
 62
     7
100
AcDbLine
 10
128.658411
 20
206.619667
 30
0.0
 11
128.643806
 21
206.628042
 31
0.0
  0
LINE
  5
1051
100
AcDbEntity
  8
10000_FRONT
370
    50
390
0
  6
CONTINUOUS
 62
     7
100
AcDbLine
 10
128.643806
 20
206.628042
 30
0.0
 11
128.629328
 21
206.637438
 31
0.0
  0
LINE
  5
1052
100
AcDbEntity
  8
10000_FRONT
370
    50
390
0
  6
CONTINUOUS
 62
     7
100
AcDbLine
 10
128.629328
 20
206.637438
 30
0.0
 11
128.615105
 21
206.647861
 31
0.0
  0
LINE
  5
1053
100
AcDbEntity
  8
10000_FRONT
370
    50
390
0
  6
CONTINUOUS
 62
     7
100
AcDbLine
 10
128.615105
 20
206.647861
 30
0.0
 11
128.601261
 21
206.659321
 31
0.0
  0
LINE
  5
1054
100
AcDbEntity
  8
10000_FRONT
370
    50
390
0
  6
CONTINUOUS
 62
     7
100
AcDbLine
 10
128.601261
 20
206.659321
 30
0.0
 11
128.587927
 21
206.671829
 31
0.0
  0
LINE
  5
1055
100
AcDbEntity
  8
10000_FRONT
370
    50
390
0
  6
CONTINUOUS
 62
     7
100
AcDbLine
 10
128.587927
 20
206.671829
 30
0.0
 11
128.575016
 21
206.685608
 31
0.0
  0
LINE
  5
1056
100
AcDbEntity
  8
10000_FRONT
370
    50
390
0
  6
CONTINUOUS
 62
     7
100
AcDbLine
 10
128.575016
 20
206.685608
 30
0.0
 11
128.562517
 21
206.700813
 31
0.0
  0
LINE
  5
1057
100
AcDbEntity
  8
10000_FRONT
370
    50
390
0
  6
CONTINUOUS
 62
     7
100
AcDbLine
 10
128.562517
 20
206.700813
 30
0.0
 11
128.55064
 21
206.717352
 31
0.0
  0
LINE
  5
1058
100
AcDbEntity
  8
10000_FRONT
370
    50
390
0
  6
CONTINUOUS
 62
     7
100
AcDbLine
 10
128.55064
 20
206.717352
 30
0.0
 11
128.539598
 21
206.73514
 31
0.0
  0
LINE
  5
1059
100
AcDbEntity
  8
10000_FRONT
370
    50
390
0
  6
CONTINUOUS
 62
     7
100
AcDbLine
 10
128.539598
 20
206.73514
 30
0.0
 11
128.529606
 21
206.754087
 31
0.0
  0
LINE
  5
105A
100
AcDbEntity
  8
10000_FRONT
370
    50
390
0
  6
CONTINUOUS
 62
     7
100
AcDbLine
 10
128.529606
 20
206.754087
 30
0.0
 11
128.520864
 21
206.774099
 31
0.0
  0
LINE
  5
105B
100
AcDbEntity
  8
10000_FRONT
370
    50
390
0
  6
CONTINUOUS
 62
     7
100
AcDbLine
 10
128.520864
 20
206.774099
 30
0.0
 11
128.513508
 21
206.795031
 31
0.0
  0
LINE
  5
105C
100
AcDbEntity
  8
10000_FRONT
370
    50
390
0
  6
CONTINUOUS
 62
     7
100
AcDbLine
 10
128.513508
 20
206.795031
 30
0.0
 11
128.507654
 21
206.81669
 31
0.0
  0
LINE
  5
105D
100
AcDbEntity
  8
10000_FRONT
370
    50
390
0
  6
CONTINUOUS
 62
     7
100
AcDbLine
 10
128.507654
 20
206.81669
 30
0.0
 11
128.503418
 21
206.838888
 31
0.0
  0
LINE
  5
105E
100
AcDbEntity
  8
10000_FRONT
370
    50
390
0
  6
CONTINUOUS
 62
     7
100
AcDbLine
 10
128.503418
 20
206.838888
 30
0.0
 11
128.500858
 21
206.861406
 31
0.0
  0
LINE
  5
105F
100
AcDbEntity
  8
10000_FRONT
370
    50
390
0
  6
CONTINUOUS
 62
     7
100
AcDbLine
 10
128.500858
 20
206.861406
 30
0.0
 11
128.5
 21
206.884018
 31
0.0
  0
LINE
  5
1060
100
AcDbEntity
  8
10000_FRONT
370
    50
390
0
  6
CONTINUOUS
 62
     7
100
AcDbLine
 10
152.095855
 20
208.984018
 30
0.0
 11
152.078195
 21
209.012422
 31
0.0
  0
LINE
  5
1061
100
AcDbEntity
  8
10000_FRONT
370
    50
390
0
  6
CONTINUOUS
 62
     7
100
AcDbLine
 10
152.078195
 20
209.012422
 30
0.0
 11
152.059267
 21
209.039699
 31
0.0
  0
LINE
  5
1062
100
AcDbEntity
  8
10000_FRONT
370
    50
390
0
  6
CONTINUOUS
 62
     7
100
AcDbLine
 10
152.059267
 20
209.039699
 30
0.0
 11
152.039102
 21
209.065657
 31
0.0
  0
LINE
  5
1063
100
AcDbEntity
  8
10000_FRONT
370
    50
390
0
  6
CONTINUOUS
 62
     7
100
AcDbLine
 10
152.039102
 20
209.065657
 30
0.0
 11
152.017841
 21
209.090168
 31
0.0
  0
LINE
  5
1064
100
AcDbEntity
  8
10000_FRONT
370
    50
390
0
  6
CONTINUOUS
 62
     7
100
AcDbLine
 10
152.017841
 20
209.090168
 30
0.0
 11
151.995606
 21
209.113123
 31
0.0
  0
LINE
  5
1065
100
AcDbEntity
  8
10000_FRONT
370
    50
390
0
  6
CONTINUOUS
 62
     7
100
AcDbLine
 10
151.995606
 20
209.113123
 30
0.0
 11
151.971975
 21
209.134943
 31
0.0
  0
LINE
  5
1066
100
AcDbEntity
  8
10000_FRONT
370
    50
390
0
  6
CONTINUOUS
 62
     7
100
AcDbLine
 10
151.971975
 20
209.134943
 30
0.0
 11
151.946811
 21
209.155754
 31
0.0
  0
LINE
  5
1067
100
AcDbEntity
  8
10000_FRONT
370
    50
390
0
  6
CONTINUOUS
 62
     7
100
AcDbLine
 10
151.946811
 20
209.155754
 30
0.0
 11
151.920246
 21
209.175415
 31
0.0
  0
LINE
  5
1068
100
AcDbEntity
  8
10000_FRONT
370
    50
390
0
  6
CONTINUOUS
 62
     7
100
AcDbLine
 10
151.920246
 20
209.175415
 30
0.0
 11
151.892408
 21
209.193781
 31
0.0
  0
LINE
  5
1069
100
AcDbEntity
  8
10000_FRONT
370
    50
390
0
  6
CONTINUOUS
 62
     7
100
AcDbLine
 10
151.892408
 20
209.193781
 30
0.0
 11
151.863426
 21
209.210712
 31
0.0
  0
LINE
  5
106A
100
AcDbEntity
  8
10000_FRONT
370
    50
390
0
  6
CONTINUOUS
 62
     7
100
AcDbLine
 10
151.863426
 20
209.210712
 30
0.0
 11
151.833431
 21
209.226067
 31
0.0
  0
LINE
  5
106B
100
AcDbEntity
  8
10000_FRONT
370
    50
390
0
  6
CONTINUOUS
 62
     7
100
AcDbLine
 10
151.833431
 20
209.226067
 30
0.0
 11
151.802551
 21
209.239702
 31
0.0
  0
LINE
  5
106C
100
AcDbEntity
  8
10000_FRONT
370
    50
390
0
  6
CONTINUOUS
 62
     7
100
AcDbLine
 10
151.802551
 20
209.239702
 30
0.0
 11
151.77093
 21
209.251507
 31
0.0
  0
LINE
  5
106D
100
AcDbEntity
  8
10000_FRONT
370
    50
390
0
  6
CONTINUOUS
 62
     7
100
AcDbLine
 10
151.77093
 20
209.251507
 30
0.0
 11
151.738753
 21
209.261475
 31
0.0
  0
LINE
  5
106E
100
AcDbEntity
  8
10000_FRONT
370
    50
390
0
  6
CONTINUOUS
 62
     7
100
AcDbLine
 10
151.738753
 20
209.261475
 30
0.0
 11
151.706212
 21
209.269613
 31
0.0
  0
LINE
  5
106F
100
AcDbEntity
  8
10000_FRONT
370
    50
390
0
  6
CONTINUOUS
 62
     7
100
AcDbLine
 10
151.706212
 20
209.269613
 30
0.0
 11
151.673497
 21
209.275927
 31
0.0
  0
LINE
  5
1070
100
AcDbEntity
  8
10000_FRONT
370
    50
390
0
  6
CONTINUOUS
 62
     7
100
AcDbLine
 10
151.673497
 20
209.275927
 30
0.0
 11
151.640803
 21
209.280428
 31
0.0
  0
LINE
  5
1071
100
AcDbEntity
  8
10000_FRONT
370
    50
390
0
  6
CONTINUOUS
 62
     7
100
AcDbLine
 10
151.640803
 20
209.280428
 30
0.0
 11
151.60832
 21
209.283123
 31
0.0
  0
LINE
  5
1072
100
AcDbEntity
  8
10000_FRONT
370
    50
390
0
  6
CONTINUOUS
 62
     7
100
AcDbLine
 10
151.60832
 20
209.283123
 30
0.0
 11
151.57624
 21
209.284019
 31
0.0
  0
LINE
  5
1073
100
AcDbEntity
  8
10000_FRONT
370
    50
390
0
  6
CONTINUOUS
 62
     7
100
AcDbLine
 10
128.5
 20
206.88402
 30
0.0
 11
128.5
 21
208.725025
 31
0.0
  0
LINE
  5
1074
100
AcDbEntity
  8
10000_FRONT
370
    50
390
0
  6
CONTINUOUS
 62
     7
100
AcDbLine
 10
128.5
 20
208.725025
 30
0.0
 11
128.5
 21
208.949909
 31
0.0
  0
LINE
  5
1075
100
AcDbEntity
  8
10000_FRONT
370
    50
390
0
  6
CONTINUOUS
 62
     7
100
AcDbLine
 10
128.5
 20
208.949909
 30
0.0
 11
128.5
 21
226.884019
 31
0.0
  0
LINE
  5
1076
100
AcDbEntity
  8
10000_FRONT
370
    50
390
0
  6
CONTINUOUS
 62
     7
100
AcDbLine
 10
152.115548
 20
208.949909
 30
0.0
 11
152.211325
 21
208.784019
 31
0.0
  0
LINE
  5
1077
100
AcDbEntity
  8
10000_FRONT
370
    50
390
0
  6
CONTINUOUS
 62
     7
100
AcDbLine
 10
152.095855
 20
208.984018
 30
0.0
 11
152.115548
 21
208.949909
 31
0.0
  0
LINE
  5
1078
100
AcDbEntity
  8
10000_FRONT
370
    50
390
0
  6
CONTINUOUS
 62
     7
100
AcDbLine
 10
128.5
 20
226.884019
 30
0.0
 11
128.500017
 21
226.887127
 31
0.0
  0
LINE
  5
1079
100
AcDbEntity
  8
10000_FRONT
370
    50
390
0
  6
CONTINUOUS
 62
     7
100
AcDbLine
 10
128.500017
 20
226.887127
 30
0.0
 11
128.500069
 21
226.890246
 31
0.0
  0
LINE
  5
107A
100
AcDbEntity
  8
10000_FRONT
370
    50
390
0
  6
CONTINUOUS
 62
     7
100
AcDbLine
 10
128.500069
 20
226.890246
 30
0.0
 11
128.500153
 21
226.893375
 31
0.0
  0
LINE
  5
107B
100
AcDbEntity
  8
10000_FRONT
370
    50
390
0
  6
CONTINUOUS
 62
     7
100
AcDbLine
 10
128.500153
 20
226.893375
 30
0.0
 11
128.500273
 21
226.896513
 31
0.0
  0
LINE
  5
107C
100
AcDbEntity
  8
10000_FRONT
370
    50
390
0
  6
CONTINUOUS
 62
     7
100
AcDbLine
 10
128.500273
 20
226.896513
 30
0.0
 11
128.500425
 21
226.89966
 31
0.0
  0
LINE
  5
107D
100
AcDbEntity
  8
10000_FRONT
370
    50
390
0
  6
CONTINUOUS
 62
     7
100
AcDbLine
 10
128.500425
 20
226.89966
 30
0.0
 11
128.500614
 21
226.902815
 31
0.0
  0
LINE
  5
107E
100
AcDbEntity
  8
10000_FRONT
370
    50
390
0
  6
CONTINUOUS
 62
     7
100
AcDbLine
 10
128.500614
 20
226.902815
 30
0.0
 11
128.500805
 21
226.905979
 31
0.0
  0
ARC
  5
107F
100
AcDbEntity
  8
10000_FRONT
370
    50
390
0
  6
CONTINUOUS
 62
     7
100
AcDbCircle
 10
128.8
 20
226.884019
 30
0.0
 40
0.3
100
AcDbArc
 50
90.000149
 51
175.802257
  0
ARC
  5
1080
100
AcDbEntity
  8
10000_FRONT
370
    50
390
0
  6
CONTINUOUS
 62
     7
100
AcDbCircle
 10
173.2
 20
226.884019
 30
0.0
 40
0.3
100
AcDbArc
 50
4.197743
 51
89.999851
  0
LINE
  5
1081
100
AcDbEntity
  8
10000_FRONT
370
    50
390
0
  6
CONTINUOUS
 62
     7
100
AcDbLine
 10
173.499195
 20
226.905979
 30
0.0
 11
173.499386
 21
226.902815
 31
0.0
  0
LINE
  5
1082
100
AcDbEntity
  8
10000_FRONT
370
    50
390
0
  6
CONTINUOUS
 62
     7
100
AcDbLine
 10
173.499386
 20
226.902815
 30
0.0
 11
173.499575
 21
226.89966
 31
0.0
  0
LINE
  5
1083
100
AcDbEntity
  8
10000_FRONT
370
    50
390
0
  6
CONTINUOUS
 62
     7
100
AcDbLine
 10
173.499575
 20
226.89966
 30
0.0
 11
173.499727
 21
226.896513
 31
0.0
  0
LINE
  5
1084
100
AcDbEntity
  8
10000_FRONT
370
    50
390
0
  6
CONTINUOUS
 62
     7
100
AcDbLine
 10
173.499727
 20
226.896513
 30
0.0
 11
173.499847
 21
226.893375
 31
0.0
  0
LINE
  5
1085
100
AcDbEntity
  8
10000_FRONT
370
    50
390
0
  6
CONTINUOUS
 62
     7
100
AcDbLine
 10
173.499847
 20
226.893375
 30
0.0
 11
173.499931
 21
226.890246
 31
0.0
  0
LINE
  5
1086
100
AcDbEntity
  8
10000_FRONT
370
    50
390
0
  6
CONTINUOUS
 62
     7
100
AcDbLine
 10
173.499931
 20
226.890246
 30
0.0
 11
173.499983
 21
226.887127
 31
0.0
  0
LINE
  5
1087
100
AcDbEntity
  8
10000_FRONT
370
    50
390
0
  6
CONTINUOUS
 62
     7
100
AcDbLine
 10
173.499983
 20
226.887127
 30
0.0
 11
173.5
 21
226.884019
 31
0.0
  0
LINE
  5
1088
100
AcDbEntity
  8
10000_FRONT
370
    50
390
0
  6
CONTINUOUS
 62
     7
100
AcDbLine
 10
173.5
 20
208.949909
 30
0.0
 11
173.5
 21
226.884019
 31
0.0
  0
LINE
  5
1089
100
AcDbEntity
  8
10000_FRONT
370
    50
390
0
  6
CONTINUOUS
 62
     7
100
AcDbLine
 10
173.5
 20
208.725025
 30
0.0
 11
173.5
 21
208.949909
 31
0.0
  0
LINE
  5
108A
100
AcDbEntity
  8
10000_FRONT
370
    50
390
0
  6
CONTINUOUS
 62
     7
100
AcDbLine
 10
173.5
 20
208.725025
 30
0.0
 11
173.5
 21
206.88402
 31
0.0
  0
LINE
  5
108B
100
AcDbEntity
  8
10000_FRONT
370
    50
390
0
  6
CONTINUOUS
 62
     7
100
AcDbLine
 10
173.5
 20
206.884018
 30
0.0
 11
173.498817
 21
206.857477
 31
0.0
  0
LINE
  5
108C
100
AcDbEntity
  8
10000_FRONT
370
    50
390
0
  6
CONTINUOUS
 62
     7
100
AcDbLine
 10
173.498817
 20
206.857477
 30
0.0
 11
173.495298
 21
206.831119
 31
0.0
  0
LINE
  5
108D
100
AcDbEntity
  8
10000_FRONT
370
    50
390
0
  6
CONTINUOUS
 62
     7
100
AcDbLine
 10
173.495298
 20
206.831119
 30
0.0
 11
173.489487
 21
206.805309
 31
0.0
  0
LINE
  5
108E
100
AcDbEntity
  8
10000_FRONT
370
    50
390
0
  6
CONTINUOUS
 62
     7
100
AcDbLine
 10
173.489487
 20
206.805309
 30
0.0
 11
173.481525
 21
206.780382
 31
0.0
  0
LINE
  5
108F
100
AcDbEntity
  8
10000_FRONT
370
    50
390
0
  6
CONTINUOUS
 62
     7
100
AcDbLine
 10
173.481525
 20
206.780382
 30
0.0
 11
173.471609
 21
206.756639
 31
0.0
  0
LINE
  5
1090
100
AcDbEntity
  8
10000_FRONT
370
    50
390
0
  6
CONTINUOUS
 62
     7
100
AcDbLine
 10
173.471609
 20
206.756639
 30
0.0
 11
173.459942
 21
206.734342
 31
0.0
  0
LINE
  5
1091
100
AcDbEntity
  8
10000_FRONT
370
    50
390
0
  6
CONTINUOUS
 62
     7
100
AcDbLine
 10
173.459942
 20
206.734342
 30
0.0
 11
173.446842
 21
206.713648
 31
0.0
  0
LINE
  5
1092
100
AcDbEntity
  8
10000_FRONT
370
    50
390
0
  6
CONTINUOUS
 62
     7
100
AcDbLine
 10
173.446842
 20
206.713648
 30
0.0
 11
173.432655
 21
206.6947
 31
0.0
  0
LINE
  5
1093
100
AcDbEntity
  8
10000_FRONT
370
    50
390
0
  6
CONTINUOUS
 62
     7
100
AcDbLine
 10
173.432655
 20
206.6947
 30
0.0
 11
173.417723
 21
206.677639
 31
0.0
  0
LINE
  5
1094
100
AcDbEntity
  8
10000_FRONT
370
    50
390
0
  6
CONTINUOUS
 62
     7
100
AcDbLine
 10
173.417723
 20
206.677639
 30
0.0
 11
173.402271
 21
206.662483
 31
0.0
  0
LINE
  5
1095
100
AcDbEntity
  8
10000_FRONT
370
    50
390
0
  6
CONTINUOUS
 62
     7
100
AcDbLine
 10
173.402271
 20
206.662483
 30
0.0
 11
173.386116
 21
206.648817
 31
0.0
  0
LINE
  5
1096
100
AcDbEntity
  8
10000_FRONT
370
    50
390
0
  6
CONTINUOUS
 62
     7
100
AcDbLine
 10
173.386116
 20
206.648817
 30
0.0
 11
173.369421
 21
206.636579
 31
0.0
  0
LINE
  5
1097
100
AcDbEntity
  8
10000_FRONT
370
    50
390
0
  6
CONTINUOUS
 62
     7
100
AcDbLine
 10
173.369421
 20
206.636579
 30
0.0
 11
173.352392
 21
206.625759
 31
0.0
  0
LINE
  5
1098
100
AcDbEntity
  8
10000_FRONT
370
    50
390
0
  6
CONTINUOUS
 62
     7
100
AcDbLine
 10
173.352392
 20
206.625759
 30
0.0
 11
173.335232
 21
206.616342
 31
0.0
  0
LINE
  5
1099
100
AcDbEntity
  8
10000_FRONT
370
    50
390
0
  6
CONTINUOUS
 62
     7
100
AcDbLine
 10
173.335232
 20
206.616342
 30
0.0
 11
173.318148
 21
206.608313
 31
0.0
  0
LINE
  5
109A
100
AcDbEntity
  8
10000_FRONT
370
    50
390
0
  6
CONTINUOUS
 62
     7
100
AcDbLine
 10
173.318148
 20
206.608313
 30
0.0
 11
173.301344
 21
206.601656
 31
0.0
  0
LINE
  5
109B
100
AcDbEntity
  8
10000_FRONT
370
    50
390
0
  6
CONTINUOUS
 62
     7
100
AcDbLine
 10
173.301344
 20
206.601656
 30
0.0
 11
173.284826
 21
206.596277
 31
0.0
  0
LINE
  5
109C
100
AcDbEntity
  8
10000_FRONT
370
    50
390
0
  6
CONTINUOUS
 62
     7
100
AcDbLine
 10
173.284826
 20
206.596277
 30
0.0
 11
173.268532
 21
206.591978
 31
0.0
  0
LINE
  5
109D
100
AcDbEntity
  8
10000_FRONT
370
    50
390
0
  6
CONTINUOUS
 62
     7
100
AcDbLine
 10
173.268532
 20
206.591978
 30
0.0
 11
173.25288
 21
206.588726
 31
0.0
  0
LINE
  5
109E
100
AcDbEntity
  8
10000_FRONT
370
    50
390
0
  6
CONTINUOUS
 62
     7
100
AcDbLine
 10
173.25288
 20
206.588726
 30
0.0
 11
173.238205
 21
206.586464
 31
0.0
  0
LINE
  5
109F
100
AcDbEntity
  8
10000_FRONT
370
    50
390
0
  6
CONTINUOUS
 62
     7
100
AcDbLine
 10
173.238205
 20
206.586464
 30
0.0
 11
173.224291
 21
206.585005
 31
0.0
  0
LINE
  5
10A0
100
AcDbEntity
  8
10000_FRONT
370
    50
390
0
  6
CONTINUOUS
 62
     7
100
AcDbLine
 10
173.224291
 20
206.585005
 30
0.0
 11
173.21167
 21
206.584246
 31
0.0
  0
LINE
  5
10A1
100
AcDbEntity
  8
10000_FRONT
370
    50
390
0
  6
CONTINUOUS
 62
     7
100
AcDbLine
 10
173.21167
 20
206.584246
 30
0.0
 11
173.200001
 21
206.584019
 31
0.0
  0
LINE
  5
10A2
100
AcDbEntity
  8
10000_FRONT
370
    50
390
0
  6
CONTINUOUS
 62
     7
100
AcDbLine
 10
149.788675
 20
208.784019
 30
0.0
 11
143.1
 21
208.784019
 31
0.0
  0
LINE
  5
10A3
100
AcDbEntity
  8
10000_FRONT
370
    50
390
0
  6
CONTINUOUS
 62
     7
100
AcDbLine
 10
143.1
 20
208.784019
 30
0.0
 11
143.083245
 21
208.783531
 31
0.0
  0
LINE
  5
10A4
100
AcDbEntity
  8
10000_FRONT
370
    50
390
0
  6
CONTINUOUS
 62
     7
100
AcDbLine
 10
143.083245
 20
208.783531
 30
0.0
 11
143.066273
 21
208.782061
 31
0.0
  0
LINE
  5
10A5
100
AcDbEntity
  8
10000_FRONT
370
    50
390
0
  6
CONTINUOUS
 62
     7
100
AcDbLine
 10
143.066273
 20
208.782061
 30
0.0
 11
143.049195
 21
208.779606
 31
0.0
  0
LINE
  5
10A6
100
AcDbEntity
  8
10000_FRONT
370
    50
390
0
  6
CONTINUOUS
 62
     7
100
AcDbLine
 10
143.049195
 20
208.779606
 30
0.0
 11
143.03212
 21
208.776161
 31
0.0
  0
LINE
  5
10A7
100
AcDbEntity
  8
10000_FRONT
370
    50
390
0
  6
CONTINUOUS
 62
     7
100
AcDbLine
 10
143.03212
 20
208.776161
 30
0.0
 11
143.015155
 21
208.771721
 31
0.0
  0
LINE
  5
10A8
100
AcDbEntity
  8
10000_FRONT
370
    50
390
0
  6
CONTINUOUS
 62
     7
100
AcDbLine
 10
143.015155
 20
208.771721
 30
0.0
 11
142.998412
 21
208.766281
 31
0.0
  0
LINE
  5
10A9
100
AcDbEntity
  8
10000_FRONT
370
    50
390
0
  6
CONTINUOUS
 62
     7
100
AcDbLine
 10
142.998412
 20
208.766281
 30
0.0
 11
142.981998
 21
208.759836
 31
0.0
  0
LINE
  5
10AA
100
AcDbEntity
  8
10000_FRONT
370
    50
390
0
  6
CONTINUOUS
 62
     7
100
AcDbLine
 10
142.981998
 20
208.759836
 30
0.0
 11
142.966015
 21
208.752407
 31
0.0
  0
LINE
  5
10AB
100
AcDbEntity
  8
10000_FRONT
370
    50
390
0
  6
CONTINUOUS
 62
     7
100
AcDbLine
 10
142.966015
 20
208.752407
 30
0.0
 11
142.950537
 21
208.744064
 31
0.0
  0
LINE
  5
10AC
100
AcDbEntity
  8
10000_FRONT
370
    50
390
0
  6
CONTINUOUS
 62
     7
100
AcDbLine
 10
142.950537
 20
208.744064
 30
0.0
 11
142.935638
 21
208.734892
 31
0.0
  0
LINE
  5
10AD
100
AcDbEntity
  8
10000_FRONT
370
    50
390
0
  6
CONTINUOUS
 62
     7
100
AcDbLine
 10
142.935638
 20
208.734892
 30
0.0
 11
142.921393
 21
208.724968
 31
0.0
  0
ARC
  5
10AE
100
AcDbEntity
  8
10000_FRONT
370
    50
390
0
  6
CONTINUOUS
 62
     7
100
AcDbCircle
 10
143.1
 20
208.484019
 30
0.0
 40
0.3
100
AcDbArc
 50
126.548269
 51
180.000143
  0
LINE
  5
10AF
100
AcDbEntity
  8
10000_FRONT
370
    50
390
0
  6
CONTINUOUS
 62
     7
100
AcDbLine
 10
173.200001
 20
206.584019
 30
0.0
 11
159.5
 21
206.584019
 31
0.0
  0
LINE
  5
10B0
100
AcDbEntity
  8
10000_FRONT
370
    50
390
0
  6
CONTINUOUS
 62
     7
100
AcDbLine
 10
159.5
 20
206.584019
 30
0.0
 11
159.490072
 21
206.584183
 31
0.0
  0
LINE
  5
10B1
100
AcDbEntity
  8
10000_FRONT
370
    50
390
0
  6
CONTINUOUS
 62
     7
100
AcDbLine
 10
159.490072
 20
206.584183
 30
0.0
 11
159.479555
 21
206.584717
 31
0.0
  0
LINE
  5
10B2
100
AcDbEntity
  8
10000_FRONT
370
    50
390
0
  6
CONTINUOUS
 62
     7
100
AcDbLine
 10
159.479555
 20
206.584717
 30
0.0
 11
159.468113
 21
206.585724
 31
0.0
  0
LINE
  5
10B3
100
AcDbEntity
  8
10000_FRONT
370
    50
390
0
  6
CONTINUOUS
 62
     7
100
AcDbLine
 10
159.468113
 20
206.585724
 30
0.0
 11
159.455914
 21
206.587276
 31
0.0
  0
LINE
  5
10B4
100
AcDbEntity
  8
10000_FRONT
370
    50
390
0
  6
CONTINUOUS
 62
     7
100
AcDbLine
 10
159.455914
 20
206.587276
 30
0.0
 11
159.443148
 21
206.58947
 31
0.0
  0
LINE
  5
10B5
100
AcDbEntity
  8
10000_FRONT
370
    50
390
0
  6
CONTINUOUS
 62
     7
100
AcDbLine
 10
159.443148
 20
206.58947
 30
0.0
 11
159.429681
 21
206.592403
 31
0.0
  0
LINE
  5
10B6
100
AcDbEntity
  8
10000_FRONT
370
    50
390
0
  6
CONTINUOUS
 62
     7
100
AcDbLine
 10
159.429681
 20
206.592403
 30
0.0
 11
159.415783
 21
206.596098
 31
0.0
  0
LINE
  5
10B7
100
AcDbEntity
  8
10000_FRONT
370
    50
390
0
  6
CONTINUOUS
 62
     7
100
AcDbLine
 10
159.415783
 20
206.596098
 30
0.0
 11
159.401721
 21
206.600574
 31
0.0
  0
LINE
  5
10B8
100
AcDbEntity
  8
10000_FRONT
370
    50
390
0
  6
CONTINUOUS
 62
     7
100
AcDbLine
 10
159.401721
 20
206.600574
 30
0.0
 11
159.387495
 21
206.605942
 31
0.0
  0
LINE
  5
10B9
100
AcDbEntity
  8
10000_FRONT
370
    50
390
0
  6
CONTINUOUS
 62
     7
100
AcDbLine
 10
159.387495
 20
206.605942
 30
0.0
 11
159.373016
 21
206.612303
 31
0.0
  0
LINE
  5
10BA
100
AcDbEntity
  8
10000_FRONT
370
    50
390
0
  6
CONTINUOUS
 62
     7
100
AcDbLine
 10
159.373016
 20
206.612303
 30
0.0
 11
159.358411
 21
206.619667
 31
0.0
  0
LINE
  5
10BB
100
AcDbEntity
  8
10000_FRONT
370
    50
390
0
  6
CONTINUOUS
 62
     7
100
AcDbLine
 10
159.358411
 20
206.619667
 30
0.0
 11
159.343805
 21
206.628042
 31
0.0
  0
LINE
  5
10BC
100
AcDbEntity
  8
10000_FRONT
370
    50
390
0
  6
CONTINUOUS
 62
     7
100
AcDbLine
 10
159.343805
 20
206.628042
 30
0.0
 11
159.329329
 21
206.637438
 31
0.0
  0
LINE
  5
10BD
100
AcDbEntity
  8
10000_FRONT
370
    50
390
0
  6
CONTINUOUS
 62
     7
100
AcDbLine
 10
159.329329
 20
206.637438
 30
0.0
 11
159.315104
 21
206.647861
 31
0.0
  0
LINE
  5
10BE
100
AcDbEntity
  8
10000_FRONT
370
    50
390
0
  6
CONTINUOUS
 62
     7
100
AcDbLine
 10
159.315104
 20
206.647861
 30
0.0
 11
159.301262
 21
206.659321
 31
0.0
  0
LINE
  5
10BF
100
AcDbEntity
  8
10000_FRONT
370
    50
390
0
  6
CONTINUOUS
 62
     7
100
AcDbLine
 10
159.301262
 20
206.659321
 30
0.0
 11
159.287927
 21
206.671829
 31
0.0
  0
LINE
  5
10C0
100
AcDbEntity
  8
10000_FRONT
370
    50
390
0
  6
CONTINUOUS
 62
     7
100
AcDbLine
 10
159.287927
 20
206.671829
 30
0.0
 11
159.275017
 21
206.685608
 31
0.0
  0
LINE
  5
10C1
100
AcDbEntity
  8
10000_FRONT
370
    50
390
0
  6
CONTINUOUS
 62
     7
100
AcDbLine
 10
159.275017
 20
206.685608
 30
0.0
 11
159.262517
 21
206.700813
 31
0.0
  0
LINE
  5
10C2
100
AcDbEntity
  8
10000_FRONT
370
    50
390
0
  6
CONTINUOUS
 62
     7
100
AcDbLine
 10
159.262517
 20
206.700813
 30
0.0
 11
159.25064
 21
206.717352
 31
0.0
  0
LINE
  5
10C3
100
AcDbEntity
  8
10000_FRONT
370
    50
390
0
  6
CONTINUOUS
 62
     7
100
AcDbLine
 10
159.25064
 20
206.717352
 30
0.0
 11
159.239598
 21
206.73514
 31
0.0
  0
LINE
  5
10C4
100
AcDbEntity
  8
10000_FRONT
370
    50
390
0
  6
CONTINUOUS
 62
     7
100
AcDbLine
 10
159.239598
 20
206.73514
 30
0.0
 11
159.229606
 21
206.754087
 31
0.0
  0
LINE
  5
10C5
100
AcDbEntity
  8
10000_FRONT
370
    50
390
0
  6
CONTINUOUS
 62
     7
100
AcDbLine
 10
159.229606
 20
206.754087
 30
0.0
 11
159.220865
 21
206.774099
 31
0.0
  0
LINE
  5
10C6
100
AcDbEntity
  8
10000_FRONT
370
    50
390
0
  6
CONTINUOUS
 62
     7
100
AcDbLine
 10
159.220865
 20
206.774099
 30
0.0
 11
159.213508
 21
206.795031
 31
0.0
  0
LINE
  5
10C7
100
AcDbEntity
  8
10000_FRONT
370
    50
390
0
  6
CONTINUOUS
 62
     7
100
AcDbLine
 10
159.213508
 20
206.795031
 30
0.0
 11
159.207654
 21
206.81669
 31
0.0
  0
LINE
  5
10C8
100
AcDbEntity
  8
10000_FRONT
370
    50
390
0
  6
CONTINUOUS
 62
     7
100
AcDbLine
 10
159.207654
 20
206.81669
 30
0.0
 11
159.203418
 21
206.838888
 31
0.0
  0
LINE
  5
10C9
100
AcDbEntity
  8
10000_FRONT
370
    50
390
0
  6
CONTINUOUS
 62
     7
100
AcDbLine
 10
159.203418
 20
206.838888
 30
0.0
 11
159.200858
 21
206.861406
 31
0.0
  0
LINE
  5
10CA
100
AcDbEntity
  8
10000_FRONT
370
    50
390
0
  6
CONTINUOUS
 62
     7
100
AcDbLine
 10
159.200858
 20
206.861406
 30
0.0
 11
159.2
 21
206.884018
 31
0.0
  0
LINE
  5
10CB
100
AcDbEntity
  8
10000_FRONT
370
    50
390
0
  6
CONTINUOUS
 62
     7
100
AcDbLine
 10
159.2
 20
206.88402
 30
0.0
 11
159.2
 21
208.484018
 31
0.0
  0
ARC
  5
10CC
100
AcDbEntity
  8
10000_FRONT
370
    50
390
0
  6
CONTINUOUS
 62
     7
100
AcDbCircle
 10
158.9
 20
208.484019
 30
0.0
 40
0.3
100
AcDbArc
 50
359.999857
 51
53.451731
  0
LINE
  5
10CD
100
AcDbEntity
  8
10000_FRONT
370
    50
390
0
  6
CONTINUOUS
 62
     7
100
AcDbLine
 10
159.07865
 20
208.725025
 30
0.0
 11
159.064363
 21
208.734892
 31
0.0
  0
LINE
  5
10CE
100
AcDbEntity
  8
10000_FRONT
370
    50
390
0
  6
CONTINUOUS
 62
     7
100
AcDbLine
 10
159.064363
 20
208.734892
 30
0.0
 11
159.049464
 21
208.744064
 31
0.0
  0
LINE
  5
10CF
100
AcDbEntity
  8
10000_FRONT
370
    50
390
0
  6
CONTINUOUS
 62
     7
100
AcDbLine
 10
159.049464
 20
208.744064
 30
0.0
 11
159.033986
 21
208.752407
 31
0.0
  0
LINE
  5
10D0
100
AcDbEntity
  8
10000_FRONT
370
    50
390
0
  6
CONTINUOUS
 62
     7
100
AcDbLine
 10
159.033986
 20
208.752407
 30
0.0
 11
159.018002
 21
208.759836
 31
0.0
  0
LINE
  5
10D1
100
AcDbEntity
  8
10000_FRONT
370
    50
390
0
  6
CONTINUOUS
 62
     7
100
AcDbLine
 10
159.018002
 20
208.759836
 30
0.0
 11
159.001588
 21
208.766281
 31
0.0
  0
LINE
  5
10D2
100
AcDbEntity
  8
10000_FRONT
370
    50
390
0
  6
CONTINUOUS
 62
     7
100
AcDbLine
 10
159.001588
 20
208.766281
 30
0.0
 11
158.984845
 21
208.771721
 31
0.0
  0
LINE
  5
10D3
100
AcDbEntity
  8
10000_FRONT
370
    50
390
0
  6
CONTINUOUS
 62
     7
100
AcDbLine
 10
158.984845
 20
208.771721
 30
0.0
 11
158.967881
 21
208.776161
 31
0.0
  0
LINE
  5
10D4
100
AcDbEntity
  8
10000_FRONT
370
    50
390
0
  6
CONTINUOUS
 62
     7
100
AcDbLine
 10
158.967881
 20
208.776161
 30
0.0
 11
158.950805
 21
208.779606
 31
0.0
  0
LINE
  5
10D5
100
AcDbEntity
  8
10000_FRONT
370
    50
390
0
  6
CONTINUOUS
 62
     7
100
AcDbLine
 10
158.950805
 20
208.779606
 30
0.0
 11
158.933726
 21
208.782061
 31
0.0
  0
LINE
  5
10D6
100
AcDbEntity
  8
10000_FRONT
370
    50
390
0
  6
CONTINUOUS
 62
     7
100
AcDbLine
 10
158.933726
 20
208.782061
 30
0.0
 11
158.916755
 21
208.783531
 31
0.0
  0
LINE
  5
10D7
100
AcDbEntity
  8
10000_FRONT
370
    50
390
0
  6
CONTINUOUS
 62
     7
100
AcDbLine
 10
158.916755
 20
208.783531
 30
0.0
 11
158.9
 21
208.784019
 31
0.0
  0
LINE
  5
10D8
100
AcDbEntity
  8
10000_FRONT
370
    50
390
0
  6
CONTINUOUS
 62
     7
100
AcDbLine
 10
158.9
 20
208.784019
 30
0.0
 11
152.211325
 21
208.784019
 31
0.0
  0
LINE
  5
10D9
100
AcDbEntity
  8
10000_FRONT
370
    50
390
0
  6
CONTINUOUS
 62
     7
100
AcDbLine
 10
150.42376
 20
209.284019
 30
0.0
 11
150.39168
 21
209.283123
 31
0.0
  0
LINE
  5
10DA
100
AcDbEntity
  8
10000_FRONT
370
    50
390
0
  6
CONTINUOUS
 62
     7
100
AcDbLine
 10
150.39168
 20
209.283123
 30
0.0
 11
150.359197
 21
209.280428
 31
0.0
  0
LINE
  5
10DB
100
AcDbEntity
  8
10000_FRONT
370
    50
390
0
  6
CONTINUOUS
 62
     7
100
AcDbLine
 10
150.359197
 20
209.280428
 30
0.0
 11
150.326503
 21
209.275927
 31
0.0
  0
LINE
  5
10DC
100
AcDbEntity
  8
10000_FRONT
370
    50
390
0
  6
CONTINUOUS
 62
     7
100
AcDbLine
 10
150.326503
 20
209.275927
 30
0.0
 11
150.293788
 21
209.269613
 31
0.0
  0
LINE
  5
10DD
100
AcDbEntity
  8
10000_FRONT
370
    50
390
0
  6
CONTINUOUS
 62
     7
100
AcDbLine
 10
150.293788
 20
209.269613
 30
0.0
 11
150.261247
 21
209.261475
 31
0.0
  0
LINE
  5
10DE
100
AcDbEntity
  8
10000_FRONT
370
    50
390
0
  6
CONTINUOUS
 62
     7
100
AcDbLine
 10
150.261247
 20
209.261475
 30
0.0
 11
150.22907
 21
209.251507
 31
0.0
  0
LINE
  5
10DF
100
AcDbEntity
  8
10000_FRONT
370
    50
390
0
  6
CONTINUOUS
 62
     7
100
AcDbLine
 10
150.22907
 20
209.251507
 30
0.0
 11
150.197449
 21
209.239702
 31
0.0
  0
LINE
  5
10E0
100
AcDbEntity
  8
10000_FRONT
370
    50
390
0
  6
CONTINUOUS
 62
     7
100
AcDbLine
 10
150.197449
 20
209.239702
 30
0.0
 11
150.166569
 21
209.226067
 31
0.0
  0
LINE
  5
10E1
100
AcDbEntity
  8
10000_FRONT
370
    50
390
0
  6
CONTINUOUS
 62
     7
100
AcDbLine
 10
150.166569
 20
209.226067
 30
0.0
 11
150.136574
 21
209.210712
 31
0.0
  0
LINE
  5
10E2
100
AcDbEntity
  8
10000_FRONT
370
    50
390
0
  6
CONTINUOUS
 62
     7
100
AcDbLine
 10
150.136574
 20
209.210712
 30
0.0
 11
150.107592
 21
209.193781
 31
0.0
  0
LINE
  5
10E3
100
AcDbEntity
  8
10000_FRONT
370
    50
390
0
  6
CONTINUOUS
 62
     7
100
AcDbLine
 10
150.107592
 20
209.193781
 30
0.0
 11
150.079754
 21
209.175415
 31
0.0
  0
LINE
  5
10E4
100
AcDbEntity
  8
10000_FRONT
370
    50
390
0
  6
CONTINUOUS
 62
     7
100
AcDbLine
 10
150.079754
 20
209.175415
 30
0.0
 11
150.053189
 21
209.155754
 31
0.0
  0
LINE
  5
10E5
100
AcDbEntity
  8
10000_FRONT
370
    50
390
0
  6
CONTINUOUS
 62
     7
100
AcDbLine
 10
150.053189
 20
209.155754
 30
0.0
 11
150.028025
 21
209.134943
 31
0.0
  0
LINE
  5
10E6
100
AcDbEntity
  8
10000_FRONT
370
    50
390
0
  6
CONTINUOUS
 62
     7
100
AcDbLine
 10
150.028025
 20
209.134943
 30
0.0
 11
150.004394
 21
209.113123
 31
0.0
  0
LINE
  5
10E7
100
AcDbEntity
  8
10000_FRONT
370
    50
390
0
  6
CONTINUOUS
 62
     7
100
AcDbLine
 10
150.004394
 20
209.113123
 30
0.0
 11
149.982159
 21
209.090168
 31
0.0
  0
LINE
  5
10E8
100
AcDbEntity
  8
10000_FRONT
370
    50
390
0
  6
CONTINUOUS
 62
     7
100
AcDbLine
 10
149.982159
 20
209.090168
 30
0.0
 11
149.960898
 21
209.065657
 31
0.0
  0
LINE
  5
10E9
100
AcDbEntity
  8
10000_FRONT
370
    50
390
0
  6
CONTINUOUS
 62
     7
100
AcDbLine
 10
149.960898
 20
209.065657
 30
0.0
 11
149.940733
 21
209.039699
 31
0.0
  0
LINE
  5
10EA
100
AcDbEntity
  8
10000_FRONT
370
    50
390
0
  6
CONTINUOUS
 62
     7
100
AcDbLine
 10
149.940733
 20
209.039699
 30
0.0
 11
149.921805
 21
209.012422
 31
0.0
  0
LINE
  5
10EB
100
AcDbEntity
  8
10000_FRONT
370
    50
390
0
  6
CONTINUOUS
 62
     7
100
AcDbLine
 10
149.921805
 20
209.012422
 30
0.0
 11
149.904145
 21
208.984018
 31
0.0
  0
LINE
  5
10EC
100
AcDbEntity
  8
10000_FRONT
370
    50
390
0
  6
CONTINUOUS
 62
     7
100
AcDbLine
 10
149.884452
 20
208.949909
 30
0.0
 11
149.904145
 21
208.984018
 31
0.0
  0
LINE
  5
10ED
100
AcDbEntity
  8
10000_FRONT
370
    50
390
0
  6
CONTINUOUS
 62
     7
100
AcDbLine
 10
149.788675
 20
208.784019
 30
0.0
 11
149.884452
 21
208.949909
 31
0.0
  0
LINE
  5
10EE
100
AcDbEntity
  8
10000_FRONT
370
    50
390
0
  6
CONTINUOUS
 62
     7
100
AcDbLine
 10
128.799999
 20
227.184018
 30
0.0
 11
173.200001
 21
227.184018
 31
0.0
  0
LINE
  5
10EF
100
AcDbEntity
  8
10000_FRONT
370
    50
390
0
  6
CONTINUOUS
 62
     7
100
AcDbLine
 10
128.5
 20
208.949909
 30
0.0
 11
149.884452
 21
208.949909
 31
0.0
  0
LINE
  5
10F0
100
AcDbEntity
  8
10000_FRONT
370
    50
390
0
  6
CONTINUOUS
 62
     7
100
AcDbLine
 10
152.115548
 20
208.949909
 30
0.0
 11
173.5
 21
208.949909
 31
0.0
  0
LINE
  5
10F1
100
AcDbEntity
  8
10000_FRONT
370
    50
390
0
  6
CONTINUOUS
 62
     7
100
AcDbLine
 10
128.500805
 20
226.905979
 30
0.0
 11
173.499195
 21
226.905979
 31
0.0
  0
LINE
  5
10F2
100
AcDbEntity
  8
10000_FRONT
370
    50
390
0
  6
CONTINUOUS
 62
     7
100
AcDbLine
 10
159.07865
 20
208.725025
 30
0.0
 11
173.5
 21
208.725025
 31
0.0
  0
LINE
  5
10F3
100
AcDbEntity
  8
10000_FRONT
370
    50
390
0
  6
CONTINUOUS
 62
     7
100
AcDbLine
 10
128.5
 20
208.725025
 30
0.0
 11
142.92135
 21
208.725025
 31
0.0
  0
LINE
  5
10F4
100
AcDbEntity
  8
10000_FRONT
370
    50
390
0
  6
CONTINUOUS
 62
     7
100
AcDbLine
 10
159.2
 20
206.884018
 30
0.0
 11
173.5
 21
206.884018
 31
0.0
  0
LINE
  5
10F5
100
AcDbEntity
  8
10000_FRONT
370
    50
390
0
  6
CONTINUOUS
 62
     7
100
AcDbLine
 10
128.5
 20
206.884018
 30
0.0
 11
142.8
 21
206.884018
 31
0.0
  0
LINE
  5
10F6
100
AcDbEntity
  8
90000_FRAME
370
    13
  6
CONTINUOUS
 62
     7
100
AcDbLine
 10
50.704072
 20
59.496858
 30
0.0
 11
50.704072
 21
329.496858
 31
0.0
  0
LINE
  5
10F7
100
AcDbEntity
  8
90000_FRAME
370
    13
  6
CONTINUOUS
 62
     7
100
AcDbLine
 10
250.704072
 20
329.496858
 30
0.0
 11
50.704072
 21
329.496858
 31
0.0
  0
LINE
  5
10F8
100
AcDbEntity
  8
91000_TIP
370
    13
  6
CONTINUOUS
 62
     7
100
AcDbLine
 10
82.083533
 20
75.706949
 30
0.0
 11
92.083533
 21
78.206949
 31
0.0
  0
LINE
  5
10F9
100
AcDbEntity
  8
91000_TIP
370
    13
  6
CONTINUOUS
 62
     7
100
AcDbLine
 10
80.804022
 20
73.206949
 30
0.0
 11
104.406012
 21
73.206949
 31
0.0
  0
LINE
  5
10FA
100
AcDbEntity
  8
91000_TIP
370
    13
  6
CONTINUOUS
 62
     7
100
AcDbLine
 10
82.083533
 20
70.706949
 30
0.0
 11
92.083533
 21
68.206949
 31
0.0
  0
LINE
  5
10FB
100
AcDbEntity
  8
91000_TIP
370
    13
  6
CONTINUOUS
 62
     7
100
AcDbLine
 10
82.083533
 20
75.706949
 30
0.0
 11
82.083533
 21
70.706949
 31
0.0
  0
LINE
  5
10FC
100
AcDbEntity
  8
91000_TIP
370
    13
  6
CONTINUOUS
 62
     7
100
AcDbLine
 10
92.083533
 20
78.206949
 30
0.0
 11
92.083533
 21
68.206949
 31
0.0
  0
LINE
  5
10FD
100
AcDbEntity
  8
91000_TIP
370
    13
  6
CONTINUOUS
 62
     7
100
AcDbLine
 10
98.583532
 20
67.485468
 30
0.0
 11
98.583532
 21
78.768854
 31
0.0
  0
CIRCLE
  5
10FE
100
AcDbEntity
  8
91000_TIP
370
    13
  6
CONTINUOUS
 62
     7
100
AcDbCircle
 10
98.583532
 20
73.206949
 30
0.0
 40
5.0
  0
CIRCLE
  5
10FF
100
AcDbEntity
  8
91000_TIP
370
    13
  6
CONTINUOUS
 62
     7
100
AcDbCircle
 10
98.583532
 20
73.206949
 30
0.0
 40
2.5
  0
TEXT
  5
1100
100
AcDbEntity
  8
90000_FRAME
370
    13
  6
CONTINUOUS
 62
     7
100
AcDbText
 10
111.263613
 20
84.274562
 30
0.0
 40
2.2
  1
All dimensions are in millimeters (mm)
 41
0.961374
100
AcDbText
  0
TEXT
  5
1101
100
AcDbEntity
  8
90000_FRAME
370
    13
  6
CONTINUOUS
 62
     7
100
AcDbText
 10
111.263613
 20
87.403585
 30
0.0
 40
2.2
  1
Alle Bemassungswerte sind in Millimeter (mm) angegeben.
 41
0.825144
100
AcDbText
  0
LINE
  5
1102
100
AcDbEntity
  8
90000_FRAME
370
    13
  6
CONTINUOUS
 62
     7
100
AcDbLine
 10
250.704072
 20
59.496858
 30
0.0
 11
250.704072
 21
329.496858
 31
0.0
  0
LINE
  5
1103
100
AcDbEntity
  8
90000_FRAME
370
    13
  6
CONTINUOUS
 62
     7
100
AcDbLine
 10
250.704072
 20
59.496858
 30
0.0
 11
50.704072
 21
59.496858
 31
0.0
  0
TEXT
  5
1104
100
AcDbEntity
  8
90000_FRAME
370
    13
  6
CONTINUOUS
 62
     7
100
AcDbText
 10
162.152155
 20
77.2
 30
0.0
 40
3.0
  1
3RA2910-0
 41
0.784213
100
AcDbText
  0
TEXT
  5
1105
100
AcDbEntity
  8
90000_FRAME
370
    13
  6
CONTINUOUS
 62
     7
100
AcDbText
 10
203.864072
 20
66.396858
 30
0.0
 40
2.2
  1
Massstab/Scale:
 41
0.9
100
AcDbText
  0
TEXT
  5
1106
100
AcDbEntity
  8
90000_FRAME
370
    13
  6
CONTINUOUS
 62
     7
100
AcDbText
 10
162.0
 20
66.396858
 30
0.0
 40
2.2
  1
Format/Size: DIN A4
 41
0.803258
100
AcDbText
  0
LINE
  5
1107
100
AcDbEntity
  8
90000_FRAME
370
    13
  6
CONTINUOUS
 62
     7
100
AcDbLine
 10
245.704072
 20
64.496858
 30
0.0
 11
245.704072
 21
82.496858
 31
0.0
  0
LINE
  5
1108
100
AcDbEntity
  8
90000_FRAME
370
    13
  6
CONTINUOUS
 62
     7
100
AcDbLine
 10
203.204072
 20
64.496858
 30
0.0
 11
203.204072
 21
70.496858
 31
0.0
  0
LINE
  5
1109
100
AcDbEntity
  8
90000_FRAME
370
    13
  6
CONTINUOUS
 62
     7
100
AcDbLine
 10
160.704072
 20
64.496858
 30
0.0
 11
160.704072
 21
82.496858
 31
0.0
  0
LINE
  5
110A
100
AcDbEntity
  8
90000_FRAME
370
    13
  6
CONTINUOUS
 62
     7
100
AcDbLine
 10
110.704072
 20
82.496858
 30
0.0
 11
245.704072
 21
82.496858
 31
0.0
  0
LINE
  5
110B
100
AcDbEntity
  8
90000_FRAME
370
    13
  6
CONTINUOUS
 62
     7
100
AcDbLine
 10
160.704072
 20
70.496858
 30
0.0
 11
245.704072
 21
70.496858
 31
0.0
  0
LINE
  5
110C
100
AcDbEntity
  8
90000_FRAME
370
    13
  6
CONTINUOUS
 62
     7
100
AcDbLine
 10
110.704072
 20
64.496858
 30
0.0
 11
110.704072
 21
82.496858
 31
0.0
  0
LINE
  5
110D
100
AcDbEntity
  8
90000_FRAME
370
    13
  6
CONTINUOUS
 62
     7
100
AcDbLine
 10
110.704072
 20
64.496858
 30
0.0
 11
245.704072
 21
64.496858
 31
0.0
  0
LINE
  5
110E
100
AcDbEntity
  8
90000_FRAME
370
    13
  6
CONTINUOUS
 62
     7
100
AcDbLine
 10
124.890272
 20
75.911406
 30
0.0
 11
124.890272
 21
71.158137
 31
0.0
  0
LINE
  5
110F
100
AcDbEntity
  8
90000_FRAME
370
    13
  6
CONTINUOUS
 62
     7
100
AcDbLine
 10
126.316253
 20
75.911406
 30
0.0
 11
126.316253
 21
71.158137
 31
0.0
  0
LINE
  5
1110
100
AcDbEntity
  8
90000_FRAME
370
    13
  6
CONTINUOUS
 62
     7
100
AcDbLine
 10
124.890272
 20
71.158137
 30
0.0
 11
126.316253
 21
71.158137
 31
0.0
  0
LINE
  5
1111
100
AcDbEntity
  8
90000_FRAME
370
    13
  6
CONTINUOUS
 62
     7
100
AcDbLine
 10
124.890272
 20
75.911406
 30
0.0
 11
126.316253
 21
75.911406
 31
0.0
  0
LINE
  5
1112
100
AcDbEntity
  8
90000_FRAME
370
    13
  6
CONTINUOUS
 62
     7
100
AcDbLine
 10
127.409505
 20
75.911406
 30
0.0
 11
127.409505
 21
71.158137
 31
0.0
  0
LINE
  5
1113
100
AcDbEntity
  8
90000_FRAME
370
    13
  6
CONTINUOUS
 62
     7
100
AcDbLine
 10
127.409505
 20
71.158137
 30
0.0
 11
130.974457
 21
71.158137
 31
0.0
  0
LINE
  5
1114
100
AcDbEntity
  8
90000_FRAME
370
    13
  6
CONTINUOUS
 62
     7
100
AcDbLine
 10
130.974457
 20
72.061258
 30
0.0
 11
128.787953
 21
72.061258
 31
0.0
  0
LINE
  5
1115
100
AcDbEntity
  8
90000_FRAME
370
    13
  6
CONTINUOUS
 62
     7
100
AcDbLine
 10
130.974457
 20
72.061258
 30
0.0
 11
130.974457
 21
71.158137
 31
0.0
  0
LINE
  5
1116
100
AcDbEntity
  8
90000_FRAME
370
    13
  6
CONTINUOUS
 62
     7
100
AcDbLine
 10
130.926924
 20
75.911406
 30
0.0
 11
127.409505
 21
75.911406
 31
0.0
  0
LINE
  5
1117
100
AcDbEntity
  8
90000_FRAME
370
    13
  6
CONTINUOUS
 62
     7
100
AcDbLine
 10
130.926924
 20
75.032051
 30
0.0
 11
128.787953
 21
75.032051
 31
0.0
  0
LINE
  5
1118
100
AcDbEntity
  8
90000_FRAME
370
    13
  6
CONTINUOUS
 62
     7
100
AcDbLine
 10
130.926924
 20
75.911406
 30
0.0
 11
130.926924
 21
75.032051
 31
0.0
  0
LINE
  5
1119
100
AcDbEntity
  8
90000_FRAME
370
    13
  6
CONTINUOUS
 62
     7
100
AcDbLine
 10
130.641728
 20
73.178276
 30
0.0
 11
128.787953
 21
73.178276
 31
0.0
  0
LINE
  5
111A
100
AcDbEntity
  8
90000_FRAME
370
    13
  6
CONTINUOUS
 62
     7
100
AcDbLine
 10
130.641728
 20
73.962566
 30
0.0
 11
130.641728
 21
73.178276
 31
0.0
  0
LINE
  5
111B
100
AcDbEntity
  8
90000_FRAME
370
    13
  6
CONTINUOUS
 62
     7
100
AcDbLine
 10
130.641728
 20
73.962566
 30
0.0
 11
128.787953
 21
73.962566
 31
0.0
  0
LINE
  5
111C
100
AcDbEntity
  8
90000_FRAME
370
    13
  6
CONTINUOUS
 62
     7
100
AcDbLine
 10
128.787953
 20
75.032051
 30
0.0
 11
128.787953
 21
73.962566
 31
0.0
  0
LINE
  5
111D
100
AcDbEntity
  8
90000_FRAME
370
    13
  6
CONTINUOUS
 62
     7
100
AcDbLine
 10
128.787953
 20
73.178276
 30
0.0
 11
128.787953
 21
72.061258
 31
0.0
  0
LINE
  5
111E
100
AcDbEntity
  8
90000_FRAME
370
    13
  6
CONTINUOUS
 62
     7
100
AcDbLine
 10
131.782513
 20
71.158137
 30
0.0
 11
131.782513
 21
75.911406
 31
0.0
  0
LINE
  5
111F
100
AcDbEntity
  8
90000_FRAME
370
    13
  6
CONTINUOUS
 62
     7
100
AcDbLine
 10
131.782513
 20
71.158137
 30
0.0
 11
132.733166
 21
71.158137
 31
0.0
  0
LINE
  5
1120
100
AcDbEntity
  8
90000_FRAME
370
    13
  6
CONTINUOUS
 62
     7
100
AcDbLine
 10
137.629034
 20
75.911406
 30
0.0
 11
137.629034
 21
71.158137
 31
0.0
  0
LINE
  5
1121
100
AcDbEntity
  8
90000_FRAME
370
    13
  6
CONTINUOUS
 62
     7
100
AcDbLine
 10
137.629034
 20
71.158137
 30
0.0
 11
136.250586
 21
71.158137
 31
0.0
  0
LINE
  5
1122
100
AcDbEntity
  8
90000_FRAME
370
    13
  6
CONTINUOUS
 62
     7
100
AcDbLine
 10
134.064082
 20
71.110604
 30
0.0
 11
134.91967
 21
71.110604
 31
0.0
  0
LINE
  5
1123
100
AcDbEntity
  8
90000_FRAME
370
    13
  6
CONTINUOUS
 62
     7
100
AcDbLine
 10
134.064082
 20
71.110604
 30
0.0
 11
132.733166
 21
74.200229
 31
0.0
  0
LINE
  5
1124
100
AcDbEntity
  8
90000_FRAME
370
    13
  6
CONTINUOUS
 62
     7
100
AcDbLine
 10
132.733166
 20
71.158137
 30
0.0
 11
132.733166
 21
74.200229
 31
0.0
  0
LINE
  5
1125
100
AcDbEntity
  8
90000_FRAME
370
    13
  6
CONTINUOUS
 62
     7
100
AcDbLine
 10
136.250586
 20
74.247762
 30
0.0
 11
134.91967
 21
71.110604
 31
0.0
  0
LINE
  5
1126
100
AcDbEntity
  8
90000_FRAME
370
    13
  6
CONTINUOUS
 62
     7
100
AcDbLine
 10
133.493689
 20
75.911406
 30
0.0
 11
131.782513
 21
75.911406
 31
0.0
  0
LINE
  5
1127
100
AcDbEntity
  8
90000_FRAME
370
    13
  6
CONTINUOUS
 62
     7
100
AcDbLine
 10
137.629034
 20
75.911406
 30
0.0
 11
135.917857
 21
75.911406
 31
0.0
  0
LINE
  5
1128
100
AcDbEntity
  8
90000_FRAME
370
    13
  6
CONTINUOUS
 62
     7
100
AcDbLine
 10
133.493689
 20
75.911406
 30
0.0
 11
134.729539
 21
73.011912
 31
0.0
  0
LINE
  5
1129
100
AcDbEntity
  8
90000_FRAME
370
    13
  6
CONTINUOUS
 62
     7
100
AcDbLine
 10
135.917857
 20
75.911406
 30
0.0
 11
134.729539
 21
73.011912
 31
0.0
  0
LINE
  5
112A
100
AcDbEntity
  8
90000_FRAME
370
    13
  6
CONTINUOUS
 62
     7
100
AcDbLine
 10
136.250586
 20
74.247762
 30
0.0
 11
136.250586
 21
71.158137
 31
0.0
  0
LINE
  5
112B
100
AcDbEntity
  8
90000_FRAME
370
    13
  6
CONTINUOUS
 62
     7
100
AcDbLine
 10
138.722285
 20
75.911406
 30
0.0
 11
138.722285
 21
71.158137
 31
0.0
  0
LINE
  5
112C
100
AcDbEntity
  8
90000_FRAME
370
    13
  6
CONTINUOUS
 62
     7
100
AcDbLine
 10
138.722285
 20
71.158137
 30
0.0
 11
142.287237
 21
71.158137
 31
0.0
  0
LINE
  5
112D
100
AcDbEntity
  8
90000_FRAME
370
    13
  6
CONTINUOUS
 62
     7
100
AcDbLine
 10
142.287237
 20
72.061258
 30
0.0
 11
140.100733
 21
72.061258
 31
0.0
  0
LINE
  5
112E
100
AcDbEntity
  8
90000_FRAME
370
    13
  6
CONTINUOUS
 62
     7
100
AcDbLine
 10
142.287237
 20
72.061258
 30
0.0
 11
142.287237
 21
71.158137
 31
0.0
  0
LINE
  5
112F
100
AcDbEntity
  8
90000_FRAME
370
    13
  6
CONTINUOUS
 62
     7
100
AcDbLine
 10
142.239705
 20
75.911406
 30
0.0
 11
138.722285
 21
75.911406
 31
0.0
  0
LINE
  5
1130
100
AcDbEntity
  8
90000_FRAME
370
    13
  6
CONTINUOUS
 62
     7
100
AcDbLine
 10
142.239705
 20
75.032051
 30
0.0
 11
140.100733
 21
75.032051
 31
0.0
  0
LINE
  5
1131
100
AcDbEntity
  8
90000_FRAME
370
    13
  6
CONTINUOUS
 62
     7
100
AcDbLine
 10
142.239705
 20
75.911406
 30
0.0
 11
142.239705
 21
75.032051
 31
0.0
  0
LINE
  5
1132
100
AcDbEntity
  8
90000_FRAME
370
    13
  6
CONTINUOUS
 62
     7
100
AcDbLine
 10
141.954508
 20
73.178276
 30
0.0
 11
140.100733
 21
73.178276
 31
0.0
  0
LINE
  5
1133
100
AcDbEntity
  8
90000_FRAME
370
    13
  6
CONTINUOUS
 62
     7
100
AcDbLine
 10
141.954508
 20
73.962566
 30
0.0
 11
141.954508
 21
73.178276
 31
0.0
  0
LINE
  5
1134
100
AcDbEntity
  8
90000_FRAME
370
    13
  6
CONTINUOUS
 62
     7
100
AcDbLine
 10
141.954508
 20
73.962566
 30
0.0
 11
140.100733
 21
73.962566
 31
0.0
  0
LINE
  5
1135
100
AcDbEntity
  8
90000_FRAME
370
    13
  6
CONTINUOUS
 62
     7
100
AcDbLine
 10
140.100733
 20
75.032051
 30
0.0
 11
140.100733
 21
73.962566
 31
0.0
  0
LINE
  5
1136
100
AcDbEntity
  8
90000_FRAME
370
    13
  6
CONTINUOUS
 62
     7
100
AcDbLine
 10
140.100733
 20
73.178276
 30
0.0
 11
140.100733
 21
72.061258
 31
0.0
  0
LINE
  5
1137
100
AcDbEntity
  8
90000_FRAME
370
    13
  6
CONTINUOUS
 62
     7
100
AcDbLine
 10
143.071527
 20
71.158137
 30
0.0
 11
143.071527
 21
75.911406
 31
0.0
  0
LINE
  5
1138
100
AcDbEntity
  8
90000_FRAME
370
    13
  6
CONTINUOUS
 62
     7
100
AcDbLine
 10
147.254403
 20
75.911406
 30
0.0
 11
147.254403
 21
71.158137
 31
0.0
  0
LINE
  5
1139
100
AcDbEntity
  8
90000_FRAME
370
    13
  6
CONTINUOUS
 62
     7
100
AcDbLine
 10
143.071527
 20
71.158137
 30
0.0
 11
144.02218
 21
71.158137
 31
0.0
  0
LINE
  5
113A
100
AcDbEntity
  8
90000_FRAME
370
    13
  6
CONTINUOUS
 62
     7
100
AcDbLine
 10
147.254403
 20
75.911406
 30
0.0
 11
146.30375
 21
75.911406
 31
0.0
  0
LINE
  5
113B
100
AcDbEntity
  8
90000_FRAME
370
    13
  6
CONTINUOUS
 62
     7
100
AcDbLine
 10
144.616339
 20
75.911406
 30
0.0
 11
143.071527
 21
75.911406
 31
0.0
  0
LINE
  5
113C
100
AcDbEntity
  8
90000_FRAME
370
    13
  6
CONTINUOUS
 62
     7
100
AcDbLine
 10
147.254403
 20
71.158137
 30
0.0
 11
145.733357
 21
71.158137
 31
0.0
  0
LINE
  5
113D
100
AcDbEntity
  8
90000_FRAME
370
    13
  6
CONTINUOUS
 62
     7
100
AcDbLine
 10
145.733357
 20
71.158137
 30
0.0
 11
144.02218
 21
74.200229
 31
0.0
  0
LINE
  5
113E
100
AcDbEntity
  8
90000_FRAME
370
    13
  6
CONTINUOUS
 62
     7
100
AcDbLine
 10
144.616339
 20
75.911406
 30
0.0
 11
146.30375
 21
72.964379
 31
0.0
  0
LINE
  5
113F
100
AcDbEntity
  8
90000_FRAME
370
    13
  6
CONTINUOUS
 62
     7
100
AcDbLine
 10
146.30375
 20
75.911406
 30
0.0
 11
146.30375
 21
72.964379
 31
0.0
  0
LINE
  5
1140
100
AcDbEntity
  8
90000_FRAME
370
    13
  6
CONTINUOUS
 62
     7
100
AcDbLine
 10
144.02218
 20
71.158137
 30
0.0
 11
144.02218
 21
74.200229
 31
0.0
  0
LINE
  5
1141
100
AcDbEntity
  8
90000_FRAME
370
    13
  6
CONTINUOUS
 62
     7
100
AcDbLine
 10
148.062459
 20
71.253202
 30
0.0
 11
148.062459
 21
72.203856
 31
0.0
  0
LINE
  5
1142
100
AcDbEntity
  8
90000_FRAME
370
    13
  6
CONTINUOUS
 62
     7
100
AcDbLine
 10
151.389748
 20
74.91322
 30
0.0
 11
151.389748
 21
75.863874
 31
0.0
  0
ARC
  5
1143
100
AcDbEntity
  8
90000_FRAME
370
    13
  6
CONTINUOUS
 62
     7
100
AcDbCircle
 10
149.7671
 20
73.115296
 30
0.0
 40
1.111619
100
AcDbArc
 50
277.709996
 51
295.688493
  0
ARC
  5
1144
100
AcDbEntity
  8
90000_FRAME
370
    13
  6
CONTINUOUS
 62
     7
100
AcDbCircle
 10
150.05141
 20
72.39047
 30
0.0
 40
0.340169
100
AcDbArc
 50
305.503221
 51
72.46529
  0
ARC
  5
1145
100
AcDbEntity
  8
90000_FRAME
370
    13
  6
CONTINUOUS
 62
     7
100
AcDbCircle
 10
149.485416
 20
75.792177
 30
0.0
 40
4.756795
100
AcDbArc
 50
252.59392
 51
280.98166
  0
ARC
  5
1146
100
AcDbEntity
  8
90000_FRAME
370
    13
  6
CONTINUOUS
 62
     7
100
AcDbCircle
 10
149.940252
 20
73.174163
 30
0.0
 40
2.100727
100
AcDbArc
 50
282.405836
 51
311.864443
  0
ARC
  5
1147
100
AcDbEntity
  8
90000_FRAME
370
    13
  6
CONTINUOUS
 62
     7
100
AcDbCircle
 10
149.666688
 20
74.782505
 30
0.0
 40
0.302963
100
AcDbArc
 50
154.440035
 51
221.82017
  0
ARC
  5
1148
100
AcDbEntity
  8
90000_FRAME
370
    13
  6
CONTINUOUS
 62
     7
100
AcDbCircle
 10
149.745909
 20
74.703284
 30
0.0
 40
0.410309
100
AcDbArc
 50
102.828783
 51
149.225964
  0
ARC
  5
1149
100
AcDbEntity
  8
90000_FRAME
370
    13
  6
CONTINUOUS
 62
     7
100
AcDbCircle
 10
150.162935
 20
72.960948
 30
0.0
 40
2.201837
100
AcDbArc
 50
84.040006
 51
103.342766
  0
ARC
  5
114A
100
AcDbEntity
  8
90000_FRAME
370
    13
  6
CONTINUOUS
 62
     7
100
AcDbCircle
 10
149.821972
 20
70.543584
 30
0.0
 40
4.642374
100
AcDbArc
 50
70.262586
 51
82.952419
  0
ARC
  5
114B
100
AcDbEntity
  8
90000_FRAME
370
    13
  6
CONTINUOUS
 62
     7
100
AcDbCircle
 10
149.307953
 20
75.215207
 30
0.0
 40
3.258756
100
AcDbArc
 50
247.530021
 51
280.757952
  0
ARC
  5
114C
100
AcDbEntity
  8
90000_FRAME
370
    13
  6
CONTINUOUS
 62
     7
100
AcDbCircle
 10
142.922987
 20
56.963687
 30
0.0
 40
17.331608
100
AcDbArc
 50
65.341467
 51
67.399777
  0
ARC
  5
114D
100
AcDbEntity
  8
90000_FRAME
370
    13
  6
CONTINUOUS
 62
     7
100
AcDbCircle
 10
153.718849
 20
82.756114
 30
0.0
 40
10.629164
100
AcDbArc
 50
242.86201
 51
247.104203
  0
ARC
  5
114E
100
AcDbEntity
  8
90000_FRAME
370
    13
  6
CONTINUOUS
 62
     7
100
AcDbCircle
 10
149.863948
 20
75.222182
 30
0.0
 40
2.166292
100
AcDbArc
 50
227.311928
 51
242.704032
  0
ARC
  5
114F
100
AcDbEntity
  8
90000_FRAME
370
    13
  6
CONTINUOUS
 62
     7
100
AcDbCircle
 10
149.259917
 20
74.516505
 30
0.0
 40
1.238522
100
AcDbArc
 50
194.795219
 51
225.717655
  0
ARC
  5
1150
100
AcDbEntity
  8
90000_FRAME
370
    13
  6
CONTINUOUS
 62
     7
100
AcDbCircle
 10
149.322075
 20
74.556725
 30
0.0
 40
1.309092
100
AcDbArc
 50
164.197486
 51
195.802514
  0
ARC
  5
1151
100
AcDbEntity
  8
90000_FRAME
370
    13
  6
CONTINUOUS
 62
     7
100
AcDbCircle
 10
149.879099
 20
73.668457
 30
0.0
 40
2.366925
100
AcDbArc
 50
86.221802
 51
120.42726
  0
ARC
  5
1152
100
AcDbEntity
  8
90000_FRAME
370
    13
  6
CONTINUOUS
 62
     7
100
AcDbCircle
 10
149.610242
 20
66.97229
 30
0.0
 40
9.067905
100
AcDbArc
 50
78.682705
 51
87.31476
  0
ARC
  5
1153
100
AcDbEntity
  8
90000_FRAME
370
    13
  6
CONTINUOUS
 62
     7
100
AcDbCircle
 10
149.154173
 20
74.664232
 30
0.0
 40
1.119747
100
AcDbArc
 50
142.813918
 51
167.152295
  0
ARC
  5
1154
100
AcDbEntity
  8
90000_FRAME
370
    13
  6
CONTINUOUS
 62
     7
100
AcDbCircle
 10
149.499483
 20
74.357651
 30
0.0
 40
1.580547
100
AcDbArc
 50
121.214095
 51
141.525477
  0
ARC
  5
1155
100
AcDbEntity
  8
90000_FRAME
370
    13
  6
CONTINUOUS
 62
     7
100
AcDbCircle
 10
150.076657
 20
75.168708
 30
0.0
 40
0.866128
100
AcDbArc
 50
222.776039
 51
239.036243
  0
ARC
  5
1156
100
AcDbEntity
  8
90000_FRAME
370
    13
  6
CONTINUOUS
 62
     7
100
AcDbCircle
 10
147.569947
 20
67.838436
 30
0.0
 40
6.858774
100
AcDbArc
 50
59.902027
 51
68.203648
  0
ARC
  5
1157
100
AcDbEntity
  8
90000_FRAME
370
    13
  6
CONTINUOUS
 62
     7
100
AcDbCircle
 10
150.978442
 20
76.764322
 30
0.0
 40
2.698741
100
AcDbArc
 50
240.0482
 51
251.377967
  0
ARC
  5
1158
100
AcDbEntity
  8
90000_FRAME
370
    13
  6
CONTINUOUS
 62
     7
100
AcDbCircle
 10
150.312985
 20
72.607424
 30
0.0
 40
1.433447
100
AcDbArc
 50
315.890455
 51
333.522926
  0
ARC
  5
1159
100
AcDbEntity
  8
90000_FRAME
370
    13
  6
CONTINUOUS
 62
     7
100
AcDbCircle
 10
150.317623
 20
72.554016
 30
0.0
 40
1.406229
100
AcDbArc
 50
335.386797
 51
24.391512
  0
ARC
  5
115A
100
AcDbEntity
  8
90000_FRAME
370
    13
  6
CONTINUOUS
 62
     7
100
AcDbCircle
 10
150.245418
 20
72.47616
 30
0.0
 40
1.504703
100
AcDbArc
 50
25.956292
 51
59.483483
  0
LINE
  5
115B
100
AcDbEntity
  8
90000_FRAME
370
    13
  6
CONTINUOUS
 62
     7
100
AcDbLine
 10
120.469732
 20
71.253202
 30
0.0
 11
120.469732
 21
72.203856
 31
0.0
  0
LINE
  5
115C
100
AcDbEntity
  8
90000_FRAME
370
    13
  6
CONTINUOUS
 62
     7
100
AcDbLine
 10
123.797021
 20
74.91322
 30
0.0
 11
123.797021
 21
75.863874
 31
0.0
  0
ARC
  5
115D
100
AcDbEntity
  8
90000_FRAME
370
    13
  6
CONTINUOUS
 62
     7
100
AcDbCircle
 10
122.174373
 20
73.115296
 30
0.0
 40
1.111619
100
AcDbArc
 50
277.709996
 51
295.688493
  0
ARC
  5
115E
100
AcDbEntity
  8
90000_FRAME
370
    13
  6
CONTINUOUS
 62
     7
100
AcDbCircle
 10
122.458683
 20
72.39047
 30
0.0
 40
0.340169
100
AcDbArc
 50
305.503221
 51
72.46529
  0
ARC
  5
115F
100
AcDbEntity
  8
90000_FRAME
370
    13
  6
CONTINUOUS
 62
     7
100
AcDbCircle
 10
121.892689
 20
75.792177
 30
0.0
 40
4.756795
100
AcDbArc
 50
252.59392
 51
280.98166
  0
ARC
  5
1160
100
AcDbEntity
  8
90000_FRAME
370
    13
  6
CONTINUOUS
 62
     7
100
AcDbCircle
 10
122.347525
 20
73.174163
 30
0.0
 40
2.100727
100
AcDbArc
 50
282.405836
 51
311.864443
  0
ARC
  5
1161
100
AcDbEntity
  8
90000_FRAME
370
    13
  6
CONTINUOUS
 62
     7
100
AcDbCircle
 10
122.07396
 20
74.782505
 30
0.0
 40
0.302963
100
AcDbArc
 50
154.440035
 51
221.82017
  0
ARC
  5
1162
100
AcDbEntity
  8
90000_FRAME
370
    13
  6
CONTINUOUS
 62
     7
100
AcDbCircle
 10
122.153182
 20
74.703284
 30
0.0
 40
0.410309
100
AcDbArc
 50
102.828783
 51
149.225964
  0
ARC
  5
1163
100
AcDbEntity
  8
90000_FRAME
370
    13
  6
CONTINUOUS
 62
     7
100
AcDbCircle
 10
122.570208
 20
72.960948
 30
0.0
 40
2.201837
100
AcDbArc
 50
84.040006
 51
103.342766
  0
ARC
  5
1164
100
AcDbEntity
  8
90000_FRAME
370
    13
  6
CONTINUOUS
 62
     7
100
AcDbCircle
 10
122.229245
 20
70.543584
 30
0.0
 40
4.642374
100
AcDbArc
 50
70.262586
 51
82.952419
  0
ARC
  5
1165
100
AcDbEntity
  8
90000_FRAME
370
    13
  6
CONTINUOUS
 62
     7
100
AcDbCircle
 10
121.715226
 20
75.215207
 30
0.0
 40
3.258756
100
AcDbArc
 50
247.530021
 51
280.757952
  0
ARC
  5
1166
100
AcDbEntity
  8
90000_FRAME
370
    13
  6
CONTINUOUS
 62
     7
100
AcDbCircle
 10
115.33026
 20
56.963687
 30
0.0
 40
17.331608
100
AcDbArc
 50
65.341467
 51
67.399777
  0
ARC
  5
1167
100
AcDbEntity
  8
90000_FRAME
370
    13
  6
CONTINUOUS
 62
     7
100
AcDbCircle
 10
126.126122
 20
82.756114
 30
0.0
 40
10.629164
100
AcDbArc
 50
242.86201
 51
247.104203
  0
ARC
  5
1168
100
AcDbEntity
  8
90000_FRAME
370
    13
  6
CONTINUOUS
 62
     7
100
AcDbCircle
 10
122.271221
 20
75.222182
 30
0.0
 40
2.166292
100
AcDbArc
 50
227.311928
 51
242.704032
  0
ARC
  5
1169
100
AcDbEntity
  8
90000_FRAME
370
    13
  6
CONTINUOUS
 62
     7
100
AcDbCircle
 10
121.66719
 20
74.516505
 30
0.0
 40
1.238522
100
AcDbArc
 50
194.795219
 51
225.717655
  0
ARC
  5
116A
100
AcDbEntity
  8
90000_FRAME
370
    13
  6
CONTINUOUS
 62
     7
100
AcDbCircle
 10
122.286372
 20
73.668457
 30
0.0
 40
2.366925
100
AcDbArc
 50
86.221802
 51
120.42726
  0
ARC
  5
116B
100
AcDbEntity
  8
90000_FRAME
370
    13
  6
CONTINUOUS
 62
     7
100
AcDbCircle
 10
122.017515
 20
66.97229
 30
0.0
 40
9.067905
100
AcDbArc
 50
78.682705
 51
87.31476
  0
ARC
  5
116C
100
AcDbEntity
  8
90000_FRAME
370
    13
  6
CONTINUOUS
 62
     7
100
AcDbCircle
 10
121.906756
 20
74.357651
 30
0.0
 40
1.580547
100
AcDbArc
 50
121.214095
 51
141.525477
  0
ARC
  5
116D
100
AcDbEntity
  8
90000_FRAME
370
    13
  6
CONTINUOUS
 62
     7
100
AcDbCircle
 10
122.48393
 20
75.168708
 30
0.0
 40
0.866128
100
AcDbArc
 50
222.776039
 51
239.036243
  0
ARC
  5
116E
100
AcDbEntity
  8
90000_FRAME
370
    13
  6
CONTINUOUS
 62
     7
100
AcDbCircle
 10
119.97722
 20
67.838436
 30
0.0
 40
6.858774
100
AcDbArc
 50
59.902027
 51
68.203648
  0
ARC
  5
116F
100
AcDbEntity
  8
90000_FRAME
370
    13
  6
CONTINUOUS
 62
     7
100
AcDbCircle
 10
123.385715
 20
76.764322
 30
0.0
 40
2.698741
100
AcDbArc
 50
240.0482
 51
251.377967
  0
ARC
  5
1170
100
AcDbEntity
  8
90000_FRAME
370
    13
  6
CONTINUOUS
 62
     7
100
AcDbCircle
 10
122.720258
 20
72.607424
 30
0.0
 40
1.433447
100
AcDbArc
 50
315.890455
 51
333.522926
  0
ARC
  5
1171
100
AcDbEntity
  8
90000_FRAME
370
    13
  6
CONTINUOUS
 62
     7
100
AcDbCircle
 10
122.724896
 20
72.554016
 30
0.0
 40
1.406229
100
AcDbArc
 50
335.386797
 51
24.391512
  0
ARC
  5
1172
100
AcDbEntity
  8
90000_FRAME
370
    13
  6
CONTINUOUS
 62
     7
100
AcDbCircle
 10
122.652691
 20
72.47616
 30
0.0
 40
1.504703
100
AcDbArc
 50
25.956292
 51
59.483483
  0
LINE
  5
1173
100
AcDbEntity
  8
90000_FRAME
370
    13
  6
CONTINUOUS
 62
     7
100
AcDbLine
 10
120.661561
 20
75.330601
 30
0.0
 11
120.935627
 21
75.604674
 31
0.0
  0
ARC
  5
1174
100
AcDbEntity
  8
90000_FRAME
370
    13
  6
CONTINUOUS
 62
     7
100
AcDbCircle
 10
121.729348
 20
74.556725
 30
0.0
 40
1.309092
100
AcDbArc
 50
164.197486
 51
195.802514
  0
ARC
  5
1175
100
AcDbEntity
  8
90000_FRAME
370
    13
  6
CONTINUOUS
 62
     7
100
AcDbCircle
 10
121.561446
 20
74.664232
 30
0.0
 40
1.119747
100
AcDbArc
 50
142.813918
 51
167.152295
  0
TEXT
  5
1176
100
AcDbEntity
  8
90000_FRAME
370
    13
  6
CONTINUOUS
 62
     7
100
AcDbText
 10
232.0
 20
66.3969
 30
0.0
 40
2.2
  1
1:1
 41
0.9
100
AcDbText
  0
TEXT
  5
1177
100
AcDbEntity
  8
90000_FRAME
370
    13
  6
CONTINUOUS
 62
     7
100
AcDbText
 10
162.0
 20
72.2
 30
0.0
 40
2.2
  1

 41
0.784213
100
AcDbText
  0
ENDSEC
  0
SECTION
  2
OBJECTS
  0
DICTIONARY
  5
FE4
100
AcDbDictionary
280
     0
281
     1
  3
ACAD_GROUP
350
FE5
  3
ACAD_MLINESTYLE
350
FE6
  0
DICTIONARY
  5
FE5
102
{ACAD_REACTORS
330
FE4
102
}
100
AcDbDictionary
280
     0
281
     1
  0
DICTIONARY
  5
FE6
102
{ACAD_REACTORS
330
FE4
102
}
100
AcDbDictionary
280
     0
281
     1
  3
Standard
350
FE7
  0
MLINESTYLE
  5
FE7
102
{ACAD_REACTORS
330
FE6
102
}
100
AcDbMlineStyle
  2
Standard
 70
     0
  3

 62
     0
 51
90.0
 52
90.0
 71
     2
 49
0.5
 62
   256
  6
ByLayer
 49
-0.5
 62
   256
  6
ByLayer
  0
ENDSEC
  0
EOF
