  0
SECTION
  2
HEADER
  9
$ACADVER
  1
AC1015
  9
$ACADMAINTVER
 70
     6
  9
$DWGCODEPAGE
  3
ANSI_1252
  9
$INSBASE
 10
0.0
 20
0.0
 30
0.0
  9
$EXTMIN
 10
69.395417
 20
287.976483
 30
-1.0
  9
$EXTMAX
 10
1026.514554
 20
492.804657
 30
0.7
  9
$LIMMIN
 10
0.0
 20
0.0
  9
$LIMMAX
 10
12.0
 20
9.0
  9
$ORTHOMODE
 70
     0
  9
$REGENMODE
 70
     1
  9
$FILLMODE
 70
     1
  9
$QTEXTMODE
 70
     0
  9
$MIRRTEXT
 70
     0
  9
$LTSCALE
 40
10.0
  9
$ATTMODE
 70
     1
  9
$TEXTSIZE
 40
0.2
  9
$TRACEWID
 40
0.05
  9
$TEXTSTYLE
  7
STANDARD
  9
$CLAYER
  8
0
  9
$CELTYPE
  6
ByLayer
  9
$CECOLOR
 62
   256
  9
$CELTSCALE
 40
1.0
  9
$DISPSILH
 70
     0
  9
$DIMSCALE
 40
1.0
  9
$DIMASZ
 40
0.18
  9
$DIMEXO
 40
0.0625
  9
$DIMDLI
 40
0.38
  9
$DIMRND
 40
0.0
  9
$DIMDLE
 40
0.0
  9
$DIMEXE
 40
0.18
  9
$DIMTP
 40
0.0
  9
$DIMTM
 40
0.0
  9
$DIMTXT
 40
0.18
  9
$DIMCEN
 40
0.09
  9
$DIMTSZ
 40
0.0
  9
$DIMTOL
 70
     0
  9
$DIMLIM
 70
     0
  9
$DIMTIH
 70
     1
  9
$DIMTOH
 70
     1
  9
$DIMSE1
 70
     0
  9
$DIMSE2
 70
     0
  9
$DIMTAD
 70
     0
  9
$DIMZIN
 70
     0
  9
$DIMBLK
  1

  9
$DIMASO
 70
     1
  9
$DIMSHO
 70
     1
  9
$DIMPOST
  1

  9
$DIMAPOST
  1

  9
$DIMALT
 70
     0
  9
$DIMALTD
 70
     2
  9
$DIMALTF
 40
25.4
  9
$DIMLFAC
 40
1.0
  9
$DIMTOFL
 70
     0
  9
$DIMTVP
 40
0.0
  9
$DIMTIX
 70
     0
  9
$DIMSOXD
 70
     0
  9
$DIMSAH
 70
     0
  9
$DIMBLK1
  1

  9
$DIMBLK2
  1

  9
$DIMSTYLE
  2
STANDARD
  9
$DIMCLRD
 70
     0
  9
$DIMCLRE
 70
     0
  9
$DIMCLRT
 70
     0
  9
$DIMTFAC
 40
1.0
  9
$DIMGAP
 40
0.09
  9
$DIMJUST
 70
     0
  9
$DIMSD1
 70
     0
  9
$DIMSD2
 70
     0
  9
$DIMTOLJ
 70
     1
  9
$DIMTZIN
 70
     0
  9
$DIMALTZ
 70
     0
  9
$DIMALTTZ
 70
     0
  9
$DIMUPT
 70
     0
  9
$DIMDEC
 70
     4
  9
$DIMTDEC
 70
     4
  9
$DIMALTU
 70
     2
  9
$DIMALTTD
 70
     2
  9
$DIMTXSTY
  7
STANDARD
  9
$DIMAUNIT
 70
     0
  9
$DIMADEC
 70
     0
  9
$DIMALTRND
 40
0.0
  9
$DIMAZIN
 70
     0
  9
$DIMDSEP
 70
     0
  9
$DIMATFIT
 70
     3
  9
$DIMFRAC
 70
     0
  9
$DIMLDRBLK
  1

  9
$DIMLUNIT
 70
     2
  9
$DIMLWD
 70
     0
  9
$DIMLWE
 70
     0
  9
$DIMTMOVE
 70
     0
  9
$LUNITS
 70
     2
  9
$LUPREC
 70
     4
  9
$SKETCHINC
 40
0.1
  9
$FILLETRAD
 40
0.0
  9
$AUNITS
 70
     0
  9
$AUPREC
 70
     0
  9
$MENU
  1
.
  9
$ELEVATION
 40
0.0
  9
$PELEVATION
 40
0.0
  9
$THICKNESS
 40
0.0
  9
$LIMCHECK
 70
     0
  9
$CHAMFERA
 40
0.0
  9
$CHAMFERB
 40
0.0
  9
$CHAMFERC
 40
0.0
  9
$CHAMFERD
 40
0.0
  9
$SKPOLY
 70
     0
  9
$TDCREATE
 40
2453353.758792454
  9
$TDUCREATE
 40
0.000000000
  9
$TDUPDATE
 40
0.000000000
  9
$TDUUPDATE
 40
2447892.958333334
  9
$TDINDWG
 40
78332576.0667047050
  9
$TDUSRTIMER
 40
0.0000000000
  9
$USRTIMER
 70
     1
  9
$ANGBASE
 50
0.0
  9
$ANGDIR
 70
     0
  9
$PDMODE
 70
     0
  9
$PDSIZE
 40
0.0
  9
$PLINEWID
 40
0.0
  9
$SPLFRAME
 70
     0
  9
$SPLINETYPE
 70
     6
  9
$SPLINESEGS
 70
     8
  9
$HANDSEED
  5
13AA
  9
$SURFTAB1
 70
     6
  9
$SURFTAB2
 70
     6
  9
$SURFTYPE
 70
     6
  9
$SURFU
 70
     6
  9
$SURFV
 70
     6
  9
$UCSBASE
  2

  9
$UCSNAME
  2

  9
$UCSORG
 10
0.0
 20
0.0
 30
0.0
  9
$UCSXDIR
 10
1.0
 20
0.0
 30
0.0
  9
$UCSYDIR
 10
0.0
 20
1.0
 30
0.0
  9
$UCSORTHOREF
  2

  9
$UCSORTHOVIEW
 70
     0
  9
$UCSORGTOP
 10
0.0
 20
0.0
 30
0.0
  9
$UCSORGBOTTOM
 10
0.0
 20
0.0
 30
0.0
  9
$UCSORGLEFT
 10
0.0
 20
0.0
 30
0.0
  9
$UCSORGRIGHT
 10
0.0
 20
0.0
 30
0.0
  9
$UCSORGFRONT
 10
0.0
 20
0.0
 30
0.0
  9
$UCSORGBACK
 10
0.0
 20
0.0
 30
0.0
  9
$PUCSBASE
  2

  9
$PUCSNAME
  2

  9
$PUCSORG
 10
0.0
 20
0.0
 30
0.0
  9
$PUCSXDIR
 10
1.0
 20
0.0
 30
0.0
  9
$PUCSYDIR
 10
0.0
 20
1.0
 30
0.0
  9
$PUCSORTHOREF
  2

  9
$PUCSORTHOVIEW
 70
     0
  9
$PUCSORGTOP
 10
0.0
 20
0.0
 30
0.0
  9
$PUCSORGBOTTOM
 10
0.0
 20
0.0
 30
0.0
  9
$PUCSORGLEFT
 10
0.0
 20
0.0
 30
0.0
  9
$PUCSORGRIGHT
 10
0.0
 20
0.0
 30
0.0
  9
$PUCSORGFRONT
 10
0.0
 20
0.0
 30
0.0
  9
$PUCSORGBACK
 10
0.0
 20
0.0
 30
0.0
  9
$USERI1
 70
     0
  9
$USERI2
 70
     0
  9
$USERI3
 70
     0
  9
$USERI4
 70
     0
  9
$USERI5
 70
     0
  9
$USERR1
 40
0.0
  9
$USERR2
 40
0.0
  9
$USERR3
 40
0.0
  9
$USERR4
 40
0.0
  9
$USERR5
 40
0.0
  9
$WORLDVIEW
 70
     1
  9
$SHADEDGE
 70
     3
  9
$SHADEDIF
 70
    70
  9
$TILEMODE
 70
     1
  9
$MAXACTVP
 70
    64
  9
$PINSBASE
 10
0.0
 20
0.0
 30
0.0
  9
$PLIMCHECK
 70
     0
  9
$PEXTMIN
 10
0.0
 20
0.0
 30
0.0
  9
$PEXTMAX
 10
0.0
 20
0.0
 30
0.0
  9
$PLIMMIN
 10
0.0
 20
0.0
  9
$PLIMMAX
 10
0.0
 20
0.0
  9
$UNITMODE
 70
     0
  9
$VISRETAIN
 70
     1
  9
$PLINEGEN
 70
     0
  9
$PSLTSCALE
 70
     1
  9
$TREEDEPTH
 70
  3020
  9
$CMLSTYLE
  2
Standard
  9
$CMLJUST
 70
     0
  9
$CMLSCALE
 40
1.0
  9
$PROXYGRAPHICS
 70
     0
  9
$MEASUREMENT
 70
     0
  9
$CELWEIGHT
370
     0
  9
$ENDCAPS
280
     0
  9
$JOINSTYLE
280
     0
  9
$LWDISPLAY
290
     0
  9
$INSUNITS
 70
     0
  9
$HYPERLINKBASE
  1

  9
$STYLESHEET
  1

  9
$XEDIT
290
     1
  9
$CEPSNTYPE
380
     0
  9
$PSTYLEMODE
290
     1
  9
$FINGERPRINTGUID
  2

  9
$VERSIONGUID
  2

  9
$EXTNAMES
290
     1
  9
$PSVPSCALE
 40
0.0
  0
ENDSEC
  0
SECTION
  2
CLASSES
  0
CLASS
  1
LWPOLYLINE
  2
AcDbPolyline
  3
AutoCAD 2000
 90
        0
280
     0
281
     1
  0
CLASS
  1
IMAGE
  2
AcDbRasterImage
  3
ISM
 90
      127
280
     0
281
     1
  0
CLASS
  1
OLE2FRAME
  2
AcDbOle2Frame
  3
AutoCAD 2000
 90
        0
280
     0
281
     1
  0
CLASS
  1
HATCH
  2
AcDbHatch
  3
AutoCAD 2000
 90
        0
280
     0
281
     1
  0
CLASS
  1
DICTIONARYVAR
  2
AcDbDictionaryVar
  3
AutoCAD 2000
 90
        0
280
     0
281
     0
  0
CLASS
  1
RASTERVARIABLES
  2
AcDbRasterVariables
  3
ISM
 90
        0
280
     0
281
     0
  0
CLASS
  1
IMAGEDEF
  2
AcDbRasterImageDef
  3
ISM
 90
        0
280
     0
281
     0
  0
CLASS
  1
IMAGEDEF_REACTOR
  2
AcDbRasterImageDefReactor
  3
ISM
 90
        1
280
     0
281
     0
  0
CLASS
  1
IDBUFFER
  2
AcDbIdBuffer
  3
AutoCAD 2000
 90
        0
280
     0
281
     0
  0
CLASS
  1
SPATIAL_FILTER
  2
AcDbSpatialFilter
  3
AutoCAD 2000
 90
        0
280
     0
281
     0
  0
CLASS
  1
XRECORD
  2
AcDbXrecord
  3
AutoCAD 2000
 90
        0
280
     0
281
     0
  0
CLASS
  1
SORTENTSTABLE
  2
AcDbSortentsTable
  3
AutoCAD 2000
 90
        0
280
     0
281
     0
  0
CLASS
  1
LAYER_INDEX
  2
AcDbLayerIndex
  3
AutoCAD 2000
 90
        0
280
     0
281
     0
  0
CLASS
  1
SPATIAL_INDEX
  2
AcDbSpatialIndex
  3
AutoCAD 2000
 90
        0
280
     0
281
     0
  0
CLASS
  1
OBJECT_PTR
  2
CAseDLPNTableRecord
  3
"ASE-LPNTableRecord"
 90
        1
280
     0
281
     0
  0
CLASS
  1
LAYOUT
  2
AcDbLayout
  3
AutoCAD 2000
 90
        0
280
     0
281
     0
  0
CLASS
  1
PLOTSETTINGS
  2
AcDbPlotSettings
  3
AutoCAD 2000
 90
        0
280
     0
281
     0
  0
CLASS
  1
ACDBDICTIONARYWDFLT
  2
AcDbDictionaryWithDefault
  3
AutoCAD 2000
 90
        0
280
     0
281
     0
  0
CLASS
  1
ACDBPLACEHOLDER
  2
AcDbPlaceHolder
  3
AutoCAD 2000
 90
        0
280
     0
281
     0
  0
CLASS
  1
VBA_PROJECT
  2
AcDbVbaProject
  3
acadvba
 90
        0
280
     0
281
     0
  0
CLASS
  1
WIPEOUT
  2
AcDbWipeout
  3
WipeOut|AutoCAD Express Tool|expresstools@autodesk.com
 90
      127
280
     0
281
     1
  0
CLASS
  1
WIPEOUTVARIABLES
  2
AcDbWipeoutVariables
  3
WipeOut|AutoCAD Express Tool|expresstools@autodesk.com
 90
        0
280
     0
281
     0
  0
CLASS
  1
RTEXT
  2
RText
  3
RText|AutoCAD Express Tool|expresstools@autodesk.com
 90
        0
280
     0
281
     1
  0
CLASS
  1
ARCALIGNEDTEXT
  2
AcDbArcAlignedText
  3
ATEXT|AutoCAD Express Tool|expresstools@autodesk.com
 90
        0
280
     0
281
     1
  0
ENDSEC
  0
SECTION
  2
TABLES
  0
TABLE
  2
VPORT
  5
1094
100
AcDbSymbolTable
 70
     1
  0
VPORT
  5
10BB
100
AcDbSymbolTableRecord
100
AcDbViewportTableRecord
  2
*ACTIVE
 70
     0
 10
0.0
 20
0.0
 11
1.0
 21
1.0
 12
450.328833
 22
266.374849
 13
0.0
 23
0.0
 14
0.5
 24
0.5
 15
0.5
 25
0.5
 16
0.0
 26
0.0
 36
1.0
 17
0.0
 27
0.0
 37
0.0
 40
620.078606
 41
1.701534
 42
50.0
 43
0.0
 44
0.0
 50
0.0
 51
0.0
 71
    16
 72
  1000
 73
     1
 74
     3
 75
     0
 76
     0
 77
     0
 78
     0
281
     0
 65
     0
110
0.0
120
0.0
130
0.0
111
1.0
121
0.0
131
0.0
112
0.0
122
1.0
132
0.0
345
0
346
0
 79
     0
146
0.0
  0
ENDTAB
  0
TABLE
  2
LTYPE
  5
1091
100
AcDbSymbolTable
 70
     6
  0
LTYPE
  5
109A
100
AcDbSymbolTableRecord
100
AcDbLinetypeTableRecord
  2
ByBlock
 70
    64
  3

 72
    65
 73
     0
 40
0.0
  0
LTYPE
  5
109B
100
AcDbSymbolTableRecord
100
AcDbLinetypeTableRecord
  2
ByLayer
 70
    64
  3

 72
    65
 73
     0
 40
0.0
  0
LTYPE
  5
109C
100
AcDbSymbolTableRecord
100
AcDbLinetypeTableRecord
  2
CONTINUOUS
 70
     0
  3
Solid line
 72
    65
 73
     0
 40
0.0
  0
LTYPE
  5
109D
100
AcDbSymbolTableRecord
100
AcDbLinetypeTableRecord
  2
CENTER
 70
     0
  3
____ _ ____ _ ____ _ ____ _ ____ _ ____ _ ____
 72
    65
 73
     4
 40
0.6
 49
0.375
 74
     0
 49
-0.075
 74
     0
 49
0.075
 74
     0
 49
-0.075
 74
     0
  0
LTYPE
  5
109E
100
AcDbSymbolTableRecord
100
AcDbLinetypeTableRecord
  2
ACAD_ISO02W100
 70
     0
  3
ISO Strichlinie __ __ __ __ __ __ __ __ __ __ _
 72
    65
 73
     2
 40
15.0
 49
12.0
 74
     0
 49
-3.0
 74
     0
  0
LTYPE
  5
109F
100
AcDbSymbolTableRecord
100
AcDbLinetypeTableRecord
  2
DASHED
 70
     0
  3
_ _ _ _ _ _ _ _ _ _ _ _ _ _ _ _ _ _ _ _ _ _ _ _
 72
    65
 73
     2
 40
0.375
 49
0.25
 74
     0
 49
-0.125
 74
     0
  0
ENDTAB
  0
TABLE
  2
LAYER
  5
108F
100
AcDbSymbolTable
 70
     8
  0
LAYER
  5
10A0
100
AcDbSymbolTableRecord
100
AcDbLayerTableRecord
  2
0
 70
     0
 62
     7
  6
CONTINUOUS
290
     1
370
    -3
390
0
  0
LAYER
  5
10A1
100
AcDbSymbolTableRecord
100
AcDbLayerTableRecord
  2
90000_FRAME
 70
     0
 62
     7
  6
CONTINUOUS
290
     1
370
    -3
390
0
  0
LAYER
  5
10A2
100
AcDbSymbolTableRecord
100
AcDbLayerTableRecord
  2
91000_TIP
 70
     0
 62
     7
  6
CONTINUOUS
290
     1
370
    -3
390
0
  0
LAYER
  5
10A3
100
AcDbSymbolTableRecord
100
AcDbLayerTableRecord
  2
10000_FRONT
 70
     0
 62
     7
  6
CONTINUOUS
290
     1
370
    -3
390
0
  0
LAYER
  5
10A4
100
AcDbSymbolTableRecord
100
AcDbLayerTableRecord
  2
11000_LEFT
 70
     0
 62
     7
  6
CONTINUOUS
290
     1
370
    -3
390
0
  0
LAYER
  5
10A7
100
AcDbSymbolTableRecord
100
AcDbLayerTableRecord
  2
DEFPOINTS
 70
     0
 62
     7
  6
CONTINUOUS
290
     0
370
    -3
390
0
  0
LAYER
  5
10A8
100
AcDbSymbolTableRecord
100
AcDbLayerTableRecord
  2
10100_FRONT_DIM
 70
     0
 62
     7
  6
CONTINUOUS
290
     1
370
    -3
390
0
  0
LAYER
  5
10A9
100
AcDbSymbolTableRecord
100
AcDbLayerTableRecord
  2
11100_LEFT_DIM
 70
     0
 62
     7
  6
CONTINUOUS
290
     1
370
    -3
390
0
  0
ENDTAB
  0
TABLE
  2
STYLE
  5
1090
100
AcDbSymbolTable
 70
     1
  0
STYLE
  5
10C0
100
AcDbSymbolTableRecord
100
AcDbTextStyleTableRecord
  2
STANDARD
 70
     0
 40
0.0
 41
1.0
 50
0.0
 71
     0
 42
0.2
  3
txt.shx
  4

  0
ENDTAB
  0
TABLE
  2
VIEW
  5
1092
100
AcDbSymbolTable
 70
     0
  0
ENDTAB
  0
TABLE
  2
UCS
  5
1093
100
AcDbSymbolTable
 70
     0
  0
ENDTAB
  0
TABLE
  2
APPID
  5
1095
100
AcDbSymbolTable
 70
     4
  0
APPID
  5
10BC
100
AcDbSymbolTableRecord
100
AcDbRegAppTableRecord
  2
ACAD
 70
     0
  0
APPID
  5
10BD
100
AcDbSymbolTableRecord
100
AcDbRegAppTableRecord
  2
AUSTER_ANSICHT
 70
     0
  0
APPID
  5
10BE
100
AcDbSymbolTableRecord
100
AcDbRegAppTableRecord
  2
AUSTER_FOLIE
 70
     0
  0
APPID
  5
10BF
100
AcDbSymbolTableRecord
100
AcDbRegAppTableRecord
  2
ACAECLAYERSTANDARD
 70
     0
  0
ENDTAB
  0
TABLE
  2
DIMSTYLE
  5
1096
100
AcDbSymbolTable
 70
     3
100
AcDbDimStyleTable
 71
     0
  0
DIMSTYLE
105
10CA
100
AcDbSymbolTableRecord
100
AcDbDimStyleTableRecord
  2
STANDARD
 70
     0
  3

  4

 40
1.0
 41
0.18
 42
0.0625
 43
0.38
 44
0.18
 45
0.0
 46
0.0
 47
0.0
 48
0.0
 71
     0
 72
     0
 73
     1
 74
     1
 75
     0
 76
     0
 77
     0
 78
     0
 79
     0
140
0.18
141
0.09
142
0.0
143
25.4
144
1.0
145
0.0
146
1.0
147
0.09
148
0.0
170
     0
171
     2
172
     0
173
     0
174
     0
175
     0
176
     0
177
     0
178
     0
179
     0
271
     4
272
     4
273
     2
274
     2
275
     0
276
     0
277
     2
278
    46
279
     0
280
     0
281
     0
282
     0
283
     1
284
     0
285
     0
286
     0
288
     0
289
     3
340
10C0
341
0
342
0
343
0
344
0
371
    -2
372
    -2
  0
DIMSTYLE
105
10CB
100
AcDbSymbolTableRecord
100
AcDbDimStyleTableRecord
  2
DSTYLE1
 70
     0
  3

  4

 40
1.0
 41
3.0
 42
0.0
 43
0.38
 44
1.0
 45
0.0
 46
0.0
 47
0.0
 48
0.0
 71
     0
 72
     0
 73
     0
 74
     0
 75
     0
 76
     0
 77
     1
 78
     3
 79
     0
140
2.5
141
0.09
142
0.0
143
0.03937
144
1.0
145
0.0
146
1.0
147
1.0
148
0.0
170
     0
171
     2
172
     0
173
     0
174
     0
175
     0
176
     0
177
     0
178
     0
179
     0
271
     4
272
     4
273
     2
274
     2
275
     0
276
     0
277
     2
278
    46
279
     0
280
     0
281
     0
282
     0
283
     1
284
     0
285
     0
286
     0
288
     0
289
     3
340
10C0
341
0
342
0
343
0
344
0
371
    -2
372
    -2
  0
DIMSTYLE
105
10CC
100
AcDbSymbolTableRecord
100
AcDbDimStyleTableRecord
  2
H035
 70
     0
  3

  4

 40
0.0
 41
3.5
 42
0.0
 43
3.75
 44
2.0
 45
0.0
 46
0.0
 47
0.0
 48
0.0
 71
     0
 72
     0
 73
     0
 74
     0
 75
     0
 76
     0
 77
     1
 78
     8
 79
     0
140
3.5
141
2.5
142
0.0
143
0.039
144
1.0
145
0.0
146
1.0
147
0.5
148
0.0
170
     0
171
     4
172
     1
173
     0
174
     0
175
     0
176
   256
177
     7
178
     7
179
     0
271
     4
272
     4
273
     2
274
     2
275
     0
276
     0
277
     2
278
    46
279
     0
280
     0
281
     0
282
     0
283
     1
284
     0
285
     0
286
     0
288
     0
289
     3
340
10C0
341
0
342
0
343
0
344
0
371
    -2
372
    -2
  0
ENDTAB
  0
TABLE
  2
BLOCK_RECORD
  5
10C5
100
AcDbSymbolTable
 70
     2
  0
BLOCK_RECORD
  5
10C3
100
AcDbSymbolTableRecord
100
AcDbBlockTableRecord
  2
*Model_Space
340
0
  0
BLOCK_RECORD
  5
10C4
100
AcDbSymbolTableRecord
100
AcDbBlockTableRecord
  2
*Paper_Space
340
0
  0
BLOCK_RECORD
  5
10C1
100
AcDbSymbolTableRecord
100
AcDbBlockTableRecord
  2
$MODEL_SPACE
340
0
  0
BLOCK_RECORD
  5
10C2
100
AcDbSymbolTableRecord
100
AcDbBlockTableRecord
  2
$PAPER_SPACE
340
0
  0
ENDTAB
  0
ENDSEC
  0
SECTION
  2
BLOCKS
  0
BLOCK
  5
10C6
100
AcDbEntity
  8
0
390
0
100
AcDbBlockBegin
  2
*Model_Space
 70
     0
 10
0.0
 20
0.0
 30
0.0
  3
*Model_Space
  1

  0
ENDBLK
  5
10C7
100
AcDbEntity
  8
0
390
0
100
AcDbBlockEnd
  0
BLOCK
  5
10C8
100
AcDbEntity
 67
     1
  8
0
390
0
100
AcDbBlockBegin
  2
*Paper_Space
 70
     0
 10
0.0
 20
0.0
 30
0.0
  3
*Paper_Space
  1

  0
ENDBLK
  5
10C9
100
AcDbEntity
 67
     1
  8
0
390
0
100
AcDbBlockEnd
  0
BLOCK
  5
10CD
100
AcDbEntity
  8
0
100
AcDbBlockBegin
  2
$MODEL_SPACE
 70
     0
 10
0.0
 20
0.0
 30
0.0
  3
$MODEL_SPACE
  1

  0
ENDBLK
  5
21
100
AcDbEntity
  8
0
100
AcDbBlockEnd
  0
BLOCK
  5
10CE
100
AcDbEntity
  8
0
100
AcDbBlockBegin
  2
$PAPER_SPACE
 70
     0
 10
0.0
 20
0.0
 30
0.0
  3
$PAPER_SPACE
  1

  0
ENDBLK
  5
76
100
AcDbEntity
  8
0
100
AcDbBlockEnd
  0
ENDSEC
  0
SECTION
  2
ENTITIES
  0
LINE
  5
10D4
100
AcDbEntity
  8
10000_FRONT
370
    25
390
0
  6
CONTINUOUS
 62
     7
100
AcDbLine
 10
148.34364
 20
250.999998
 30
0.0
 11
147.65
 21
252.200003
 31
0.0
  0
LINE
  5
10D5
100
AcDbEntity
  8
10000_FRONT
370
    25
390
0
  6
CONTINUOUS
 62
     7
100
AcDbLine
 10
143.85
 20
395.599997
 30
0.0
 11
143.271964
 21
396.600005
 31
0.0
  0
LINE
  5
10D6
100
AcDbEntity
  8
10000_FRONT
370
    25
390
0
  6
CONTINUOUS
 62
     7
100
AcDbLine
 10
213.143639
 20
250.999998
 30
0.0
 11
212.449997
 21
252.200003
 31
0.0
  0
LINE
  5
10D7
100
AcDbEntity
  8
10000_FRONT
370
    25
390
0
  6
CONTINUOUS
 62
     7
100
AcDbLine
 10
166.15
 20
250.47
 30
0.0
 11
165.15
 21
252.200003
 31
0.0
  0
LINE
  5
10D8
100
AcDbEntity
  8
10000_FRONT
370
    25
390
0
  6
CONTINUOUS
 62
     7
100
AcDbLine
 10
131.15
 20
250.47
 30
0.0
 11
130.15
 21
252.200003
 31
0.0
  0
LINE
  5
10D9
100
AcDbEntity
  8
10000_FRONT
370
    25
390
0
  6
CONTINUOUS
 62
     7
100
AcDbLine
 10
195.950001
 20
250.47
 30
0.0
 11
194.950001
 21
252.200003
 31
0.0
  0
LINE
  5
10DA
100
AcDbEntity
  8
10000_FRONT
370
    25
390
0
  6
CONTINUOUS
 62
     7
100
AcDbLine
 10
230.949997
 20
250.47
 30
0.0
 11
229.949997
 21
252.200003
 31
0.0
  0
LINE
  5
10DB
100
AcDbEntity
  8
10000_FRONT
370
    25
390
0
  6
CONTINUOUS
 62
     7
100
AcDbLine
 10
191.150002
 20
395.599997
 30
0.0
 11
190.150002
 21
397.33
 31
0.0
  0
LINE
  5
10DC
100
AcDbEntity
  8
10000_FRONT
370
    25
390
0
  6
CONTINUOUS
 62
     7
100
AcDbLine
 10
208.650002
 20
395.599997
 30
0.0
 11
208.071964
 21
396.600005
 31
0.0
  0
LINE
  5
10DD
100
AcDbEntity
  8
10000_FRONT
370
    25
390
0
  6
CONTINUOUS
 62
     7
100
AcDbLine
 10
226.150002
 20
395.599997
 30
0.0
 11
225.150002
 21
397.33
 31
0.0
  0
LINE
  5
10DE
100
AcDbEntity
  8
10000_FRONT
370
    25
390
0
  6
CONTINUOUS
 62
     7
100
AcDbLine
 10
161.35
 20
395.599997
 30
0.0
 11
160.35
 21
397.33
 31
0.0
  0
LINE
  5
10DF
100
AcDbEntity
  8
10000_FRONT
370
    25
390
0
  6
CONTINUOUS
 62
     7
100
AcDbLine
 10
126.35
 20
395.599997
 30
0.0
 11
125.35
 21
397.33
 31
0.0
  0
LINE
  5
10E0
100
AcDbEntity
  8
10000_FRONT
370
    25
390
0
  6
CONTINUOUS
 62
     7
100
AcDbLine
 10
211.199997
 20
281.9
 30
0.0
 11
211.050003
 21
282.050002
 31
0.0
  0
LINE
  5
10E1
100
AcDbEntity
  8
10000_FRONT
370
    25
390
0
  6
CONTINUOUS
 62
     7
100
AcDbLine
 10
211.199997
 20
359.100001
 30
0.0
 11
211.050003
 21
359.249998
 31
0.0
  0
LINE
  5
10E2
100
AcDbEntity
  8
10000_FRONT
370
    25
390
0
  6
CONTINUOUS
 62
     7
100
AcDbLine
 10
210.099998
 20
278.4
 30
0.0
 11
209.800003
 21
278.699999
 31
0.0
  0
LINE
  5
10E3
100
AcDbEntity
  8
10000_FRONT
370
    25
390
0
  6
CONTINUOUS
 62
     7
100
AcDbLine
 10
210.099998
 20
355.600001
 30
0.0
 11
209.800003
 21
355.9
 31
0.0
  0
LINE
  5
10E4
100
AcDbEntity
  8
10000_FRONT
370
    25
390
0
  6
CONTINUOUS
 62
     7
100
AcDbLine
 10
211.050003
 20
355.749998
 30
0.0
 11
210.900002
 21
355.9
 31
0.0
  0
LINE
  5
10E5
100
AcDbEntity
  8
10000_FRONT
370
    25
390
0
  6
CONTINUOUS
 62
     7
100
AcDbLine
 10
211.050003
 20
359.249998
 30
0.0
 11
210.900002
 21
359.4
 31
0.0
  0
LINE
  5
10E6
100
AcDbEntity
  8
10000_FRONT
370
    25
390
0
  6
CONTINUOUS
 62
     7
100
AcDbLine
 10
195.400002
 20
278.4
 30
0.0
 11
195.25
 21
278.550002
 31
0.0
  0
LINE
  5
10E7
100
AcDbEntity
  8
10000_FRONT
370
    25
390
0
  6
CONTINUOUS
 62
     7
100
AcDbLine
 10
196.5
 20
281.9
 30
0.0
 11
196.200001
 21
282.199999
 31
0.0
  0
LINE
  5
10E8
100
AcDbEntity
  8
10000_FRONT
370
    25
390
0
  6
CONTINUOUS
 62
     7
100
AcDbLine
 10
195.400002
 20
281.9
 30
0.0
 11
195.25
 21
282.050002
 31
0.0
  0
LINE
  5
10E9
100
AcDbEntity
  8
10000_FRONT
370
    25
390
0
  6
CONTINUOUS
 62
     7
100
AcDbLine
 10
195.25
 20
355.749998
 30
0.0
 11
195.099998
 21
355.9
 31
0.0
  0
LINE
  5
10EA
100
AcDbEntity
  8
10000_FRONT
370
    25
390
0
  6
CONTINUOUS
 62
     7
100
AcDbLine
 10
196.5
 20
359.100001
 30
0.0
 11
196.200001
 21
359.4
 31
0.0
  0
LINE
  5
10EB
100
AcDbEntity
  8
10000_FRONT
370
    25
390
0
  6
CONTINUOUS
 62
     7
100
AcDbLine
 10
211.050003
 20
278.550002
 30
0.0
 11
210.900002
 21
278.699999
 31
0.0
  0
LINE
  5
10EC
100
AcDbEntity
  8
10000_FRONT
370
    25
390
0
  6
CONTINUOUS
 62
     7
100
AcDbLine
 10
211.050003
 20
282.050002
 30
0.0
 11
210.900002
 21
282.199999
 31
0.0
  0
LINE
  5
10ED
100
AcDbEntity
  8
10000_FRONT
370
    25
390
0
  6
CONTINUOUS
 62
     7
100
AcDbLine
 10
195.25
 20
278.550002
 30
0.0
 11
195.099998
 21
278.699999
 31
0.0
  0
LINE
  5
10EE
100
AcDbEntity
  8
10000_FRONT
370
    25
390
0
  6
CONTINUOUS
 62
     7
100
AcDbLine
 10
195.400002
 20
355.600001
 30
0.0
 11
195.25
 21
355.749998
 31
0.0
  0
LINE
  5
10EF
100
AcDbEntity
  8
10000_FRONT
370
    25
390
0
  6
CONTINUOUS
 62
     7
100
AcDbLine
 10
195.400002
 20
359.100001
 30
0.0
 11
195.25
 21
359.249998
 31
0.0
  0
LINE
  5
10F0
100
AcDbEntity
  8
10000_FRONT
370
    25
390
0
  6
CONTINUOUS
 62
     7
100
AcDbLine
 10
212.612335
 20
240.254485
 30
0.0
 11
212.550003
 21
240.300002
 31
0.0
  0
LINE
  5
10F1
100
AcDbEntity
  8
10000_FRONT
370
    25
390
0
  6
CONTINUOUS
 62
     7
100
AcDbLine
 10
212.675797
 20
240.208182
 30
0.0
 11
212.612335
 21
240.254485
 31
0.0
  0
LINE
  5
10F2
100
AcDbEntity
  8
10000_FRONT
370
    25
390
0
  6
CONTINUOUS
 62
     7
100
AcDbLine
 10
212.74025
 20
240.161292
 30
0.0
 11
212.675797
 21
240.208182
 31
0.0
  0
LINE
  5
10F3
100
AcDbEntity
  8
10000_FRONT
370
    25
390
0
  6
CONTINUOUS
 62
     7
100
AcDbLine
 10
212.805374
 20
240.114081
 30
0.0
 11
212.74025
 21
240.161292
 31
0.0
  0
LINE
  5
10F4
100
AcDbEntity
  8
10000_FRONT
370
    25
390
0
  6
CONTINUOUS
 62
     7
100
AcDbLine
 10
212.870872
 20
240.066862
 30
0.0
 11
212.805374
 21
240.114081
 31
0.0
  0
LINE
  5
10F5
100
AcDbEntity
  8
10000_FRONT
370
    25
390
0
  6
CONTINUOUS
 62
     7
100
AcDbLine
 10
212.936432
 20
240.019911
 30
0.0
 11
212.870872
 21
240.066862
 31
0.0
  0
LINE
  5
10F6
100
AcDbEntity
  8
10000_FRONT
370
    25
390
0
  6
CONTINUOUS
 62
     7
100
AcDbLine
 10
213.001747
 20
239.97354
 30
0.0
 11
212.936432
 21
240.019911
 31
0.0
  0
LINE
  5
10F7
100
AcDbEntity
  8
10000_FRONT
370
    25
390
0
  6
CONTINUOUS
 62
     7
100
AcDbLine
 10
213.066528
 20
239.92803
 30
0.0
 11
213.001747
 21
239.97354
 31
0.0
  0
LINE
  5
10F8
100
AcDbEntity
  8
10000_FRONT
370
    25
390
0
  6
CONTINUOUS
 62
     7
100
AcDbLine
 10
213.130508
 20
239.883665
 30
0.0
 11
213.066528
 21
239.92803
 31
0.0
  0
LINE
  5
10F9
100
AcDbEntity
  8
10000_FRONT
370
    25
390
0
  6
CONTINUOUS
 62
     7
100
AcDbLine
 10
213.193428
 20
239.840689
 30
0.0
 11
213.130508
 21
239.883665
 31
0.0
  0
LINE
  5
10FA
100
AcDbEntity
  8
10000_FRONT
370
    25
390
0
  6
CONTINUOUS
 62
     7
100
AcDbLine
 10
213.255028
 20
239.799384
 30
0.0
 11
213.193428
 21
239.840689
 31
0.0
  0
LINE
  5
10FB
100
AcDbEntity
  8
10000_FRONT
370
    25
390
0
  6
CONTINUOUS
 62
     7
100
AcDbLine
 10
213.315041
 20
239.760001
 30
0.0
 11
213.255028
 21
239.799384
 31
0.0
  0
LINE
  5
10FC
100
AcDbEntity
  8
10000_FRONT
370
    25
390
0
  6
CONTINUOUS
 62
     7
100
AcDbLine
 10
213.373207
 20
239.7228
 30
0.0
 11
213.315041
 21
239.760001
 31
0.0
  0
LINE
  5
10FD
100
AcDbEntity
  8
10000_FRONT
370
    25
390
0
  6
CONTINUOUS
 62
     7
100
AcDbLine
 10
213.429413
 20
239.687949
 30
0.0
 11
213.373207
 21
239.7228
 31
0.0
  0
LINE
  5
10FE
100
AcDbEntity
  8
10000_FRONT
370
    25
390
0
  6
CONTINUOUS
 62
     7
100
AcDbLine
 10
213.485603
 20
239.654417
 30
0.0
 11
213.429413
 21
239.687949
 31
0.0
  0
LINE
  5
10FF
100
AcDbEntity
  8
10000_FRONT
370
    25
390
0
  6
CONTINUOUS
 62
     7
100
AcDbLine
 10
213.541809
 20
239.622443
 30
0.0
 11
213.485603
 21
239.654417
 31
0.0
  0
LINE
  5
1100
100
AcDbEntity
  8
10000_FRONT
370
    25
390
0
  6
CONTINUOUS
 62
     7
100
AcDbLine
 10
213.59726
 20
239.592764
 30
0.0
 11
213.541809
 21
239.622443
 31
0.0
  0
LINE
  5
1101
100
AcDbEntity
  8
10000_FRONT
370
    25
390
0
  6
CONTINUOUS
 62
     7
100
AcDbLine
 10
213.651176
 20
239.566153
 30
0.0
 11
213.59726
 21
239.592764
 31
0.0
  0
LINE
  5
1102
100
AcDbEntity
  8
10000_FRONT
370
    25
390
0
  6
CONTINUOUS
 62
     7
100
AcDbLine
 10
213.702812
 20
239.543349
 30
0.0
 11
213.651176
 21
239.566153
 31
0.0
  0
LINE
  5
1103
100
AcDbEntity
  8
10000_FRONT
370
    25
390
0
  6
CONTINUOUS
 62
     7
100
AcDbLine
 10
213.751595
 20
239.524947
 30
0.0
 11
213.702812
 21
239.543349
 31
0.0
  0
LINE
  5
1104
100
AcDbEntity
  8
10000_FRONT
370
    25
390
0
  6
CONTINUOUS
 62
     7
100
AcDbLine
 10
213.797104
 20
239.511343
 30
0.0
 11
213.751595
 21
239.524947
 31
0.0
  0
LINE
  5
1105
100
AcDbEntity
  8
10000_FRONT
370
    25
390
0
  6
CONTINUOUS
 62
     7
100
AcDbLine
 10
213.838928
 20
239.502898
 30
0.0
 11
213.797104
 21
239.511343
 31
0.0
  0
LINE
  5
1106
100
AcDbEntity
  8
10000_FRONT
370
    25
390
0
  6
CONTINUOUS
 62
     7
100
AcDbLine
 10
213.876648
 20
239.499998
 30
0.0
 11
213.838928
 21
239.502898
 31
0.0
  0
LINE
  5
1107
100
AcDbEntity
  8
10000_FRONT
370
    25
390
0
  6
CONTINUOUS
 62
     7
100
AcDbLine
 10
142.25
 20
235.999998
 30
0.0
 11
214.050003
 21
235.999998
 31
0.0
  0
LINE
  5
1108
100
AcDbEntity
  8
10000_FRONT
370
    25
390
0
  6
CONTINUOUS
 62
     7
100
AcDbLine
 10
213.876648
 20
239.499998
 30
0.0
 11
235.5
 21
239.499998
 31
0.0
  0
LINE
  5
1109
100
AcDbEntity
  8
10000_FRONT
370
    25
390
0
  6
CONTINUOUS
 62
     7
100
AcDbLine
 10
121.5
 20
239.499998
 30
0.0
 11
142.42335
 21
239.499998
 31
0.0
  0
LINE
  5
110A
100
AcDbEntity
  8
10000_FRONT
370
    25
390
0
  6
CONTINUOUS
 62
     7
100
AcDbLine
 10
120.799999
 20
239.499998
 30
0.0
 11
121.5
 21
239.499998
 31
0.0
  0
LINE
  5
110B
100
AcDbEntity
  8
10000_FRONT
370
    25
390
0
  6
CONTINUOUS
 62
     7
100
AcDbLine
 10
120.0
 20
240.300002
 30
0.0
 11
143.75
 21
240.300002
 31
0.0
  0
LINE
  5
110C
100
AcDbEntity
  8
10000_FRONT
370
    25
390
0
  6
CONTINUOUS
 62
     7
100
AcDbLine
 10
212.550003
 20
240.300002
 30
0.0
 11
234.800003
 21
240.300002
 31
0.0
  0
LINE
  5
110D
100
AcDbEntity
  8
10000_FRONT
370
    25
390
0
  6
CONTINUOUS
 62
     7
100
AcDbLine
 10
234.800003
 20
240.300002
 30
0.0
 11
236.300003
 21
240.300002
 31
0.0
  0
LINE
  5
110E
100
AcDbEntity
  8
10000_FRONT
370
    25
390
0
  6
CONTINUOUS
 62
     7
100
AcDbLine
 10
120.0
 20
247.200003
 30
0.0
 11
121.5
 21
247.200003
 31
0.0
  0
LINE
  5
110F
100
AcDbEntity
  8
10000_FRONT
370
    25
390
0
  6
CONTINUOUS
 62
     7
100
AcDbLine
 10
135.2
 20
247.200003
 30
0.0
 11
139.0
 21
247.200003
 31
0.0
  0
LINE
  5
1110
100
AcDbEntity
  8
10000_FRONT
370
    25
390
0
  6
CONTINUOUS
 62
     7
100
AcDbLine
 10
152.5
 20
247.200003
 30
0.0
 11
155.3
 21
247.200003
 31
0.0
  0
LINE
  5
1111
100
AcDbEntity
  8
10000_FRONT
370
    25
390
0
  6
CONTINUOUS
 62
     7
100
AcDbLine
 10
169.0
 20
247.200003
 30
0.0
 11
170.799999
 21
247.200003
 31
0.0
  0
LINE
  5
1112
100
AcDbEntity
  8
10000_FRONT
370
    25
390
0
  6
CONTINUOUS
 62
     7
100
AcDbLine
 10
184.5
 20
247.200003
 30
0.0
 11
186.299999
 21
247.200003
 31
0.0
  0
LINE
  5
1113
100
AcDbEntity
  8
10000_FRONT
370
    25
390
0
  6
CONTINUOUS
 62
     7
100
AcDbLine
 10
200.0
 20
247.200003
 30
0.0
 11
203.799999
 21
247.200003
 31
0.0
  0
LINE
  5
1114
100
AcDbEntity
  8
10000_FRONT
370
    25
390
0
  6
CONTINUOUS
 62
     7
100
AcDbLine
 10
217.300003
 20
247.200003
 30
0.0
 11
221.300003
 21
247.200003
 31
0.0
  0
LINE
  5
1115
100
AcDbEntity
  8
10000_FRONT
370
    25
390
0
  6
CONTINUOUS
 62
     7
100
AcDbLine
 10
235.0
 20
247.200003
 30
0.0
 11
236.300003
 21
247.200003
 31
0.0
  0
LINE
  5
1116
100
AcDbEntity
  8
10000_FRONT
370
    25
390
0
  6
CONTINUOUS
 62
     7
100
AcDbLine
 10
234.800003
 20
247.200003
 30
0.0
 11
235.0
 21
247.200003
 31
0.0
  0
LINE
  5
1117
100
AcDbEntity
  8
10000_FRONT
370
    25
390
0
  6
CONTINUOUS
 62
     7
100
AcDbLine
 10
186.099998
 20
248.999998
 30
0.0
 11
200.0
 21
248.999998
 31
0.0
  0
LINE
  5
1118
100
AcDbEntity
  8
10000_FRONT
370
    25
390
0
  6
CONTINUOUS
 62
     7
100
AcDbLine
 10
203.599998
 20
248.999998
 30
0.0
 11
203.800011
 21
248.999998
 31
0.0
  0
LINE
  5
1119
100
AcDbEntity
  8
10000_FRONT
370
    25
390
0
  6
CONTINUOUS
 62
     7
100
AcDbLine
 10
221.099998
 20
248.999998
 30
0.0
 11
221.300011
 21
248.999998
 31
0.0
  0
LINE
  5
111A
100
AcDbEntity
  8
10000_FRONT
370
    25
390
0
  6
CONTINUOUS
 62
     7
100
AcDbLine
 10
169.00001
 20
248.999998
 30
0.0
 11
170.200001
 21
248.999998
 31
0.0
  0
LINE
  5
111B
100
AcDbEntity
  8
10000_FRONT
370
    25
390
0
  6
CONTINUOUS
 62
     7
100
AcDbLine
 10
152.500009
 20
248.999998
 30
0.0
 11
152.7
 21
248.999998
 31
0.0
  0
LINE
  5
111C
100
AcDbEntity
  8
10000_FRONT
370
    25
390
0
  6
CONTINUOUS
 62
     7
100
AcDbLine
 10
121.5
 20
248.999998
 30
0.0
 11
135.2
 21
248.999998
 31
0.0
  0
LINE
  5
111D
100
AcDbEntity
  8
10000_FRONT
370
    25
390
0
  6
CONTINUOUS
 62
     7
100
AcDbLine
 10
221.300003
 20
248.999998
 30
0.0
 11
235.0
 21
248.999998
 31
0.0
  0
LINE
  5
111E
100
AcDbEntity
  8
10000_FRONT
370
    25
390
0
  6
CONTINUOUS
 62
     7
100
AcDbLine
 10
155.3
 20
248.999998
 30
0.0
 11
169.0
 21
248.999998
 31
0.0
  0
LINE
  5
111F
100
AcDbEntity
  8
10000_FRONT
370
    25
390
0
  6
CONTINUOUS
 62
     7
100
AcDbLine
 10
170.799999
 20
248.999998
 30
0.0
 11
184.5
 21
248.999998
 31
0.0
  0
LINE
  5
1120
100
AcDbEntity
  8
10000_FRONT
370
    25
390
0
  6
CONTINUOUS
 62
     7
100
AcDbLine
 10
225.150002
 20
250.47
 30
0.0
 11
230.949997
 21
250.47
 31
0.0
  0
LINE
  5
1121
100
AcDbEntity
  8
10000_FRONT
370
    25
390
0
  6
CONTINUOUS
 62
     7
100
AcDbLine
 10
190.150002
 20
250.47
 30
0.0
 11
195.950001
 21
250.47
 31
0.0
  0
LINE
  5
1122
100
AcDbEntity
  8
10000_FRONT
370
    25
390
0
  6
CONTINUOUS
 62
     7
100
AcDbLine
 10
125.35
 20
250.47
 30
0.0
 11
131.15
 21
250.47
 31
0.0
  0
LINE
  5
1123
100
AcDbEntity
  8
10000_FRONT
370
    25
390
0
  6
CONTINUOUS
 62
     7
100
AcDbLine
 10
160.35
 20
250.47
 30
0.0
 11
166.15
 21
250.47
 31
0.0
  0
LINE
  5
1124
100
AcDbEntity
  8
10000_FRONT
370
    25
390
0
  6
CONTINUOUS
 62
     7
100
AcDbLine
 10
139.0
 20
250.999998
 30
0.0
 11
152.5
 21
250.999998
 31
0.0
  0
LINE
  5
1125
100
AcDbEntity
  8
10000_FRONT
370
    25
390
0
  6
CONTINUOUS
 62
     7
100
AcDbLine
 10
203.799999
 20
250.999998
 30
0.0
 11
217.300003
 21
250.999998
 31
0.0
  0
LINE
  5
1126
100
AcDbEntity
  8
10000_FRONT
370
    25
390
0
  6
CONTINUOUS
 62
     7
100
AcDbLine
 10
191.049999
 20
252.200003
 30
0.0
 11
195.049999
 21
252.200003
 31
0.0
  0
LINE
  5
1127
100
AcDbEntity
  8
10000_FRONT
370
    25
390
0
  6
CONTINUOUS
 62
     7
100
AcDbLine
 10
208.549999
 20
252.200003
 30
0.0
 11
212.550003
 21
252.200003
 31
0.0
  0
LINE
  5
1128
100
AcDbEntity
  8
10000_FRONT
370
    25
390
0
  6
CONTINUOUS
 62
     7
100
AcDbLine
 10
226.050003
 20
252.200003
 30
0.0
 11
230.050003
 21
252.200003
 31
0.0
  0
LINE
  5
1129
100
AcDbEntity
  8
10000_FRONT
370
    25
390
0
  6
CONTINUOUS
 62
     7
100
AcDbLine
 10
161.25
 20
252.200003
 30
0.0
 11
165.25
 21
252.200003
 31
0.0
  0
LINE
  5
112A
100
AcDbEntity
  8
10000_FRONT
370
    25
390
0
  6
CONTINUOUS
 62
     7
100
AcDbLine
 10
143.75
 20
252.200003
 30
0.0
 11
147.75
 21
252.200003
 31
0.0
  0
LINE
  5
112B
100
AcDbEntity
  8
10000_FRONT
370
    25
390
0
  6
CONTINUOUS
 62
     7
100
AcDbLine
 10
126.25
 20
252.200003
 30
0.0
 11
130.25
 21
252.200003
 31
0.0
  0
LINE
  5
112C
100
AcDbEntity
  8
10000_FRONT
370
    25
390
0
  6
CONTINUOUS
 62
     7
100
AcDbLine
 10
191.049999
 20
264.199999
 30
0.0
 11
195.049999
 21
264.199999
 31
0.0
  0
LINE
  5
112D
100
AcDbEntity
  8
10000_FRONT
370
    25
390
0
  6
CONTINUOUS
 62
     7
100
AcDbLine
 10
208.549999
 20
264.199999
 30
0.0
 11
212.550003
 21
264.199999
 31
0.0
  0
LINE
  5
112E
100
AcDbEntity
  8
10000_FRONT
370
    25
390
0
  6
CONTINUOUS
 62
     7
100
AcDbLine
 10
226.050003
 20
264.199999
 30
0.0
 11
230.050003
 21
264.199999
 31
0.0
  0
LINE
  5
112F
100
AcDbEntity
  8
10000_FRONT
370
    25
390
0
  6
CONTINUOUS
 62
     7
100
AcDbLine
 10
161.25
 20
264.199999
 30
0.0
 11
165.25
 21
264.199999
 31
0.0
  0
LINE
  5
1130
100
AcDbEntity
  8
10000_FRONT
370
    25
390
0
  6
CONTINUOUS
 62
     7
100
AcDbLine
 10
143.75
 20
264.199999
 30
0.0
 11
147.75
 21
264.199999
 31
0.0
  0
LINE
  5
1131
100
AcDbEntity
  8
10000_FRONT
370
    25
390
0
  6
CONTINUOUS
 62
     7
100
AcDbLine
 10
126.25
 20
264.199999
 30
0.0
 11
130.25
 21
264.199999
 31
0.0
  0
LINE
  5
1132
100
AcDbEntity
  8
10000_FRONT
370
    25
390
0
  6
CONTINUOUS
 62
     7
100
AcDbLine
 10
198.150002
 20
277.300002
 30
0.0
 11
208.150002
 21
277.300002
 31
0.0
  0
LINE
  5
1133
100
AcDbEntity
  8
10000_FRONT
370
    25
390
0
  6
CONTINUOUS
 62
     7
100
AcDbLine
 10
209.900002
 20
277.519999
 30
0.0
 11
210.900002
 21
277.519999
 31
0.0
  0
LINE
  5
1134
100
AcDbEntity
  8
10000_FRONT
370
    25
390
0
  6
CONTINUOUS
 62
     7
100
AcDbLine
 10
195.400002
 20
277.519999
 30
0.0
 11
196.400002
 21
277.519999
 31
0.0
  0
LINE
  5
1135
100
AcDbEntity
  8
10000_FRONT
370
    25
390
0
  6
CONTINUOUS
 62
     7
100
AcDbLine
 10
198.150002
 20
277.600001
 30
0.0
 11
208.150002
 21
277.600001
 31
0.0
  0
LINE
  5
1136
100
AcDbEntity
  8
10000_FRONT
370
    25
390
0
  6
CONTINUOUS
 62
     7
100
AcDbLine
 10
200.150002
 20
278.300002
 30
0.0
 11
206.150002
 21
278.300002
 31
0.0
  0
LINE
  5
1137
100
AcDbEntity
  8
10000_FRONT
370
    25
390
0
  6
CONTINUOUS
 62
     7
100
AcDbLine
 10
195.400002
 20
278.4
 30
0.0
 11
198.150002
 21
278.4
 31
0.0
  0
LINE
  5
1138
100
AcDbEntity
  8
10000_FRONT
370
    25
390
0
  6
CONTINUOUS
 62
     7
100
AcDbLine
 10
210.099998
 20
278.4
 30
0.0
 11
210.900002
 21
278.4
 31
0.0
  0
LINE
  5
1139
100
AcDbEntity
  8
10000_FRONT
370
    25
390
0
  6
CONTINUOUS
 62
     7
100
AcDbLine
 10
208.150002
 20
278.4
 30
0.0
 11
210.099998
 21
278.4
 31
0.0
  0
LINE
  5
113A
100
AcDbEntity
  8
10000_FRONT
370
    25
390
0
  6
CONTINUOUS
 62
     7
100
AcDbLine
 10
195.400002
 20
278.699999
 30
0.0
 11
196.5
 21
278.699999
 31
0.0
  0
LINE
  5
113B
100
AcDbEntity
  8
10000_FRONT
370
    25
390
0
  6
CONTINUOUS
 62
     7
100
AcDbLine
 10
209.800003
 20
278.699999
 30
0.0
 11
210.900002
 21
278.699999
 31
0.0
  0
LINE
  5
113C
100
AcDbEntity
  8
10000_FRONT
370
    25
390
0
  6
CONTINUOUS
 62
     7
100
AcDbLine
 10
196.5
 20
279.300002
 30
0.0
 11
198.150002
 21
279.300002
 31
0.0
  0
LINE
  5
113D
100
AcDbEntity
  8
10000_FRONT
370
    25
390
0
  6
CONTINUOUS
 62
     7
100
AcDbLine
 10
208.150002
 20
279.300002
 30
0.0
 11
209.800003
 21
279.300002
 31
0.0
  0
LINE
  5
113E
100
AcDbEntity
  8
10000_FRONT
370
    25
390
0
  6
CONTINUOUS
 62
     7
100
AcDbLine
 10
208.150002
 20
279.4
 30
0.0
 11
209.800003
 21
279.4
 31
0.0
  0
LINE
  5
113F
100
AcDbEntity
  8
10000_FRONT
370
    25
390
0
  6
CONTINUOUS
 62
     7
100
AcDbLine
 10
196.5
 20
279.4
 30
0.0
 11
198.150002
 21
279.4
 31
0.0
  0
LINE
  5
1140
100
AcDbEntity
  8
10000_FRONT
370
    25
390
0
  6
CONTINUOUS
 62
     7
100
AcDbLine
 10
208.150002
 20
281.199999
 30
0.0
 11
209.800003
 21
281.199999
 31
0.0
  0
LINE
  5
1141
100
AcDbEntity
  8
10000_FRONT
370
    25
390
0
  6
CONTINUOUS
 62
     7
100
AcDbLine
 10
196.5
 20
281.199999
 30
0.0
 11
198.150002
 21
281.199999
 31
0.0
  0
LINE
  5
1142
100
AcDbEntity
  8
10000_FRONT
370
    25
390
0
  6
CONTINUOUS
 62
     7
100
AcDbLine
 10
208.150002
 20
281.300002
 30
0.0
 11
209.800003
 21
281.300002
 31
0.0
  0
LINE
  5
1143
100
AcDbEntity
  8
10000_FRONT
370
    25
390
0
  6
CONTINUOUS
 62
     7
100
AcDbLine
 10
196.5
 20
281.300002
 30
0.0
 11
198.150002
 21
281.300002
 31
0.0
  0
LINE
  5
1144
100
AcDbEntity
  8
10000_FRONT
370
    25
390
0
  6
CONTINUOUS
 62
     7
100
AcDbLine
 10
195.400002
 20
281.9
 30
0.0
 11
196.5
 21
281.9
 31
0.0
  0
LINE
  5
1145
100
AcDbEntity
  8
10000_FRONT
370
    25
390
0
  6
CONTINUOUS
 62
     7
100
AcDbLine
 10
209.800003
 20
281.9
 30
0.0
 11
210.900002
 21
281.9
 31
0.0
  0
LINE
  5
1146
100
AcDbEntity
  8
10000_FRONT
370
    25
390
0
  6
CONTINUOUS
 62
     7
100
AcDbLine
 10
208.150002
 20
282.199999
 30
0.0
 11
210.900002
 21
282.199999
 31
0.0
  0
LINE
  5
1147
100
AcDbEntity
  8
10000_FRONT
370
    25
390
0
  6
CONTINUOUS
 62
     7
100
AcDbLine
 10
195.400002
 20
282.199999
 30
0.0
 11
196.200001
 21
282.199999
 31
0.0
  0
LINE
  5
1148
100
AcDbEntity
  8
10000_FRONT
370
    25
390
0
  6
CONTINUOUS
 62
     7
100
AcDbLine
 10
196.200001
 20
282.199999
 30
0.0
 11
198.150002
 21
282.199999
 31
0.0
  0
LINE
  5
1149
100
AcDbEntity
  8
10000_FRONT
370
    25
390
0
  6
CONTINUOUS
 62
     7
100
AcDbLine
 10
200.150002
 20
282.300002
 30
0.0
 11
206.150002
 21
282.300002
 31
0.0
  0
LINE
  5
114A
100
AcDbEntity
  8
10000_FRONT
370
    25
390
0
  6
CONTINUOUS
 62
     7
100
AcDbLine
 10
198.150002
 20
282.999998
 30
0.0
 11
208.150002
 21
282.999998
 31
0.0
  0
LINE
  5
114B
100
AcDbEntity
  8
10000_FRONT
370
    25
390
0
  6
CONTINUOUS
 62
     7
100
AcDbLine
 10
209.900002
 20
283.08
 30
0.0
 11
210.900002
 21
283.08
 31
0.0
  0
LINE
  5
114C
100
AcDbEntity
  8
10000_FRONT
370
    25
390
0
  6
CONTINUOUS
 62
     7
100
AcDbLine
 10
195.400002
 20
283.08
 30
0.0
 11
196.400002
 21
283.08
 31
0.0
  0
LINE
  5
114D
100
AcDbEntity
  8
10000_FRONT
370
    25
390
0
  6
CONTINUOUS
 62
     7
100
AcDbLine
 10
198.150002
 20
283.300002
 30
0.0
 11
208.150002
 21
283.300002
 31
0.0
  0
LINE
  5
114E
100
AcDbEntity
  8
10000_FRONT
370
    25
390
0
  6
CONTINUOUS
 62
     7
100
AcDbLine
 10
198.150002
 20
354.499998
 30
0.0
 11
208.150002
 21
354.499998
 31
0.0
  0
LINE
  5
114F
100
AcDbEntity
  8
10000_FRONT
370
    25
390
0
  6
CONTINUOUS
 62
     7
100
AcDbLine
 10
209.900002
 20
354.72
 30
0.0
 11
210.900002
 21
354.72
 31
0.0
  0
LINE
  5
1150
100
AcDbEntity
  8
10000_FRONT
370
    25
390
0
  6
CONTINUOUS
 62
     7
100
AcDbLine
 10
195.400002
 20
354.72
 30
0.0
 11
196.400002
 21
354.72
 31
0.0
  0
LINE
  5
1151
100
AcDbEntity
  8
10000_FRONT
370
    25
390
0
  6
CONTINUOUS
 62
     7
100
AcDbLine
 10
198.150002
 20
354.800002
 30
0.0
 11
208.150002
 21
354.800002
 31
0.0
  0
LINE
  5
1152
100
AcDbEntity
  8
10000_FRONT
370
    25
390
0
  6
CONTINUOUS
 62
     7
100
AcDbLine
 10
200.150002
 20
355.499998
 30
0.0
 11
206.150002
 21
355.499998
 31
0.0
  0
LINE
  5
1153
100
AcDbEntity
  8
10000_FRONT
370
    25
390
0
  6
CONTINUOUS
 62
     7
100
AcDbLine
 10
195.400002
 20
355.600001
 30
0.0
 11
198.150002
 21
355.600001
 31
0.0
  0
LINE
  5
1154
100
AcDbEntity
  8
10000_FRONT
370
    25
390
0
  6
CONTINUOUS
 62
     7
100
AcDbLine
 10
210.099998
 20
355.600001
 30
0.0
 11
210.900002
 21
355.600001
 31
0.0
  0
LINE
  5
1155
100
AcDbEntity
  8
10000_FRONT
370
    25
390
0
  6
CONTINUOUS
 62
     7
100
AcDbLine
 10
208.150002
 20
355.600001
 30
0.0
 11
210.099998
 21
355.600001
 31
0.0
  0
LINE
  5
1156
100
AcDbEntity
  8
10000_FRONT
370
    25
390
0
  6
CONTINUOUS
 62
     7
100
AcDbLine
 10
195.400002
 20
355.9
 30
0.0
 11
196.5
 21
355.9
 31
0.0
  0
LINE
  5
1157
100
AcDbEntity
  8
10000_FRONT
370
    25
390
0
  6
CONTINUOUS
 62
     7
100
AcDbLine
 10
209.800003
 20
355.9
 30
0.0
 11
210.900002
 21
355.9
 31
0.0
  0
LINE
  5
1158
100
AcDbEntity
  8
10000_FRONT
370
    25
390
0
  6
CONTINUOUS
 62
     7
100
AcDbLine
 10
196.5
 20
356.499998
 30
0.0
 11
198.150002
 21
356.499998
 31
0.0
  0
LINE
  5
1159
100
AcDbEntity
  8
10000_FRONT
370
    25
390
0
  6
CONTINUOUS
 62
     7
100
AcDbLine
 10
208.150002
 20
356.499998
 30
0.0
 11
209.800003
 21
356.499998
 31
0.0
  0
LINE
  5
115A
100
AcDbEntity
  8
10000_FRONT
370
    25
390
0
  6
CONTINUOUS
 62
     7
100
AcDbLine
 10
208.150002
 20
356.600001
 30
0.0
 11
209.800003
 21
356.600001
 31
0.0
  0
LINE
  5
115B
100
AcDbEntity
  8
10000_FRONT
370
    25
390
0
  6
CONTINUOUS
 62
     7
100
AcDbLine
 10
196.5
 20
356.600001
 30
0.0
 11
198.150002
 21
356.600001
 31
0.0
  0
LINE
  5
115C
100
AcDbEntity
  8
10000_FRONT
370
    25
390
0
  6
CONTINUOUS
 62
     7
100
AcDbLine
 10
208.150002
 20
358.4
 30
0.0
 11
209.800003
 21
358.4
 31
0.0
  0
LINE
  5
115D
100
AcDbEntity
  8
10000_FRONT
370
    25
390
0
  6
CONTINUOUS
 62
     7
100
AcDbLine
 10
196.5
 20
358.4
 30
0.0
 11
198.150002
 21
358.4
 31
0.0
  0
LINE
  5
115E
100
AcDbEntity
  8
10000_FRONT
370
    25
390
0
  6
CONTINUOUS
 62
     7
100
AcDbLine
 10
208.150002
 20
358.499998
 30
0.0
 11
209.800003
 21
358.499998
 31
0.0
  0
LINE
  5
115F
100
AcDbEntity
  8
10000_FRONT
370
    25
390
0
  6
CONTINUOUS
 62
     7
100
AcDbLine
 10
196.5
 20
358.499998
 30
0.0
 11
198.150002
 21
358.499998
 31
0.0
  0
LINE
  5
1160
100
AcDbEntity
  8
10000_FRONT
370
    25
390
0
  6
CONTINUOUS
 62
     7
100
AcDbLine
 10
195.400002
 20
359.100001
 30
0.0
 11
196.5
 21
359.100001
 31
0.0
  0
LINE
  5
1161
100
AcDbEntity
  8
10000_FRONT
370
    25
390
0
  6
CONTINUOUS
 62
     7
100
AcDbLine
 10
209.800003
 20
359.100001
 30
0.0
 11
210.900002
 21
359.100001
 31
0.0
  0
LINE
  5
1162
100
AcDbEntity
  8
10000_FRONT
370
    25
390
0
  6
CONTINUOUS
 62
     7
100
AcDbLine
 10
208.150002
 20
359.4
 30
0.0
 11
210.900002
 21
359.4
 31
0.0
  0
LINE
  5
1163
100
AcDbEntity
  8
10000_FRONT
370
    25
390
0
  6
CONTINUOUS
 62
     7
100
AcDbLine
 10
195.400002
 20
359.4
 30
0.0
 11
196.200001
 21
359.4
 31
0.0
  0
LINE
  5
1164
100
AcDbEntity
  8
10000_FRONT
370
    25
390
0
  6
CONTINUOUS
 62
     7
100
AcDbLine
 10
196.200001
 20
359.4
 30
0.0
 11
198.150002
 21
359.4
 31
0.0
  0
LINE
  5
1165
100
AcDbEntity
  8
10000_FRONT
370
    25
390
0
  6
CONTINUOUS
 62
     7
100
AcDbLine
 10
200.150002
 20
359.499998
 30
0.0
 11
206.150002
 21
359.499998
 31
0.0
  0
LINE
  5
1166
100
AcDbEntity
  8
10000_FRONT
370
    25
390
0
  6
CONTINUOUS
 62
     7
100
AcDbLine
 10
198.150002
 20
360.199999
 30
0.0
 11
208.150002
 21
360.199999
 31
0.0
  0
LINE
  5
1167
100
AcDbEntity
  8
10000_FRONT
370
    25
390
0
  6
CONTINUOUS
 62
     7
100
AcDbLine
 10
209.900002
 20
360.280001
 30
0.0
 11
210.900002
 21
360.280001
 31
0.0
  0
LINE
  5
1168
100
AcDbEntity
  8
10000_FRONT
370
    25
390
0
  6
CONTINUOUS
 62
     7
100
AcDbLine
 10
195.400002
 20
360.280001
 30
0.0
 11
196.400002
 21
360.280001
 31
0.0
  0
LINE
  5
1169
100
AcDbEntity
  8
10000_FRONT
370
    25
390
0
  6
CONTINUOUS
 62
     7
100
AcDbLine
 10
198.150002
 20
360.499998
 30
0.0
 11
208.150002
 21
360.499998
 31
0.0
  0
LINE
  5
116A
100
AcDbEntity
  8
10000_FRONT
370
    25
390
0
  6
CONTINUOUS
 62
     7
100
AcDbLine
 10
161.25
 20
383.599997
 30
0.0
 11
165.25
 21
383.599997
 31
0.0
  0
LINE
  5
116B
100
AcDbEntity
  8
10000_FRONT
370
    25
390
0
  6
CONTINUOUS
 62
     7
100
AcDbLine
 10
143.75
 20
383.599997
 30
0.0
 11
147.75
 21
383.599997
 31
0.0
  0
LINE
  5
116C
100
AcDbEntity
  8
10000_FRONT
370
    25
390
0
  6
CONTINUOUS
 62
     7
100
AcDbLine
 10
126.25
 20
383.599997
 30
0.0
 11
130.25
 21
383.599997
 31
0.0
  0
LINE
  5
116D
100
AcDbEntity
  8
10000_FRONT
370
    25
390
0
  6
CONTINUOUS
 62
     7
100
AcDbLine
 10
191.049999
 20
383.599997
 30
0.0
 11
195.049999
 21
383.599997
 31
0.0
  0
LINE
  5
116E
100
AcDbEntity
  8
10000_FRONT
370
    25
390
0
  6
CONTINUOUS
 62
     7
100
AcDbLine
 10
208.549999
 20
383.599997
 30
0.0
 11
212.550003
 21
383.599997
 31
0.0
  0
LINE
  5
116F
100
AcDbEntity
  8
10000_FRONT
370
    25
390
0
  6
CONTINUOUS
 62
     7
100
AcDbLine
 10
226.050003
 20
383.599997
 30
0.0
 11
230.050003
 21
383.599997
 31
0.0
  0
LINE
  5
1170
100
AcDbEntity
  8
10000_FRONT
370
    25
390
0
  6
CONTINUOUS
 62
     7
100
AcDbLine
 10
161.25
 20
395.599997
 30
0.0
 11
165.25
 21
395.599997
 31
0.0
  0
LINE
  5
1171
100
AcDbEntity
  8
10000_FRONT
370
    25
390
0
  6
CONTINUOUS
 62
     7
100
AcDbLine
 10
143.75
 20
395.599997
 30
0.0
 11
147.75
 21
395.599997
 31
0.0
  0
LINE
  5
1172
100
AcDbEntity
  8
10000_FRONT
370
    25
390
0
  6
CONTINUOUS
 62
     7
100
AcDbLine
 10
126.25
 20
395.599997
 30
0.0
 11
130.25
 21
395.599997
 31
0.0
  0
LINE
  5
1173
100
AcDbEntity
  8
10000_FRONT
370
    25
390
0
  6
CONTINUOUS
 62
     7
100
AcDbLine
 10
191.049999
 20
395.599997
 30
0.0
 11
195.049999
 21
395.599997
 31
0.0
  0
LINE
  5
1174
100
AcDbEntity
  8
10000_FRONT
370
    25
390
0
  6
CONTINUOUS
 62
     7
100
AcDbLine
 10
208.549999
 20
395.599997
 30
0.0
 11
212.550003
 21
395.599997
 31
0.0
  0
LINE
  5
1175
100
AcDbEntity
  8
10000_FRONT
370
    25
390
0
  6
CONTINUOUS
 62
     7
100
AcDbLine
 10
226.050003
 20
395.599997
 30
0.0
 11
230.050003
 21
395.599997
 31
0.0
  0
LINE
  5
1176
100
AcDbEntity
  8
10000_FRONT
370
    25
390
0
  6
CONTINUOUS
 62
     7
100
AcDbLine
 10
204.25
 20
396.599997
 30
0.0
 11
216.849998
 21
396.599997
 31
0.0
  0
LINE
  5
1177
100
AcDbEntity
  8
10000_FRONT
370
    25
390
0
  6
CONTINUOUS
 62
     7
100
AcDbLine
 10
139.45
 20
396.599997
 30
0.0
 11
152.05
 21
396.599997
 31
0.0
  0
LINE
  5
1178
100
AcDbEntity
  8
10000_FRONT
370
    25
390
0
  6
CONTINUOUS
 62
     7
100
AcDbLine
 10
125.35
 20
397.33
 30
0.0
 11
131.15
 21
397.33
 31
0.0
  0
LINE
  5
1179
100
AcDbEntity
  8
10000_FRONT
370
    25
390
0
  6
CONTINUOUS
 62
     7
100
AcDbLine
 10
160.35
 20
397.33
 30
0.0
 11
166.15
 21
397.33
 31
0.0
  0
LINE
  5
117A
100
AcDbEntity
  8
10000_FRONT
370
    25
390
0
  6
CONTINUOUS
 62
     7
100
AcDbLine
 10
225.150002
 20
397.33
 30
0.0
 11
230.949997
 21
397.33
 31
0.0
  0
LINE
  5
117B
100
AcDbEntity
  8
10000_FRONT
370
    25
390
0
  6
CONTINUOUS
 62
     7
100
AcDbLine
 10
190.150002
 20
397.33
 30
0.0
 11
195.950001
 21
397.33
 31
0.0
  0
LINE
  5
117C
100
AcDbEntity
  8
10000_FRONT
370
    25
390
0
  6
CONTINUOUS
 62
     7
100
AcDbLine
 10
120.0
 20
400.599997
 30
0.0
 11
139.45
 21
400.599997
 31
0.0
  0
LINE
  5
117D
100
AcDbEntity
  8
10000_FRONT
370
    25
390
0
  6
CONTINUOUS
 62
     7
100
AcDbLine
 10
234.800003
 20
400.599997
 30
0.0
 11
236.300003
 21
400.599997
 31
0.0
  0
LINE
  5
117E
100
AcDbEntity
  8
10000_FRONT
370
    25
390
0
  6
CONTINUOUS
 62
     7
100
AcDbLine
 10
216.849998
 20
400.599997
 30
0.0
 11
234.800003
 21
400.599997
 31
0.0
  0
LINE
  5
117F
100
AcDbEntity
  8
10000_FRONT
370
    25
390
0
  6
CONTINUOUS
 62
     7
100
AcDbLine
 10
152.05
 20
400.599997
 30
0.0
 11
204.25
 21
400.599997
 31
0.0
  0
LINE
  5
1180
100
AcDbEntity
  8
10000_FRONT
370
    25
390
0
  6
CONTINUOUS
 62
     7
100
AcDbLine
 10
120.0
 20
407.800002
 30
0.0
 11
121.5
 21
407.800002
 31
0.0
  0
LINE
  5
1181
100
AcDbEntity
  8
10000_FRONT
370
    25
390
0
  6
CONTINUOUS
 62
     7
100
AcDbLine
 10
196.25
 20
407.800002
 30
0.0
 11
234.800003
 21
407.800002
 31
0.0
  0
LINE
  5
1182
100
AcDbEntity
  8
10000_FRONT
370
    25
390
0
  6
CONTINUOUS
 62
     7
100
AcDbLine
 10
234.800003
 20
407.800002
 30
0.0
 11
236.300003
 21
407.800002
 31
0.0
  0
LINE
  5
1183
100
AcDbEntity
  8
10000_FRONT
370
    25
390
0
  6
CONTINUOUS
 62
     7
100
AcDbLine
 10
197.049999
 20
408.599997
 30
0.0
 11
235.5
 21
408.599997
 31
0.0
  0
LINE
  5
1184
100
AcDbEntity
  8
10000_FRONT
370
    25
390
0
  6
CONTINUOUS
 62
     7
100
AcDbLine
 10
223.5
 20
415.099997
 30
0.0
 11
235.5
 21
415.099997
 31
0.0
  0
LINE
  5
1185
100
AcDbEntity
  8
10000_FRONT
370
    25
390
0
  6
CONTINUOUS
 62
     7
100
AcDbLine
 10
120.0
 20
416.599997
 30
0.0
 11
236.300003
 21
416.599997
 31
0.0
  0
LINE
  5
1186
100
AcDbEntity
  8
10000_FRONT
370
    25
390
0
  6
CONTINUOUS
 62
     7
100
AcDbLine
 10
142.42335
 20
239.499998
 30
0.0
 11
142.461071
 21
239.502898
 31
0.0
  0
LINE
  5
1187
100
AcDbEntity
  8
10000_FRONT
370
    25
390
0
  6
CONTINUOUS
 62
     7
100
AcDbLine
 10
142.461071
 20
239.502898
 30
0.0
 11
142.502894
 21
239.511343
 31
0.0
  0
LINE
  5
1188
100
AcDbEntity
  8
10000_FRONT
370
    25
390
0
  6
CONTINUOUS
 62
     7
100
AcDbLine
 10
142.502894
 20
239.511343
 30
0.0
 11
142.548406
 21
239.524947
 31
0.0
  0
LINE
  5
1189
100
AcDbEntity
  8
10000_FRONT
370
    25
390
0
  6
CONTINUOUS
 62
     7
100
AcDbLine
 10
142.548406
 20
239.524947
 30
0.0
 11
142.597188
 21
239.543349
 31
0.0
  0
LINE
  5
118A
100
AcDbEntity
  8
10000_FRONT
370
    25
390
0
  6
CONTINUOUS
 62
     7
100
AcDbLine
 10
142.597188
 20
239.543349
 30
0.0
 11
142.648823
 21
239.566153
 31
0.0
  0
LINE
  5
118B
100
AcDbEntity
  8
10000_FRONT
370
    25
390
0
  6
CONTINUOUS
 62
     7
100
AcDbLine
 10
142.648823
 20
239.566153
 30
0.0
 11
142.702744
 21
239.592764
 31
0.0
  0
LINE
  5
118C
100
AcDbEntity
  8
10000_FRONT
370
    25
390
0
  6
CONTINUOUS
 62
     7
100
AcDbLine
 10
142.702744
 20
239.592764
 30
0.0
 11
142.758193
 21
239.622443
 31
0.0
  0
LINE
  5
118D
100
AcDbEntity
  8
10000_FRONT
370
    25
390
0
  6
CONTINUOUS
 62
     7
100
AcDbLine
 10
142.758193
 20
239.622443
 30
0.0
 11
142.814397
 21
239.654417
 31
0.0
  0
LINE
  5
118E
100
AcDbEntity
  8
10000_FRONT
370
    25
390
0
  6
CONTINUOUS
 62
     7
100
AcDbLine
 10
142.814397
 20
239.654417
 30
0.0
 11
142.870584
 21
239.687949
 31
0.0
  0
LINE
  5
118F
100
AcDbEntity
  8
10000_FRONT
370
    25
390
0
  6
CONTINUOUS
 62
     7
100
AcDbLine
 10
142.870584
 20
239.687949
 30
0.0
 11
142.926797
 21
239.7228
 31
0.0
  0
LINE
  5
1190
100
AcDbEntity
  8
10000_FRONT
370
    25
390
0
  6
CONTINUOUS
 62
     7
100
AcDbLine
 10
142.926797
 20
239.7228
 30
0.0
 11
142.984961
 21
239.760001
 31
0.0
  0
LINE
  5
1191
100
AcDbEntity
  8
10000_FRONT
370
    25
390
0
  6
CONTINUOUS
 62
     7
100
AcDbLine
 10
142.984961
 20
239.760001
 30
0.0
 11
143.044973
 21
239.799384
 31
0.0
  0
LINE
  5
1192
100
AcDbEntity
  8
10000_FRONT
370
    25
390
0
  6
CONTINUOUS
 62
     7
100
AcDbLine
 10
143.044973
 20
239.799384
 30
0.0
 11
143.10657
 21
239.840689
 31
0.0
  0
LINE
  5
1193
100
AcDbEntity
  8
10000_FRONT
370
    25
390
0
  6
CONTINUOUS
 62
     7
100
AcDbLine
 10
143.10657
 20
239.840689
 30
0.0
 11
143.169491
 21
239.883665
 31
0.0
  0
LINE
  5
1194
100
AcDbEntity
  8
10000_FRONT
370
    25
390
0
  6
CONTINUOUS
 62
     7
100
AcDbLine
 10
143.169491
 20
239.883665
 30
0.0
 11
143.233473
 21
239.92803
 31
0.0
  0
LINE
  5
1195
100
AcDbEntity
  8
10000_FRONT
370
    25
390
0
  6
CONTINUOUS
 62
     7
100
AcDbLine
 10
143.233473
 20
239.92803
 30
0.0
 11
143.298254
 21
239.97354
 31
0.0
  0
LINE
  5
1196
100
AcDbEntity
  8
10000_FRONT
370
    25
390
0
  6
CONTINUOUS
 62
     7
100
AcDbLine
 10
143.298254
 20
239.97354
 30
0.0
 11
143.363569
 21
240.019911
 31
0.0
  0
LINE
  5
1197
100
AcDbEntity
  8
10000_FRONT
370
    25
390
0
  6
CONTINUOUS
 62
     7
100
AcDbLine
 10
143.363569
 20
240.019911
 30
0.0
 11
143.429129
 21
240.066862
 31
0.0
  0
LINE
  5
1198
100
AcDbEntity
  8
10000_FRONT
370
    25
390
0
  6
CONTINUOUS
 62
     7
100
AcDbLine
 10
143.429129
 20
240.066862
 30
0.0
 11
143.494626
 21
240.114081
 31
0.0
  0
LINE
  5
1199
100
AcDbEntity
  8
10000_FRONT
370
    25
390
0
  6
CONTINUOUS
 62
     7
100
AcDbLine
 10
143.494626
 20
240.114081
 30
0.0
 11
143.559753
 21
240.161292
 31
0.0
  0
LINE
  5
119A
100
AcDbEntity
  8
10000_FRONT
370
    25
390
0
  6
CONTINUOUS
 62
     7
100
AcDbLine
 10
143.559753
 20
240.161292
 30
0.0
 11
143.624203
 21
240.208182
 31
0.0
  0
LINE
  5
119B
100
AcDbEntity
  8
10000_FRONT
370
    25
390
0
  6
CONTINUOUS
 62
     7
100
AcDbLine
 10
143.624203
 20
240.208182
 30
0.0
 11
143.687668
 21
240.254485
 31
0.0
  0
LINE
  5
119C
100
AcDbEntity
  8
10000_FRONT
370
    25
390
0
  6
CONTINUOUS
 62
     7
100
AcDbLine
 10
143.687668
 20
240.254485
 30
0.0
 11
143.75
 21
240.300002
 31
0.0
  0
LINE
  5
119D
100
AcDbEntity
  8
10000_FRONT
370
    25
390
0
  6
CONTINUOUS
 62
     7
100
AcDbLine
 10
195.25
 20
278.550002
 30
0.0
 11
195.400002
 21
278.699999
 31
0.0
  0
LINE
  5
119E
100
AcDbEntity
  8
10000_FRONT
370
    25
390
0
  6
CONTINUOUS
 62
     7
100
AcDbLine
 10
195.25
 20
282.050002
 30
0.0
 11
195.400002
 21
282.199999
 31
0.0
  0
LINE
  5
119F
100
AcDbEntity
  8
10000_FRONT
370
    25
390
0
  6
CONTINUOUS
 62
     7
100
AcDbLine
 10
195.099998
 20
359.100001
 30
0.0
 11
195.25
 21
359.249998
 31
0.0
  0
LINE
  5
11A0
100
AcDbEntity
  8
10000_FRONT
370
    25
390
0
  6
CONTINUOUS
 62
     7
100
AcDbLine
 10
210.900002
 20
355.600001
 30
0.0
 11
211.050003
 21
355.749998
 31
0.0
  0
LINE
  5
11A1
100
AcDbEntity
  8
10000_FRONT
370
    25
390
0
  6
CONTINUOUS
 62
     7
100
AcDbLine
 10
210.900002
 20
359.100001
 30
0.0
 11
211.050003
 21
359.249998
 31
0.0
  0
LINE
  5
11A2
100
AcDbEntity
  8
10000_FRONT
370
    25
390
0
  6
CONTINUOUS
 62
     7
100
AcDbLine
 10
196.25
 20
407.800002
 30
0.0
 11
197.049999
 21
408.599997
 31
0.0
  0
LINE
  5
11A3
100
AcDbEntity
  8
10000_FRONT
370
    25
390
0
  6
CONTINUOUS
 62
     7
100
AcDbLine
 10
196.200001
 20
278.4
 30
0.0
 11
196.5
 21
278.699999
 31
0.0
  0
LINE
  5
11A4
100
AcDbEntity
  8
10000_FRONT
370
    25
390
0
  6
CONTINUOUS
 62
     7
100
AcDbLine
 10
195.099998
 20
281.9
 30
0.0
 11
195.25
 21
282.050002
 31
0.0
  0
LINE
  5
11A5
100
AcDbEntity
  8
10000_FRONT
370
    25
390
0
  6
CONTINUOUS
 62
     7
100
AcDbLine
 10
196.200001
 20
355.600001
 30
0.0
 11
196.5
 21
355.9
 31
0.0
  0
LINE
  5
11A6
100
AcDbEntity
  8
10000_FRONT
370
    25
390
0
  6
CONTINUOUS
 62
     7
100
AcDbLine
 10
195.25
 20
355.749998
 30
0.0
 11
195.400002
 21
355.9
 31
0.0
  0
LINE
  5
11A7
100
AcDbEntity
  8
10000_FRONT
370
    25
390
0
  6
CONTINUOUS
 62
     7
100
AcDbLine
 10
195.25
 20
359.249998
 30
0.0
 11
195.400002
 21
359.4
 31
0.0
  0
LINE
  5
11A8
100
AcDbEntity
  8
10000_FRONT
370
    25
390
0
  6
CONTINUOUS
 62
     7
100
AcDbLine
 10
210.900002
 20
278.4
 30
0.0
 11
211.050003
 21
278.550002
 31
0.0
  0
LINE
  5
11A9
100
AcDbEntity
  8
10000_FRONT
370
    25
390
0
  6
CONTINUOUS
 62
     7
100
AcDbLine
 10
210.900002
 20
281.9
 30
0.0
 11
211.050003
 21
282.050002
 31
0.0
  0
LINE
  5
11AA
100
AcDbEntity
  8
10000_FRONT
370
    25
390
0
  6
CONTINUOUS
 62
     7
100
AcDbLine
 10
209.800003
 20
281.9
 30
0.0
 11
210.099998
 21
282.199999
 31
0.0
  0
LINE
  5
11AB
100
AcDbEntity
  8
10000_FRONT
370
    25
390
0
  6
CONTINUOUS
 62
     7
100
AcDbLine
 10
209.800003
 20
359.100001
 30
0.0
 11
210.099998
 21
359.4
 31
0.0
  0
LINE
  5
11AC
100
AcDbEntity
  8
10000_FRONT
370
    25
390
0
  6
CONTINUOUS
 62
     7
100
AcDbLine
 10
211.050003
 20
278.550002
 30
0.0
 11
211.199997
 21
278.699999
 31
0.0
  0
LINE
  5
11AD
100
AcDbEntity
  8
10000_FRONT
370
    25
390
0
  6
CONTINUOUS
 62
     7
100
AcDbLine
 10
211.050003
 20
355.749998
 30
0.0
 11
211.199997
 21
355.9
 31
0.0
  0
LINE
  5
11AE
100
AcDbEntity
  8
10000_FRONT
370
    25
390
0
  6
CONTINUOUS
 62
     7
100
AcDbLine
 10
212.449997
 20
395.599997
 30
0.0
 11
213.028038
 21
396.600005
 31
0.0
  0
LINE
  5
11AF
100
AcDbEntity
  8
10000_FRONT
370
    25
390
0
  6
CONTINUOUS
 62
     7
100
AcDbLine
 10
160.35
 20
250.47
 30
0.0
 11
161.35
 21
252.200003
 31
0.0
  0
LINE
  5
11B0
100
AcDbEntity
  8
10000_FRONT
370
    25
390
0
  6
CONTINUOUS
 62
     7
100
AcDbLine
 10
125.35
 20
250.47
 30
0.0
 11
126.35
 21
252.200003
 31
0.0
  0
LINE
  5
11B1
100
AcDbEntity
  8
10000_FRONT
370
    25
390
0
  6
CONTINUOUS
 62
     7
100
AcDbLine
 10
190.150002
 20
250.47
 30
0.0
 11
191.150002
 21
252.200003
 31
0.0
  0
LINE
  5
11B2
100
AcDbEntity
  8
10000_FRONT
370
    25
390
0
  6
CONTINUOUS
 62
     7
100
AcDbLine
 10
225.150002
 20
250.47
 30
0.0
 11
226.150002
 21
252.200003
 31
0.0
  0
LINE
  5
11B3
100
AcDbEntity
  8
10000_FRONT
370
    25
390
0
  6
CONTINUOUS
 62
     7
100
AcDbLine
 10
194.950001
 20
395.599997
 30
0.0
 11
195.950001
 21
397.33
 31
0.0
  0
LINE
  5
11B4
100
AcDbEntity
  8
10000_FRONT
370
    25
390
0
  6
CONTINUOUS
 62
     7
100
AcDbLine
 10
229.949997
 20
395.599997
 30
0.0
 11
230.949997
 21
397.33
 31
0.0
  0
LINE
  5
11B5
100
AcDbEntity
  8
10000_FRONT
370
    25
390
0
  6
CONTINUOUS
 62
     7
100
AcDbLine
 10
165.15
 20
395.599997
 30
0.0
 11
166.15
 21
397.33
 31
0.0
  0
LINE
  5
11B6
100
AcDbEntity
  8
10000_FRONT
370
    25
390
0
  6
CONTINUOUS
 62
     7
100
AcDbLine
 10
130.15
 20
395.599997
 30
0.0
 11
131.15
 21
397.33
 31
0.0
  0
LINE
  5
11B7
100
AcDbEntity
  8
10000_FRONT
370
    25
390
0
  6
CONTINUOUS
 62
     7
100
AcDbLine
 10
207.95636
 20
250.999998
 30
0.0
 11
208.650002
 21
252.200003
 31
0.0
  0
LINE
  5
11B8
100
AcDbEntity
  8
10000_FRONT
370
    25
390
0
  6
CONTINUOUS
 62
     7
100
AcDbLine
 10
147.65
 20
395.599997
 30
0.0
 11
148.228036
 21
396.600005
 31
0.0
  0
LINE
  5
11B9
100
AcDbEntity
  8
10000_FRONT
370
    25
390
0
  6
CONTINUOUS
 62
     7
100
AcDbLine
 10
143.15636
 20
250.999998
 30
0.0
 11
143.85
 21
252.200003
 31
0.0
  0
LINE
  5
11BA
100
AcDbEntity
  8
10000_FRONT
370
    25
390
0
  6
CONTINUOUS
 62
     7
100
AcDbLine
 10
120.0
 20
400.599997
 30
0.0
 11
120.0
 21
416.599997
 31
0.0
  0
LINE
  5
11BB
100
AcDbEntity
  8
10000_FRONT
370
    25
390
0
  6
CONTINUOUS
 62
     7
100
AcDbLine
 10
120.0
 20
240.300002
 30
0.0
 11
120.0
 21
247.200003
 31
0.0
  0
LINE
  5
11BC
100
AcDbEntity
  8
10000_FRONT
370
    25
390
0
  6
CONTINUOUS
 62
     7
100
AcDbLine
 10
121.5
 20
400.599997
 30
0.0
 11
121.5
 21
416.599997
 31
0.0
  0
LINE
  5
11BD
100
AcDbEntity
  8
10000_FRONT
370
    25
390
0
  6
CONTINUOUS
 62
     7
100
AcDbLine
 10
121.5
 20
247.200003
 30
0.0
 11
121.5
 21
248.999998
 31
0.0
  0
LINE
  5
11BE
100
AcDbEntity
  8
10000_FRONT
370
    25
390
0
  6
CONTINUOUS
 62
     7
100
AcDbLine
 10
121.5
 20
240.300002
 30
0.0
 11
121.5
 21
247.200003
 31
0.0
  0
LINE
  5
11BF
100
AcDbEntity
  8
10000_FRONT
370
    25
390
0
  6
CONTINUOUS
 62
     7
100
AcDbLine
 10
121.5
 20
239.499998
 30
0.0
 11
121.5
 21
240.300002
 31
0.0
  0
LINE
  5
11C0
100
AcDbEntity
  8
10000_FRONT
370
    25
390
0
  6
CONTINUOUS
 62
     7
100
AcDbLine
 10
125.35
 20
397.33
 30
0.0
 11
125.35
 21
400.599997
 31
0.0
  0
LINE
  5
11C1
100
AcDbEntity
  8
10000_FRONT
370
    25
390
0
  6
CONTINUOUS
 62
     7
100
AcDbLine
 10
125.35
 20
248.999998
 30
0.0
 11
125.35
 21
250.47
 31
0.0
  0
LINE
  5
11C2
100
AcDbEntity
  8
10000_FRONT
370
    25
390
0
  6
CONTINUOUS
 62
     7
100
AcDbLine
 10
126.25
 20
383.599997
 30
0.0
 11
126.25
 21
395.599997
 31
0.0
  0
LINE
  5
11C3
100
AcDbEntity
  8
10000_FRONT
370
    25
390
0
  6
CONTINUOUS
 62
     7
100
AcDbLine
 10
126.25
 20
252.200003
 30
0.0
 11
126.25
 21
264.199999
 31
0.0
  0
LINE
  5
11C4
100
AcDbEntity
  8
10000_FRONT
370
    25
390
0
  6
CONTINUOUS
 62
     7
100
AcDbLine
 10
130.25
 20
383.599997
 30
0.0
 11
130.25
 21
395.599997
 31
0.0
  0
LINE
  5
11C5
100
AcDbEntity
  8
10000_FRONT
370
    25
390
0
  6
CONTINUOUS
 62
     7
100
AcDbLine
 10
130.25
 20
252.200003
 30
0.0
 11
130.25
 21
264.199999
 31
0.0
  0
LINE
  5
11C6
100
AcDbEntity
  8
10000_FRONT
370
    25
390
0
  6
CONTINUOUS
 62
     7
100
AcDbLine
 10
131.15
 20
397.33
 30
0.0
 11
131.15
 21
400.599997
 31
0.0
  0
LINE
  5
11C7
100
AcDbEntity
  8
10000_FRONT
370
    25
390
0
  6
CONTINUOUS
 62
     7
100
AcDbLine
 10
131.15
 20
248.999998
 30
0.0
 11
131.15
 21
250.47
 31
0.0
  0
LINE
  5
11C8
100
AcDbEntity
  8
10000_FRONT
370
    25
390
0
  6
CONTINUOUS
 62
     7
100
AcDbLine
 10
135.2
 20
247.200003
 30
0.0
 11
135.2
 21
248.999998
 31
0.0
  0
LINE
  5
11C9
100
AcDbEntity
  8
10000_FRONT
370
    25
390
0
  6
CONTINUOUS
 62
     7
100
AcDbLine
 10
139.0
 20
247.200003
 30
0.0
 11
139.0
 21
250.999998
 31
0.0
  0
LINE
  5
11CA
100
AcDbEntity
  8
10000_FRONT
370
    25
390
0
  6
CONTINUOUS
 62
     7
100
AcDbLine
 10
139.45
 20
396.599997
 30
0.0
 11
139.45
 21
400.599997
 31
0.0
  0
LINE
  5
11CB
100
AcDbEntity
  8
10000_FRONT
370
    25
390
0
  6
CONTINUOUS
 62
     7
100
AcDbLine
 10
142.25
 20
235.999998
 30
0.0
 11
142.25
 21
239.499998
 31
0.0
  0
LINE
  5
11CC
100
AcDbEntity
  8
10000_FRONT
370
    25
390
0
  6
CONTINUOUS
 62
     7
100
AcDbLine
 10
143.75
 20
383.599997
 30
0.0
 11
143.75
 21
395.599997
 31
0.0
  0
LINE
  5
11CD
100
AcDbEntity
  8
10000_FRONT
370
    25
390
0
  6
CONTINUOUS
 62
     7
100
AcDbLine
 10
143.75
 20
252.200003
 30
0.0
 11
143.75
 21
264.199999
 31
0.0
  0
LINE
  5
11CE
100
AcDbEntity
  8
10000_FRONT
370
    25
390
0
  6
CONTINUOUS
 62
     7
100
AcDbLine
 10
143.75
 20
235.999998
 30
0.0
 11
143.75
 21
240.300002
 31
0.0
  0
LINE
  5
11CF
100
AcDbEntity
  8
10000_FRONT
370
    25
390
0
  6
CONTINUOUS
 62
     7
100
AcDbLine
 10
147.75
 20
383.599997
 30
0.0
 11
147.75
 21
395.599997
 31
0.0
  0
LINE
  5
11D0
100
AcDbEntity
  8
10000_FRONT
370
    25
390
0
  6
CONTINUOUS
 62
     7
100
AcDbLine
 10
147.75
 20
252.200003
 30
0.0
 11
147.75
 21
264.199999
 31
0.0
  0
LINE
  5
11D1
100
AcDbEntity
  8
10000_FRONT
370
    25
390
0
  6
CONTINUOUS
 62
     7
100
AcDbLine
 10
152.05
 20
396.599997
 30
0.0
 11
152.05
 21
400.599997
 31
0.0
  0
LINE
  5
11D2
100
AcDbEntity
  8
10000_FRONT
370
    25
390
0
  6
CONTINUOUS
 62
     7
100
AcDbLine
 10
152.5
 20
247.200003
 30
0.0
 11
152.5
 21
250.999998
 31
0.0
  0
LINE
  5
11D3
100
AcDbEntity
  8
10000_FRONT
370
    25
390
0
  6
CONTINUOUS
 62
     7
100
AcDbLine
 10
152.7
 20
247.200003
 30
0.0
 11
152.7
 21
248.999998
 31
0.0
  0
LINE
  5
11D4
100
AcDbEntity
  8
10000_FRONT
370
    25
390
0
  6
CONTINUOUS
 62
     7
100
AcDbLine
 10
155.3
 20
247.200003
 30
0.0
 11
155.3
 21
248.999998
 31
0.0
  0
LINE
  5
11D5
100
AcDbEntity
  8
10000_FRONT
370
    25
390
0
  6
CONTINUOUS
 62
     7
100
AcDbLine
 10
160.35
 20
397.33
 30
0.0
 11
160.35
 21
400.599997
 31
0.0
  0
LINE
  5
11D6
100
AcDbEntity
  8
10000_FRONT
370
    25
390
0
  6
CONTINUOUS
 62
     7
100
AcDbLine
 10
160.35
 20
248.999998
 30
0.0
 11
160.35
 21
250.47
 31
0.0
  0
LINE
  5
11D7
100
AcDbEntity
  8
10000_FRONT
370
    25
390
0
  6
CONTINUOUS
 62
     7
100
AcDbLine
 10
161.25
 20
383.599997
 30
0.0
 11
161.25
 21
395.599997
 31
0.0
  0
LINE
  5
11D8
100
AcDbEntity
  8
10000_FRONT
370
    25
390
0
  6
CONTINUOUS
 62
     7
100
AcDbLine
 10
161.25
 20
252.200003
 30
0.0
 11
161.25
 21
264.199999
 31
0.0
  0
LINE
  5
11D9
100
AcDbEntity
  8
10000_FRONT
370
    25
390
0
  6
CONTINUOUS
 62
     7
100
AcDbLine
 10
165.25
 20
383.599997
 30
0.0
 11
165.25
 21
395.599997
 31
0.0
  0
LINE
  5
11DA
100
AcDbEntity
  8
10000_FRONT
370
    25
390
0
  6
CONTINUOUS
 62
     7
100
AcDbLine
 10
165.25
 20
252.200003
 30
0.0
 11
165.25
 21
264.199999
 31
0.0
  0
LINE
  5
11DB
100
AcDbEntity
  8
10000_FRONT
370
    25
390
0
  6
CONTINUOUS
 62
     7
100
AcDbLine
 10
166.15
 20
397.33
 30
0.0
 11
166.15
 21
400.599997
 31
0.0
  0
LINE
  5
11DC
100
AcDbEntity
  8
10000_FRONT
370
    25
390
0
  6
CONTINUOUS
 62
     7
100
AcDbLine
 10
166.15
 20
248.999998
 30
0.0
 11
166.15
 21
250.47
 31
0.0
  0
LINE
  5
11DD
100
AcDbEntity
  8
10000_FRONT
370
    25
390
0
  6
CONTINUOUS
 62
     7
100
AcDbLine
 10
169.0
 20
247.200003
 30
0.0
 11
169.0
 21
248.999998
 31
0.0
  0
LINE
  5
11DE
100
AcDbEntity
  8
10000_FRONT
370
    25
390
0
  6
CONTINUOUS
 62
     7
100
AcDbLine
 10
170.200001
 20
247.200003
 30
0.0
 11
170.200001
 21
248.999998
 31
0.0
  0
LINE
  5
11DF
100
AcDbEntity
  8
10000_FRONT
370
    25
390
0
  6
CONTINUOUS
 62
     7
100
AcDbLine
 10
170.799999
 20
247.200003
 30
0.0
 11
170.799999
 21
248.999998
 31
0.0
  0
LINE
  5
11E0
100
AcDbEntity
  8
10000_FRONT
370
    25
390
0
  6
CONTINUOUS
 62
     7
100
AcDbLine
 10
184.5
 20
247.200003
 30
0.0
 11
184.5
 21
248.999998
 31
0.0
  0
LINE
  5
11E1
100
AcDbEntity
  8
10000_FRONT
370
    25
390
0
  6
CONTINUOUS
 62
     7
100
AcDbLine
 10
186.099998
 20
247.200003
 30
0.0
 11
186.099998
 21
248.999998
 31
0.0
  0
LINE
  5
11E2
100
AcDbEntity
  8
10000_FRONT
370
    25
390
0
  6
CONTINUOUS
 62
     7
100
AcDbLine
 10
186.299999
 20
247.200003
 30
0.0
 11
186.299999
 21
248.999998
 31
0.0
  0
LINE
  5
11E3
100
AcDbEntity
  8
10000_FRONT
370
    25
390
0
  6
CONTINUOUS
 62
     7
100
AcDbLine
 10
190.150002
 20
397.33
 30
0.0
 11
190.150002
 21
400.599997
 31
0.0
  0
LINE
  5
11E4
100
AcDbEntity
  8
10000_FRONT
370
    25
390
0
  6
CONTINUOUS
 62
     7
100
AcDbLine
 10
190.150002
 20
248.999998
 30
0.0
 11
190.150002
 21
250.47
 31
0.0
  0
LINE
  5
11E5
100
AcDbEntity
  8
10000_FRONT
370
    25
390
0
  6
CONTINUOUS
 62
     7
100
AcDbLine
 10
191.049999
 20
383.599997
 30
0.0
 11
191.049999
 21
395.599997
 31
0.0
  0
LINE
  5
11E6
100
AcDbEntity
  8
10000_FRONT
370
    25
390
0
  6
CONTINUOUS
 62
     7
100
AcDbLine
 10
191.049999
 20
252.200003
 30
0.0
 11
191.049999
 21
264.199999
 31
0.0
  0
LINE
  5
11E7
100
AcDbEntity
  8
10000_FRONT
370
    25
390
0
  6
CONTINUOUS
 62
     7
100
AcDbLine
 10
195.049999
 20
383.599997
 30
0.0
 11
195.049999
 21
395.599997
 31
0.0
  0
LINE
  5
11E8
100
AcDbEntity
  8
10000_FRONT
370
    25
390
0
  6
CONTINUOUS
 62
     7
100
AcDbLine
 10
195.049999
 20
252.200003
 30
0.0
 11
195.049999
 21
264.199999
 31
0.0
  0
LINE
  5
11E9
100
AcDbEntity
  8
10000_FRONT
370
    25
390
0
  6
CONTINUOUS
 62
     7
100
AcDbLine
 10
195.099998
 20
355.9
 30
0.0
 11
195.099998
 21
359.100001
 31
0.0
  0
LINE
  5
11EA
100
AcDbEntity
  8
10000_FRONT
370
    25
390
0
  6
CONTINUOUS
 62
     7
100
AcDbLine
 10
195.099998
 20
278.699999
 30
0.0
 11
195.099998
 21
281.9
 31
0.0
  0
LINE
  5
11EB
100
AcDbEntity
  8
10000_FRONT
370
    25
390
0
  6
CONTINUOUS
 62
     7
100
AcDbLine
 10
195.400002
 20
355.9
 30
0.0
 11
195.400002
 21
359.100001
 31
0.0
  0
LINE
  5
11EC
100
AcDbEntity
  8
10000_FRONT
370
    25
390
0
  6
CONTINUOUS
 62
     7
100
AcDbLine
 10
195.400002
 20
354.72
 30
0.0
 11
195.400002
 21
355.600001
 31
0.0
  0
LINE
  5
11ED
100
AcDbEntity
  8
10000_FRONT
370
    25
390
0
  6
CONTINUOUS
 62
     7
100
AcDbLine
 10
195.400002
 20
359.4
 30
0.0
 11
195.400002
 21
360.280001
 31
0.0
  0
LINE
  5
11EE
100
AcDbEntity
  8
10000_FRONT
370
    25
390
0
  6
CONTINUOUS
 62
     7
100
AcDbLine
 10
195.400002
 20
278.699999
 30
0.0
 11
195.400002
 21
281.9
 31
0.0
  0
LINE
  5
11EF
100
AcDbEntity
  8
10000_FRONT
370
    25
390
0
  6
CONTINUOUS
 62
     7
100
AcDbLine
 10
195.400002
 20
277.519999
 30
0.0
 11
195.400002
 21
278.4
 31
0.0
  0
LINE
  5
11F0
100
AcDbEntity
  8
10000_FRONT
370
    25
390
0
  6
CONTINUOUS
 62
     7
100
AcDbLine
 10
195.400002
 20
282.199999
 30
0.0
 11
195.400002
 21
283.08
 31
0.0
  0
LINE
  5
11F1
100
AcDbEntity
  8
10000_FRONT
370
    25
390
0
  6
CONTINUOUS
 62
     7
100
AcDbLine
 10
195.950001
 20
397.33
 30
0.0
 11
195.950001
 21
400.599997
 31
0.0
  0
LINE
  5
11F2
100
AcDbEntity
  8
10000_FRONT
370
    25
390
0
  6
CONTINUOUS
 62
     7
100
AcDbLine
 10
195.950001
 20
248.999998
 30
0.0
 11
195.950001
 21
250.47
 31
0.0
  0
LINE
  5
11F3
100
AcDbEntity
  8
10000_FRONT
370
    25
390
0
  6
CONTINUOUS
 62
     7
100
AcDbLine
 10
196.25
 20
407.800002
 30
0.0
 11
196.25
 21
416.599997
 31
0.0
  0
LINE
  5
11F4
100
AcDbEntity
  8
10000_FRONT
370
    25
390
0
  6
CONTINUOUS
 62
     7
100
AcDbLine
 10
196.400002
 20
354.72
 30
0.0
 11
196.400002
 21
355.600001
 31
0.0
  0
LINE
  5
11F5
100
AcDbEntity
  8
10000_FRONT
370
    25
390
0
  6
CONTINUOUS
 62
     7
100
AcDbLine
 10
196.400002
 20
359.4
 30
0.0
 11
196.400002
 21
360.280001
 31
0.0
  0
LINE
  5
11F6
100
AcDbEntity
  8
10000_FRONT
370
    25
390
0
  6
CONTINUOUS
 62
     7
100
AcDbLine
 10
196.400002
 20
277.519999
 30
0.0
 11
196.400002
 21
278.4
 31
0.0
  0
LINE
  5
11F7
100
AcDbEntity
  8
10000_FRONT
370
    25
390
0
  6
CONTINUOUS
 62
     7
100
AcDbLine
 10
196.400002
 20
282.199999
 30
0.0
 11
196.400002
 21
283.08
 31
0.0
  0
LINE
  5
11F8
100
AcDbEntity
  8
10000_FRONT
370
    25
390
0
  6
CONTINUOUS
 62
     7
100
AcDbLine
 10
196.5
 20
358.4
 30
0.0
 11
196.5
 21
359.100001
 31
0.0
  0
LINE
  5
11F9
100
AcDbEntity
  8
10000_FRONT
370
    25
390
0
  6
CONTINUOUS
 62
     7
100
AcDbLine
 10
196.5
 20
355.9
 30
0.0
 11
196.5
 21
356.600001
 31
0.0
  0
LINE
  5
11FA
100
AcDbEntity
  8
10000_FRONT
370
    25
390
0
  6
CONTINUOUS
 62
     7
100
AcDbLine
 10
196.5
 20
281.199999
 30
0.0
 11
196.5
 21
281.9
 31
0.0
  0
LINE
  5
11FB
100
AcDbEntity
  8
10000_FRONT
370
    25
390
0
  6
CONTINUOUS
 62
     7
100
AcDbLine
 10
196.5
 20
278.699999
 30
0.0
 11
196.5
 21
279.4
 31
0.0
  0
LINE
  5
11FC
100
AcDbEntity
  8
10000_FRONT
370
    25
390
0
  6
CONTINUOUS
 62
     7
100
AcDbLine
 10
197.049999
 20
408.599997
 30
0.0
 11
197.049999
 21
416.599997
 31
0.0
  0
LINE
  5
11FD
100
AcDbEntity
  8
10000_FRONT
370
    25
390
0
  6
CONTINUOUS
 62
     7
100
AcDbLine
 10
198.150002
 20
354.499998
 30
0.0
 11
198.150002
 21
356.600001
 31
0.0
  0
LINE
  5
11FE
100
AcDbEntity
  8
10000_FRONT
370
    25
390
0
  6
CONTINUOUS
 62
     7
100
AcDbLine
 10
198.150002
 20
358.4
 30
0.0
 11
198.150002
 21
360.199999
 31
0.0
  0
LINE
  5
11FF
100
AcDbEntity
  8
10000_FRONT
370
    25
390
0
  6
CONTINUOUS
 62
     7
100
AcDbLine
 10
198.150002
 20
360.199999
 30
0.0
 11
198.150002
 21
360.499998
 31
0.0
  0
LINE
  5
1200
100
AcDbEntity
  8
10000_FRONT
370
    25
390
0
  6
CONTINUOUS
 62
     7
100
AcDbLine
 10
198.150002
 20
277.300002
 30
0.0
 11
198.150002
 21
277.600001
 31
0.0
  0
LINE
  5
1201
100
AcDbEntity
  8
10000_FRONT
370
    25
390
0
  6
CONTINUOUS
 62
     7
100
AcDbLine
 10
198.150002
 20
277.600001
 30
0.0
 11
198.150002
 21
279.4
 31
0.0
  0
LINE
  5
1202
100
AcDbEntity
  8
10000_FRONT
370
    25
390
0
  6
CONTINUOUS
 62
     7
100
AcDbLine
 10
198.150002
 20
281.199999
 30
0.0
 11
198.150002
 21
282.999998
 31
0.0
  0
LINE
  5
1203
100
AcDbEntity
  8
10000_FRONT
370
    25
390
0
  6
CONTINUOUS
 62
     7
100
AcDbLine
 10
198.150002
 20
282.999998
 30
0.0
 11
198.150002
 21
283.300002
 31
0.0
  0
LINE
  5
1204
100
AcDbEntity
  8
10000_FRONT
370
    25
390
0
  6
CONTINUOUS
 62
     7
100
AcDbLine
 10
198.549999
 20
408.599997
 30
0.0
 11
198.549999
 21
416.599997
 31
0.0
  0
LINE
  5
1205
100
AcDbEntity
  8
10000_FRONT
370
    25
390
0
  6
CONTINUOUS
 62
     7
100
AcDbLine
 10
199.650002
 20
355.999998
 30
0.0
 11
199.650002
 21
358.999998
 31
0.0
  0
LINE
  5
1206
100
AcDbEntity
  8
10000_FRONT
370
    25
390
0
  6
CONTINUOUS
 62
     7
100
AcDbLine
 10
199.650002
 20
278.800002
 30
0.0
 11
199.650002
 21
281.800002
 31
0.0
  0
LINE
  5
1207
100
AcDbEntity
  8
10000_FRONT
370
    25
390
0
  6
CONTINUOUS
 62
     7
100
AcDbLine
 10
200.0
 20
247.200003
 30
0.0
 11
200.0
 21
248.999998
 31
0.0
  0
LINE
  5
1208
100
AcDbEntity
  8
10000_FRONT
370
    25
390
0
  6
CONTINUOUS
 62
     7
100
AcDbLine
 10
203.599998
 20
247.200003
 30
0.0
 11
203.599998
 21
248.999998
 31
0.0
  0
LINE
  5
1209
100
AcDbEntity
  8
10000_FRONT
370
    25
390
0
  6
CONTINUOUS
 62
     7
100
AcDbLine
 10
203.799999
 20
247.200003
 30
0.0
 11
203.799999
 21
250.999998
 31
0.0
  0
LINE
  5
120A
100
AcDbEntity
  8
10000_FRONT
370
    25
390
0
  6
CONTINUOUS
 62
     7
100
AcDbLine
 10
204.25
 20
396.599997
 30
0.0
 11
204.25
 21
400.599997
 31
0.0
  0
LINE
  5
120B
100
AcDbEntity
  8
10000_FRONT
370
    25
390
0
  6
CONTINUOUS
 62
     7
100
AcDbLine
 10
206.650002
 20
355.999998
 30
0.0
 11
206.650002
 21
358.999998
 31
0.0
  0
LINE
  5
120C
100
AcDbEntity
  8
10000_FRONT
370
    25
390
0
  6
CONTINUOUS
 62
     7
100
AcDbLine
 10
206.650002
 20
278.800002
 30
0.0
 11
206.650002
 21
281.800002
 31
0.0
  0
LINE
  5
120D
100
AcDbEntity
  8
10000_FRONT
370
    25
390
0
  6
CONTINUOUS
 62
     7
100
AcDbLine
 10
208.150002
 20
358.4
 30
0.0
 11
208.150002
 21
360.499998
 31
0.0
  0
LINE
  5
120E
100
AcDbEntity
  8
10000_FRONT
370
    25
390
0
  6
CONTINUOUS
 62
     7
100
AcDbLine
 10
208.150002
 20
354.800002
 30
0.0
 11
208.150002
 21
356.600001
 31
0.0
  0
LINE
  5
120F
100
AcDbEntity
  8
10000_FRONT
370
    25
390
0
  6
CONTINUOUS
 62
     7
100
AcDbLine
 10
208.150002
 20
354.499998
 30
0.0
 11
208.150002
 21
354.800002
 31
0.0
  0
LINE
  5
1210
100
AcDbEntity
  8
10000_FRONT
370
    25
390
0
  6
CONTINUOUS
 62
     7
100
AcDbLine
 10
208.150002
 20
282.999998
 30
0.0
 11
208.150002
 21
283.300002
 31
0.0
  0
LINE
  5
1211
100
AcDbEntity
  8
10000_FRONT
370
    25
390
0
  6
CONTINUOUS
 62
     7
100
AcDbLine
 10
208.150002
 20
281.199999
 30
0.0
 11
208.150002
 21
282.999998
 31
0.0
  0
LINE
  5
1212
100
AcDbEntity
  8
10000_FRONT
370
    25
390
0
  6
CONTINUOUS
 62
     7
100
AcDbLine
 10
208.150002
 20
277.600001
 30
0.0
 11
208.150002
 21
279.4
 31
0.0
  0
LINE
  5
1213
100
AcDbEntity
  8
10000_FRONT
370
    25
390
0
  6
CONTINUOUS
 62
     7
100
AcDbLine
 10
208.150002
 20
277.300002
 30
0.0
 11
208.150002
 21
277.600001
 31
0.0
  0
LINE
  5
1214
100
AcDbEntity
  8
10000_FRONT
370
    25
390
0
  6
CONTINUOUS
 62
     7
100
AcDbLine
 10
208.549999
 20
383.599997
 30
0.0
 11
208.549999
 21
395.599997
 31
0.0
  0
LINE
  5
1215
100
AcDbEntity
  8
10000_FRONT
370
    25
390
0
  6
CONTINUOUS
 62
     7
100
AcDbLine
 10
208.549999
 20
252.200003
 30
0.0
 11
208.549999
 21
264.199999
 31
0.0
  0
LINE
  5
1216
100
AcDbEntity
  8
10000_FRONT
370
    25
390
0
  6
CONTINUOUS
 62
     7
100
AcDbLine
 10
209.800003
 20
355.9
 30
0.0
 11
209.800003
 21
356.600001
 31
0.0
  0
LINE
  5
1217
100
AcDbEntity
  8
10000_FRONT
370
    25
390
0
  6
CONTINUOUS
 62
     7
100
AcDbLine
 10
209.800003
 20
358.4
 30
0.0
 11
209.800003
 21
359.100001
 31
0.0
  0
LINE
  5
1218
100
AcDbEntity
  8
10000_FRONT
370
    25
390
0
  6
CONTINUOUS
 62
     7
100
AcDbLine
 10
209.800003
 20
278.699999
 30
0.0
 11
209.800003
 21
279.4
 31
0.0
  0
LINE
  5
1219
100
AcDbEntity
  8
10000_FRONT
370
    25
390
0
  6
CONTINUOUS
 62
     7
100
AcDbLine
 10
209.800003
 20
281.199999
 30
0.0
 11
209.800003
 21
281.9
 31
0.0
  0
LINE
  5
121A
100
AcDbEntity
  8
10000_FRONT
370
    25
390
0
  6
CONTINUOUS
 62
     7
100
AcDbLine
 10
209.900002
 20
354.72
 30
0.0
 11
209.900002
 21
355.600001
 31
0.0
  0
LINE
  5
121B
100
AcDbEntity
  8
10000_FRONT
370
    25
390
0
  6
CONTINUOUS
 62
     7
100
AcDbLine
 10
209.900002
 20
359.4
 30
0.0
 11
209.900002
 21
360.280001
 31
0.0
  0
LINE
  5
121C
100
AcDbEntity
  8
10000_FRONT
370
    25
390
0
  6
CONTINUOUS
 62
     7
100
AcDbLine
 10
209.900002
 20
277.519999
 30
0.0
 11
209.900002
 21
278.4
 31
0.0
  0
LINE
  5
121D
100
AcDbEntity
  8
10000_FRONT
370
    25
390
0
  6
CONTINUOUS
 62
     7
100
AcDbLine
 10
209.900002
 20
282.199999
 30
0.0
 11
209.900002
 21
283.08
 31
0.0
  0
LINE
  5
121E
100
AcDbEntity
  8
10000_FRONT
370
    25
390
0
  6
CONTINUOUS
 62
     7
100
AcDbLine
 10
210.900002
 20
355.9
 30
0.0
 11
210.900002
 21
359.100001
 31
0.0
  0
LINE
  5
121F
100
AcDbEntity
  8
10000_FRONT
370
    25
390
0
  6
CONTINUOUS
 62
     7
100
AcDbLine
 10
210.900002
 20
354.72
 30
0.0
 11
210.900002
 21
355.600001
 31
0.0
  0
LINE
  5
1220
100
AcDbEntity
  8
10000_FRONT
370
    25
390
0
  6
CONTINUOUS
 62
     7
100
AcDbLine
 10
210.900002
 20
359.4
 30
0.0
 11
210.900002
 21
360.280001
 31
0.0
  0
LINE
  5
1221
100
AcDbEntity
  8
10000_FRONT
370
    25
390
0
  6
CONTINUOUS
 62
     7
100
AcDbLine
 10
210.900002
 20
278.699999
 30
0.0
 11
210.900002
 21
281.9
 31
0.0
  0
LINE
  5
1222
100
AcDbEntity
  8
10000_FRONT
370
    25
390
0
  6
CONTINUOUS
 62
     7
100
AcDbLine
 10
210.900002
 20
277.519999
 30
0.0
 11
210.900002
 21
278.4
 31
0.0
  0
LINE
  5
1223
100
AcDbEntity
  8
10000_FRONT
370
    25
390
0
  6
CONTINUOUS
 62
     7
100
AcDbLine
 10
210.900002
 20
282.199999
 30
0.0
 11
210.900002
 21
283.08
 31
0.0
  0
LINE
  5
1224
100
AcDbEntity
  8
10000_FRONT
370
    25
390
0
  6
CONTINUOUS
 62
     7
100
AcDbLine
 10
211.199997
 20
355.9
 30
0.0
 11
211.199997
 21
359.100001
 31
0.0
  0
LINE
  5
1225
100
AcDbEntity
  8
10000_FRONT
370
    25
390
0
  6
CONTINUOUS
 62
     7
100
AcDbLine
 10
211.199997
 20
278.699999
 30
0.0
 11
211.199997
 21
281.9
 31
0.0
  0
LINE
  5
1226
100
AcDbEntity
  8
10000_FRONT
370
    25
390
0
  6
CONTINUOUS
 62
     7
100
AcDbLine
 10
212.550003
 20
383.599997
 30
0.0
 11
212.550003
 21
395.599997
 31
0.0
  0
LINE
  5
1227
100
AcDbEntity
  8
10000_FRONT
370
    25
390
0
  6
CONTINUOUS
 62
     7
100
AcDbLine
 10
212.550003
 20
252.200003
 30
0.0
 11
212.550003
 21
264.199999
 31
0.0
  0
LINE
  5
1228
100
AcDbEntity
  8
10000_FRONT
370
    25
390
0
  6
CONTINUOUS
 62
     7
100
AcDbLine
 10
212.550003
 20
235.999998
 30
0.0
 11
212.550003
 21
240.300002
 31
0.0
  0
LINE
  5
1229
100
AcDbEntity
  8
10000_FRONT
370
    25
390
0
  6
CONTINUOUS
 62
     7
100
AcDbLine
 10
214.050003
 20
235.999998
 30
0.0
 11
214.050003
 21
239.499998
 31
0.0
  0
LINE
  5
122A
100
AcDbEntity
  8
10000_FRONT
370
    25
390
0
  6
CONTINUOUS
 62
     7
100
AcDbLine
 10
216.849998
 20
396.599997
 30
0.0
 11
216.849998
 21
400.599997
 31
0.0
  0
LINE
  5
122B
100
AcDbEntity
  8
10000_FRONT
370
    25
390
0
  6
CONTINUOUS
 62
     7
100
AcDbLine
 10
217.300003
 20
247.200003
 30
0.0
 11
217.300003
 21
250.999998
 31
0.0
  0
LINE
  5
122C
100
AcDbEntity
  8
10000_FRONT
370
    25
390
0
  6
CONTINUOUS
 62
     7
100
AcDbLine
 10
221.099998
 20
247.200003
 30
0.0
 11
221.099998
 21
248.999998
 31
0.0
  0
LINE
  5
122D
100
AcDbEntity
  8
10000_FRONT
370
    25
390
0
  6
CONTINUOUS
 62
     7
100
AcDbLine
 10
221.300003
 20
247.200003
 30
0.0
 11
221.300003
 21
248.999998
 31
0.0
  0
LINE
  5
122E
100
AcDbEntity
  8
10000_FRONT
370
    25
390
0
  6
CONTINUOUS
 62
     7
100
AcDbLine
 10
223.5
 20
408.599997
 30
0.0
 11
223.5
 21
415.099997
 31
0.0
  0
LINE
  5
122F
100
AcDbEntity
  8
10000_FRONT
370
    25
390
0
  6
CONTINUOUS
 62
     7
100
AcDbLine
 10
225.150002
 20
397.33
 30
0.0
 11
225.150002
 21
400.599997
 31
0.0
  0
LINE
  5
1230
100
AcDbEntity
  8
10000_FRONT
370
    25
390
0
  6
CONTINUOUS
 62
     7
100
AcDbLine
 10
225.150002
 20
248.999998
 30
0.0
 11
225.150002
 21
250.47
 31
0.0
  0
LINE
  5
1231
100
AcDbEntity
  8
10000_FRONT
370
    25
390
0
  6
CONTINUOUS
 62
     7
100
AcDbLine
 10
226.050003
 20
383.599997
 30
0.0
 11
226.050003
 21
395.599997
 31
0.0
  0
LINE
  5
1232
100
AcDbEntity
  8
10000_FRONT
370
    25
390
0
  6
CONTINUOUS
 62
     7
100
AcDbLine
 10
226.050003
 20
252.200003
 30
0.0
 11
226.050003
 21
264.199999
 31
0.0
  0
LINE
  5
1233
100
AcDbEntity
  8
10000_FRONT
370
    25
390
0
  6
CONTINUOUS
 62
     7
100
AcDbLine
 10
230.050003
 20
383.599997
 30
0.0
 11
230.050003
 21
395.599997
 31
0.0
  0
LINE
  5
1234
100
AcDbEntity
  8
10000_FRONT
370
    25
390
0
  6
CONTINUOUS
 62
     7
100
AcDbLine
 10
230.050003
 20
252.200003
 30
0.0
 11
230.050003
 21
264.199999
 31
0.0
  0
LINE
  5
1235
100
AcDbEntity
  8
10000_FRONT
370
    25
390
0
  6
CONTINUOUS
 62
     7
100
AcDbLine
 10
230.949997
 20
397.33
 30
0.0
 11
230.949997
 21
400.599997
 31
0.0
  0
LINE
  5
1236
100
AcDbEntity
  8
10000_FRONT
370
    25
390
0
  6
CONTINUOUS
 62
     7
100
AcDbLine
 10
230.949997
 20
248.999998
 30
0.0
 11
230.949997
 21
250.47
 31
0.0
  0
LINE
  5
1237
100
AcDbEntity
  8
10000_FRONT
370
    25
390
0
  6
CONTINUOUS
 62
     7
100
AcDbLine
 10
234.800003
 20
400.599997
 30
0.0
 11
234.800003
 21
408.599997
 31
0.0
  0
LINE
  5
1238
100
AcDbEntity
  8
10000_FRONT
370
    25
390
0
  6
CONTINUOUS
 62
     7
100
AcDbLine
 10
234.800003
 20
240.300002
 30
0.0
 11
234.800003
 21
247.200003
 31
0.0
  0
LINE
  5
1239
100
AcDbEntity
  8
10000_FRONT
370
    25
390
0
  6
CONTINUOUS
 62
     7
100
AcDbLine
 10
234.800003
 20
239.499998
 30
0.0
 11
234.800003
 21
240.300002
 31
0.0
  0
LINE
  5
123A
100
AcDbEntity
  8
10000_FRONT
370
    25
390
0
  6
CONTINUOUS
 62
     7
100
AcDbLine
 10
235.0
 20
247.200003
 30
0.0
 11
235.0
 21
248.999998
 31
0.0
  0
LINE
  5
123B
100
AcDbEntity
  8
10000_FRONT
370
    25
390
0
  6
CONTINUOUS
 62
     7
100
AcDbLine
 10
235.5
 20
408.599997
 30
0.0
 11
235.5
 21
416.599997
 31
0.0
  0
LINE
  5
123C
100
AcDbEntity
  8
10000_FRONT
370
    25
390
0
  6
CONTINUOUS
 62
     7
100
AcDbLine
 10
236.300003
 20
407.802466
 30
0.0
 11
236.300003
 21
416.599997
 31
0.0
  0
LINE
  5
123D
100
AcDbEntity
  8
10000_FRONT
370
    25
390
0
  6
CONTINUOUS
 62
     7
100
AcDbLine
 10
236.300003
 20
400.599997
 30
0.0
 11
236.300003
 21
407.800002
 31
0.0
  0
LINE
  5
123E
100
AcDbEntity
  8
10000_FRONT
370
    25
390
0
  6
CONTINUOUS
 62
     7
100
AcDbLine
 10
236.300003
 20
240.300002
 30
0.0
 11
236.300003
 21
247.200003
 31
0.0
  0
ARC
  5
123F
100
AcDbEntity
  8
10000_FRONT
370
    25
390
0
  6
CONTINUOUS
 62
     7
100
AcDbCircle
 10
120.8
 20
240.3
 30
0.0
 40
0.8
100
AcDbArc
 50
179.999891
 51
269.999945
  0
CIRCLE
  5
1240
100
AcDbEntity
  8
10000_FRONT
370
    25
390
0
  6
CONTINUOUS
 62
     7
100
AcDbCircle
 10
137.0
 20
405.6
 30
0.0
 40
0.75
  0
CIRCLE
  5
1241
100
AcDbEntity
  8
10000_FRONT
370
    25
390
0
  6
CONTINUOUS
 62
     7
100
AcDbCircle
 10
137.0
 20
405.6
 30
0.0
 40
1.5
  0
CIRCLE
  5
1242
100
AcDbEntity
  8
10000_FRONT
370
    25
390
0
  6
CONTINUOUS
 62
     7
100
AcDbCircle
 10
154.5
 20
405.6
 30
0.0
 40
0.75
  0
CIRCLE
  5
1243
100
AcDbEntity
  8
10000_FRONT
370
    25
390
0
  6
CONTINUOUS
 62
     7
100
AcDbCircle
 10
154.5
 20
405.6
 30
0.0
 40
1.5
  0
ARC
  5
1244
100
AcDbEntity
  8
10000_FRONT
370
    25
390
0
  6
CONTINUOUS
 62
     7
100
AcDbCircle
 10
200.15
 20
278.8
 30
0.0
 40
0.5
100
AcDbArc
 50
179.999825
 51
270.000175
  0
ARC
  5
1245
100
AcDbEntity
  8
10000_FRONT
370
    25
390
0
  6
CONTINUOUS
 62
     7
100
AcDbCircle
 10
200.15
 20
281.8
 30
0.0
 40
0.5
100
AcDbArc
 50
89.999825
 51
179.999825
  0
ARC
  5
1246
100
AcDbEntity
  8
10000_FRONT
370
    25
390
0
  6
CONTINUOUS
 62
     7
100
AcDbCircle
 10
200.15
 20
356.0
 30
0.0
 40
0.5
100
AcDbArc
 50
180.000175
 51
270.000175
  0
ARC
  5
1247
100
AcDbEntity
  8
10000_FRONT
370
    25
390
0
  6
CONTINUOUS
 62
     7
100
AcDbCircle
 10
200.15
 20
359.0
 30
0.0
 40
0.5
100
AcDbArc
 50
89.999825
 51
180.000175
  0
CIRCLE
  5
1248
100
AcDbEntity
  8
10000_FRONT
370
    25
390
0
  6
CONTINUOUS
 62
     7
100
AcDbCircle
 10
201.8
 20
405.6
 30
0.0
 40
0.75
  0
CIRCLE
  5
1249
100
AcDbEntity
  8
10000_FRONT
370
    25
390
0
  6
CONTINUOUS
 62
     7
100
AcDbCircle
 10
201.8
 20
405.6
 30
0.0
 40
1.5
  0
ARC
  5
124A
100
AcDbEntity
  8
10000_FRONT
370
    25
390
0
  6
CONTINUOUS
 62
     7
100
AcDbCircle
 10
206.15
 20
278.8
 30
0.0
 40
0.5
100
AcDbArc
 50
270.000175
 51
0.000175
  0
ARC
  5
124B
100
AcDbEntity
  8
10000_FRONT
370
    25
390
0
  6
CONTINUOUS
 62
     7
100
AcDbCircle
 10
206.15
 20
281.8
 30
0.0
 40
0.5
100
AcDbArc
 50
0.000175
 51
89.999825
  0
ARC
  5
124C
100
AcDbEntity
  8
10000_FRONT
370
    25
390
0
  6
CONTINUOUS
 62
     7
100
AcDbCircle
 10
206.15
 20
356.0
 30
0.0
 40
0.5
100
AcDbArc
 50
270.000175
 51
359.999825
  0
ARC
  5
124D
100
AcDbEntity
  8
10000_FRONT
370
    25
390
0
  6
CONTINUOUS
 62
     7
100
AcDbCircle
 10
206.15
 20
359.0
 30
0.0
 40
0.5
100
AcDbArc
 50
359.999825
 51
89.999825
  0
CIRCLE
  5
124E
100
AcDbEntity
  8
10000_FRONT
370
    25
390
0
  6
CONTINUOUS
 62
     7
100
AcDbCircle
 10
219.3
 20
405.6
 30
0.0
 40
0.75
  0
CIRCLE
  5
124F
100
AcDbEntity
  8
10000_FRONT
370
    25
390
0
  6
CONTINUOUS
 62
     7
100
AcDbCircle
 10
219.3
 20
405.6
 30
0.0
 40
1.5
  0
ARC
  5
1250
100
AcDbEntity
  8
10000_FRONT
370
    25
390
0
  6
CONTINUOUS
 62
     7
100
AcDbCircle
 10
235.5
 20
240.3
 30
0.0
 40
0.8
100
AcDbArc
 50
270.0
 51
0.000109
  0
ARC
  5
1251
100
AcDbEntity
  8
10000_FRONT
370
    25
390
0
  6
CONTINUOUS
 62
     7
100
AcDbCircle
 10
235.5
 20
407.8
 30
0.0
 40
0.8
100
AcDbArc
 50
0.000109
 51
90.0
  0
LINE
  5
1252
100
AcDbEntity
  8
10100_FRONT_DIM
370
    13
390
0
  6
CONTINUOUS
 62
     7
100
AcDbLine
 10
120.0
 20
416.6
 30
0.0
 11
120.0
 21
427.6
 31
0.0
  0
LINE
  5
1253
100
AcDbEntity
  8
10100_FRONT_DIM
370
    13
390
0
  6
CONTINUOUS
 62
     7
100
AcDbLine
 10
236.3
 20
427.6
 30
0.0
 11
236.3
 21
416.6
 31
0.0
  0
LINE
  5
1254
100
AcDbEntity
  8
10100_FRONT_DIM
370
    13
390
0
  6
CONTINUOUS
 62
     7
100
AcDbLine
 10
120.0
 20
426.6
 30
0.0
 11
236.3
 21
426.6
 31
0.0
  0
TEXT
  5
1255
100
AcDbEntity
  8
10100_FRONT_DIM
370
    13
390
0
  6
CONTINUOUS
 62
     7
100
AcDbText
 10
174.816667
 20
427.6
 30
0.0
 40
2.0
  1
116.3
 72
     1
 11
178.15
 21
427.6
 31
0.0
100
AcDbText
  0
LINE
  5
1256
100
AcDbEntity
  8
10100_FRONT_DIM
370
    13
390
0
  6
CONTINUOUS
 62
     7
100
AcDbLine
 10
230.05
 20
383.6
 30
0.0
 11
247.3
 21
383.6
 31
0.0
  0
LINE
  5
1257
100
AcDbEntity
  8
10100_FRONT_DIM
370
    13
390
0
  6
CONTINUOUS
 62
     7
100
AcDbLine
 10
247.3
 20
416.6
 30
0.0
 11
236.3
 21
416.6
 31
0.0
  0
LINE
  5
1258
100
AcDbEntity
  8
10100_FRONT_DIM
370
    13
390
0
  6
CONTINUOUS
 62
     7
100
AcDbLine
 10
246.3
 20
383.6
 30
0.0
 11
246.3
 21
416.6
 31
0.0
  0
TEXT
  5
1259
100
AcDbEntity
  8
10100_FRONT_DIM
370
    13
390
0
  6
CONTINUOUS
 62
     7
100
AcDbText
 10
245.3
 20
398.433333
 30
0.0
 40
2.0
  1
33
 50
90.0
 72
     1
 11
245.3
 21
400.1
 31
0.0
100
AcDbText
  0
LINE
  5
125A
100
AcDbEntity
  8
10100_FRONT_DIM
370
    13
390
0
  6
CONTINUOUS
 62
     7
100
AcDbLine
 10
120.0
 20
239.5
 30
0.0
 11
120.0
 21
225.0
 31
0.0
  0
LINE
  5
125B
100
AcDbEntity
  8
10100_FRONT_DIM
370
    13
390
0
  6
CONTINUOUS
 62
     7
100
AcDbLine
 10
236.3
 20
225.0
 30
0.0
 11
236.3
 21
239.5
 31
0.0
  0
LINE
  5
125C
100
AcDbEntity
  8
10100_FRONT_DIM
370
    13
390
0
  6
CONTINUOUS
 62
     7
100
AcDbLine
 10
120.0
 20
226.0
 30
0.0
 11
236.3
 21
226.0
 31
0.0
  0
TEXT
  5
125D
100
AcDbEntity
  8
10100_FRONT_DIM
370
    13
390
0
  6
CONTINUOUS
 62
     7
100
AcDbText
 10
174.816667
 20
227.0
 30
0.0
 40
2.0
  1
116.3
 72
     1
 11
178.15
 21
227.0
 31
0.0
100
AcDbText
  0
LINE
  5
125E
100
AcDbEntity
  8
10100_FRONT_DIM
370
    13
390
0
  6
CONTINUOUS
 62
     7
100
AcDbLine
 10
142.25
 20
236.0
 30
0.0
 11
109.0
 21
236.0
 31
0.0
  0
LINE
  5
125F
100
AcDbEntity
  8
10100_FRONT_DIM
370
    13
390
0
  6
CONTINUOUS
 62
     7
100
AcDbLine
 10
109.0
 20
264.2
 30
0.0
 11
126.25
 21
264.2
 31
0.0
  0
LINE
  5
1260
100
AcDbEntity
  8
10100_FRONT_DIM
370
    13
390
0
  6
CONTINUOUS
 62
     7
100
AcDbLine
 10
110.0
 20
236.0
 30
0.0
 11
110.0
 21
264.2
 31
0.0
  0
TEXT
  5
1261
100
AcDbEntity
  8
10100_FRONT_DIM
370
    13
390
0
  6
CONTINUOUS
 62
     7
100
AcDbText
 10
109.0
 20
247.1
 30
0.0
 40
2.0
  1
28.2
 50
90.0
 72
     1
 11
109.0
 21
250.1
 31
0.0
100
AcDbText
  0
SOLID
  5
1262
100
AcDbEntity
  8
10100_FRONT_DIM
370
    13
390
0
  6
CONTINUOUS
 62
     7
100
AcDbTrace
 10
124.0
 20
427.12661
 30
0.0
 11
120.0
 21
426.6
 31
0.0
 12
124.0
 22
426.07339
 32
0.0
 13
120.0
 23
426.6
 33
0.0
  0
SOLID
  5
1263
100
AcDbEntity
  8
10100_FRONT_DIM
370
    13
390
0
  6
CONTINUOUS
 62
     7
100
AcDbTrace
 10
232.3
 20
426.07339
 30
0.0
 11
236.3
 21
426.6
 31
0.0
 12
232.3
 22
427.12661
 32
0.0
 13
236.3
 23
426.6
 33
0.0
  0
SOLID
  5
1264
100
AcDbEntity
  8
10100_FRONT_DIM
370
    13
390
0
  6
CONTINUOUS
 62
     7
100
AcDbTrace
 10
245.77339
 20
387.6
 30
0.0
 11
246.3
 21
383.6
 31
0.0
 12
246.82661
 22
387.6
 32
0.0
 13
246.3
 23
383.6
 33
0.0
  0
SOLID
  5
1265
100
AcDbEntity
  8
10100_FRONT_DIM
370
    13
390
0
  6
CONTINUOUS
 62
     7
100
AcDbTrace
 10
246.82661
 20
412.6
 30
0.0
 11
246.3
 21
416.6
 31
0.0
 12
245.77339
 22
412.6
 32
0.0
 13
246.3
 23
416.6
 33
0.0
  0
SOLID
  5
1266
100
AcDbEntity
  8
10100_FRONT_DIM
370
    13
390
0
  6
CONTINUOUS
 62
     7
100
AcDbTrace
 10
124.0
 20
226.52661
 30
0.0
 11
120.0
 21
226.0
 31
0.0
 12
124.0
 22
225.47339
 32
0.0
 13
120.0
 23
226.0
 33
0.0
  0
SOLID
  5
1267
100
AcDbEntity
  8
10100_FRONT_DIM
370
    13
390
0
  6
CONTINUOUS
 62
     7
100
AcDbTrace
 10
232.3
 20
225.47339
 30
0.0
 11
236.3
 21
226.0
 31
0.0
 12
232.3
 22
226.52661
 32
0.0
 13
236.3
 23
226.0
 33
0.0
  0
SOLID
  5
1268
100
AcDbEntity
  8
10100_FRONT_DIM
370
    13
390
0
  6
CONTINUOUS
 62
     7
100
AcDbTrace
 10
109.47339
 20
240.0
 30
0.0
 11
110.0
 21
236.0
 31
0.0
 12
110.52661
 22
240.0
 32
0.0
 13
110.0
 23
236.0
 33
0.0
  0
SOLID
  5
1269
100
AcDbEntity
  8
10100_FRONT_DIM
370
    13
390
0
  6
CONTINUOUS
 62
     7
100
AcDbTrace
 10
110.52661
 20
260.2
 30
0.0
 11
110.0
 21
264.2
 31
0.0
 12
109.47339
 22
260.2
 32
0.0
 13
110.0
 23
264.2
 33
0.0
  0
LINE
  5
126A
100
AcDbEntity
  8
11000_LEFT
370
    25
390
0
  6
CONTINUOUS
 62
     7
100
AcDbLine
 10
288.290001
 20
277.519999
 30
0.0
 11
288.049999
 21
278.4
 31
0.0
  0
LINE
  5
126B
100
AcDbEntity
  8
11000_LEFT
370
    25
390
0
  6
CONTINUOUS
 62
     7
100
AcDbLine
 10
288.290001
 20
354.72
 30
0.0
 11
288.049999
 21
355.600001
 31
0.0
  0
LINE
  5
126C
100
AcDbEntity
  8
11000_LEFT
370
    25
390
0
  6
CONTINUOUS
 62
     7
100
AcDbLine
 10
310.009998
 20
250.47
 30
0.0
 11
309.009998
 21
252.200003
 31
0.0
  0
LINE
  5
126D
100
AcDbEntity
  8
11000_LEFT
370
    25
390
0
  6
CONTINUOUS
 62
     7
100
AcDbLine
 10
305.209999
 20
395.599997
 30
0.0
 11
304.209999
 21
397.33
 31
0.0
  0
LINE
  5
126E
100
AcDbEntity
  8
11000_LEFT
370
    25
390
0
  6
CONTINUOUS
 62
     7
100
AcDbLine
 10
305.209999
 20
395.599997
 30
0.0
 11
304.209999
 21
397.33
 31
0.0
  0
LINE
  5
126F
100
AcDbEntity
  8
11000_LEFT
370
    25
390
0
  6
CONTINUOUS
 62
     7
100
AcDbLine
 10
305.209999
 20
395.599997
 30
0.0
 11
304.209999
 21
397.33
 31
0.0
  0
LINE
  5
1270
100
AcDbEntity
  8
11000_LEFT
370
    25
390
0
  6
CONTINUOUS
 62
     7
100
AcDbLine
 10
305.209999
 20
395.599997
 30
0.0
 11
304.209999
 21
397.33
 31
0.0
  0
LINE
  5
1271
100
AcDbEntity
  8
11000_LEFT
370
    25
390
0
  6
CONTINUOUS
 62
     7
100
AcDbLine
 10
305.209999
 20
395.599997
 30
0.0
 11
304.209999
 21
397.33
 31
0.0
  0
LINE
  5
1272
100
AcDbEntity
  8
11000_LEFT
370
    25
390
0
  6
CONTINUOUS
 62
     7
100
AcDbLine
 10
305.209999
 20
395.599997
 30
0.0
 11
304.209999
 21
397.33
 31
0.0
  0
LINE
  5
1273
100
AcDbEntity
  8
11000_LEFT
370
    25
390
0
  6
CONTINUOUS
 62
     7
100
AcDbLine
 10
298.399998
 20
281.9
 30
0.0
 11
298.25
 21
282.050002
 31
0.0
  0
LINE
  5
1274
100
AcDbEntity
  8
11000_LEFT
370
    25
390
0
  6
CONTINUOUS
 62
     7
100
AcDbLine
 10
298.399998
 20
282.999998
 30
0.0
 11
298.099998
 21
283.300002
 31
0.0
  0
LINE
  5
1275
100
AcDbEntity
  8
11000_LEFT
370
    25
390
0
  6
CONTINUOUS
 62
     7
100
AcDbLine
 10
298.25
 20
355.749998
 30
0.0
 11
298.099998
 21
355.9
 31
0.0
  0
LINE
  5
1276
100
AcDbEntity
  8
11000_LEFT
370
    25
390
0
  6
CONTINUOUS
 62
     7
100
AcDbLine
 10
298.25
 20
359.249998
 30
0.0
 11
298.099998
 21
359.4
 31
0.0
  0
LINE
  5
1277
100
AcDbEntity
  8
11000_LEFT
370
    25
390
0
  6
CONTINUOUS
 62
     7
100
AcDbLine
 10
313.110001
 20
406.349997
 30
0.0
 11
312.360001
 21
407.099997
 31
0.0
  0
LINE
  5
1278
100
AcDbEntity
  8
11000_LEFT
370
    25
390
0
  6
CONTINUOUS
 62
     7
100
AcDbLine
 10
298.399998
 20
360.199999
 30
0.0
 11
298.099998
 21
360.499998
 31
0.0
  0
LINE
  5
1279
100
AcDbEntity
  8
11000_LEFT
370
    25
390
0
  6
CONTINUOUS
 62
     7
100
AcDbLine
 10
298.399998
 20
359.100001
 30
0.0
 11
298.25
 21
359.249998
 31
0.0
  0
LINE
  5
127A
100
AcDbEntity
  8
11000_LEFT
370
    25
390
0
  6
CONTINUOUS
 62
     7
100
AcDbLine
 10
298.25
 20
278.550002
 30
0.0
 11
298.099998
 21
278.699999
 31
0.0
  0
LINE
  5
127B
100
AcDbEntity
  8
11000_LEFT
370
    25
390
0
  6
CONTINUOUS
 62
     7
100
AcDbLine
 10
298.25
 20
282.050002
 30
0.0
 11
298.099998
 21
282.199999
 31
0.0
  0
LINE
  5
127C
100
AcDbEntity
  8
11000_LEFT
370
    25
390
0
  6
CONTINUOUS
 62
     7
100
AcDbLine
 10
289.290001
 20
282.199999
 30
0.0
 11
288.290001
 21
283.08
 31
0.0
  0
LINE
  5
127D
100
AcDbEntity
  8
11000_LEFT
370
    25
390
0
  6
CONTINUOUS
 62
     7
100
AcDbLine
 10
289.290001
 20
359.4
 30
0.0
 11
288.290001
 21
360.280001
 31
0.0
  0
LINE
  5
127E
100
AcDbEntity
  8
11000_LEFT
370
    25
390
0
  6
CONTINUOUS
 62
     7
100
AcDbLine
 10
304.610001
 20
407.800002
 30
0.0
 11
304.547665
 21
407.845518
 31
0.0
  0
LINE
  5
127F
100
AcDbEntity
  8
11000_LEFT
370
    25
390
0
  6
CONTINUOUS
 62
     7
100
AcDbLine
 10
304.547665
 20
407.845518
 30
0.0
 11
304.484199
 21
407.891814
 31
0.0
  0
LINE
  5
1280
100
AcDbEntity
  8
11000_LEFT
370
    25
390
0
  6
CONTINUOUS
 62
     7
100
AcDbLine
 10
304.484199
 20
407.891814
 30
0.0
 11
304.41975
 21
407.938712
 31
0.0
  0
LINE
  5
1281
100
AcDbEntity
  8
11000_LEFT
370
    25
390
0
  6
CONTINUOUS
 62
     7
100
AcDbLine
 10
304.41975
 20
407.938712
 30
0.0
 11
304.354626
 21
407.985915
 31
0.0
  0
LINE
  5
1282
100
AcDbEntity
  8
11000_LEFT
370
    25
390
0
  6
CONTINUOUS
 62
     7
100
AcDbLine
 10
304.354626
 20
407.985915
 30
0.0
 11
304.289127
 21
408.033141
 31
0.0
  0
LINE
  5
1283
100
AcDbEntity
  8
11000_LEFT
370
    25
390
0
  6
CONTINUOUS
 62
     7
100
AcDbLine
 10
304.289127
 20
408.033141
 30
0.0
 11
304.223568
 21
408.080084
 31
0.0
  0
LINE
  5
1284
100
AcDbEntity
  8
11000_LEFT
370
    25
390
0
  6
CONTINUOUS
 62
     7
100
AcDbLine
 10
304.223568
 20
408.080084
 30
0.0
 11
304.158253
 21
408.126463
 31
0.0
  0
LINE
  5
1285
100
AcDbEntity
  8
11000_LEFT
370
    25
390
0
  6
CONTINUOUS
 62
     7
100
AcDbLine
 10
304.158253
 20
408.126463
 30
0.0
 11
304.093471
 21
408.171965
 31
0.0
  0
LINE
  5
1286
100
AcDbEntity
  8
11000_LEFT
370
    25
390
0
  6
CONTINUOUS
 62
     7
100
AcDbLine
 10
304.093471
 20
408.171965
 30
0.0
 11
304.029491
 21
408.216338
 31
0.0
  0
LINE
  5
1287
100
AcDbEntity
  8
11000_LEFT
370
    25
390
0
  6
CONTINUOUS
 62
     7
100
AcDbLine
 10
304.029491
 20
408.216338
 30
0.0
 11
303.966568
 21
408.259306
 31
0.0
  0
LINE
  5
1288
100
AcDbEntity
  8
11000_LEFT
370
    25
390
0
  6
CONTINUOUS
 62
     7
100
AcDbLine
 10
303.966568
 20
408.259306
 30
0.0
 11
303.904972
 21
408.300612
 31
0.0
  0
LINE
  5
1289
100
AcDbEntity
  8
11000_LEFT
370
    25
390
0
  6
CONTINUOUS
 62
     7
100
AcDbLine
 10
303.904972
 20
408.300612
 30
0.0
 11
303.844959
 21
408.340002
 31
0.0
  0
LINE
  5
128A
100
AcDbEntity
  8
11000_LEFT
370
    25
390
0
  6
CONTINUOUS
 62
     7
100
AcDbLine
 10
303.844959
 20
408.340002
 30
0.0
 11
303.786796
 21
408.377196
 31
0.0
  0
LINE
  5
128B
100
AcDbEntity
  8
11000_LEFT
370
    25
390
0
  6
CONTINUOUS
 62
     7
100
AcDbLine
 10
303.786796
 20
408.377196
 30
0.0
 11
303.730583
 21
408.412047
 31
0.0
  0
LINE
  5
128C
100
AcDbEntity
  8
11000_LEFT
370
    25
390
0
  6
CONTINUOUS
 62
     7
100
AcDbLine
 10
303.730583
 20
408.412047
 30
0.0
 11
303.674396
 21
408.445586
 31
0.0
  0
LINE
  5
128D
100
AcDbEntity
  8
11000_LEFT
370
    25
390
0
  6
CONTINUOUS
 62
     7
100
AcDbLine
 10
303.674396
 20
408.445586
 30
0.0
 11
303.618191
 21
408.47756
 31
0.0
  0
LINE
  5
128E
100
AcDbEntity
  8
11000_LEFT
370
    25
390
0
  6
CONTINUOUS
 62
     7
100
AcDbLine
 10
303.618191
 20
408.47756
 30
0.0
 11
303.562744
 21
408.507231
 31
0.0
  0
LINE
  5
128F
100
AcDbEntity
  8
11000_LEFT
370
    25
390
0
  6
CONTINUOUS
 62
     7
100
AcDbLine
 10
303.562744
 20
408.507231
 30
0.0
 11
303.508823
 21
408.53385
 31
0.0
  0
LINE
  5
1290
100
AcDbEntity
  8
11000_LEFT
370
    25
390
0
  6
CONTINUOUS
 62
     7
100
AcDbLine
 10
303.508823
 20
408.53385
 30
0.0
 11
303.457188
 21
408.556654
 31
0.0
  0
LINE
  5
1291
100
AcDbEntity
  8
11000_LEFT
370
    25
390
0
  6
CONTINUOUS
 62
     7
100
AcDbLine
 10
303.457188
 20
408.556654
 30
0.0
 11
303.408405
 21
408.575049
 31
0.0
  0
LINE
  5
1292
100
AcDbEntity
  8
11000_LEFT
370
    25
390
0
  6
CONTINUOUS
 62
     7
100
AcDbLine
 10
303.408405
 20
408.575049
 30
0.0
 11
303.362892
 21
408.58866
 31
0.0
  0
LINE
  5
1293
100
AcDbEntity
  8
11000_LEFT
370
    25
390
0
  6
CONTINUOUS
 62
     7
100
AcDbLine
 10
303.362892
 20
408.58866
 30
0.0
 11
303.321072
 21
408.597105
 31
0.0
  0
LINE
  5
1294
100
AcDbEntity
  8
11000_LEFT
370
    25
390
0
  6
CONTINUOUS
 62
     7
100
AcDbLine
 10
303.321072
 20
408.597105
 30
0.0
 11
303.283348
 21
408.599997
 31
0.0
  0
LINE
  5
1295
100
AcDbEntity
  8
11000_LEFT
370
    25
390
0
  6
CONTINUOUS
 62
     7
100
AcDbLine
 10
302.110001
 20
235.999998
 30
0.0
 11
310.110001
 21
235.999998
 31
0.0
  0
LINE
  5
1296
100
AcDbEntity
  8
11000_LEFT
370
    25
390
0
  6
CONTINUOUS
 62
     7
100
AcDbLine
 10
296.91
 20
239.499998
 30
0.0
 11
309.309997
 21
239.499998
 31
0.0
  0
LINE
  5
1297
100
AcDbEntity
  8
11000_LEFT
370
    25
390
0
  6
CONTINUOUS
 62
     7
100
AcDbLine
 10
296.110001
 20
240.300002
 30
0.0
 11
310.110001
 21
240.300002
 31
0.0
  0
LINE
  5
1298
100
AcDbEntity
  8
11000_LEFT
370
    25
390
0
  6
CONTINUOUS
 62
     7
100
AcDbLine
 10
296.110001
 20
247.200003
 30
0.0
 11
310.110001
 21
247.200003
 31
0.0
  0
LINE
  5
1299
100
AcDbEntity
  8
11000_LEFT
370
    25
390
0
  6
CONTINUOUS
 62
     7
100
AcDbLine
 10
296.110001
 20
248.999998
 30
0.0
 11
297.610001
 21
248.999998
 31
0.0
  0
LINE
  5
129A
100
AcDbEntity
  8
11000_LEFT
370
    25
390
0
  6
CONTINUOUS
 62
     7
100
AcDbLine
 10
308.610001
 20
248.999998
 30
0.0
 11
310.110001
 21
248.999998
 31
0.0
  0
LINE
  5
129B
100
AcDbEntity
  8
11000_LEFT
370
    25
390
0
  6
CONTINUOUS
 62
     7
100
AcDbLine
 10
304.209999
 20
250.47
 30
0.0
 11
310.009998
 21
250.47
 31
0.0
  0
LINE
  5
129C
100
AcDbEntity
  8
11000_LEFT
370
    25
390
0
  6
CONTINUOUS
 62
     7
100
AcDbLine
 10
309.703651
 20
250.999998
 30
0.0
 11
310.110001
 21
250.999998
 31
0.0
  0
LINE
  5
129D
100
AcDbEntity
  8
11000_LEFT
370
    25
390
0
  6
CONTINUOUS
 62
     7
100
AcDbLine
 10
305.110001
 20
252.200003
 30
0.0
 11
309.110001
 21
252.200003
 31
0.0
  0
LINE
  5
129E
100
AcDbEntity
  8
11000_LEFT
370
    25
390
0
  6
CONTINUOUS
 62
     7
100
AcDbLine
 10
305.110001
 20
264.199999
 30
0.0
 11
309.110001
 21
264.199999
 31
0.0
  0
LINE
  5
129F
100
AcDbEntity
  8
11000_LEFT
370
    25
390
0
  6
CONTINUOUS
 62
     7
100
AcDbLine
 10
292.0
 20
277.300002
 30
0.0
 11
298.099998
 21
277.300002
 31
0.0
  0
LINE
  5
12A0
100
AcDbEntity
  8
11000_LEFT
370
    25
390
0
  6
CONTINUOUS
 62
     7
100
AcDbLine
 10
287.0
 20
278.4
 30
0.0
 11
298.099998
 21
278.4
 31
0.0
  0
LINE
  5
12A1
100
AcDbEntity
  8
11000_LEFT
370
    25
390
0
  6
CONTINUOUS
 62
     7
100
AcDbLine
 10
287.0
 20
278.699999
 30
0.0
 11
298.099998
 21
278.699999
 31
0.0
  0
LINE
  5
12A2
100
AcDbEntity
  8
11000_LEFT
370
    25
390
0
  6
CONTINUOUS
 62
     7
100
AcDbLine
 10
287.0
 20
279.300002
 30
0.0
 11
291.5
 21
279.300002
 31
0.0
  0
LINE
  5
12A3
100
AcDbEntity
  8
11000_LEFT
370
    25
390
0
  6
CONTINUOUS
 62
     7
100
AcDbLine
 10
287.0
 20
281.300002
 30
0.0
 11
291.501465
 21
281.300002
 31
0.0
  0
LINE
  5
12A4
100
AcDbEntity
  8
11000_LEFT
370
    25
390
0
  6
CONTINUOUS
 62
     7
100
AcDbLine
 10
287.0
 20
281.9
 30
0.0
 11
298.099998
 21
281.9
 31
0.0
  0
LINE
  5
12A5
100
AcDbEntity
  8
11000_LEFT
370
    25
390
0
  6
CONTINUOUS
 62
     7
100
AcDbLine
 10
287.0
 20
282.199999
 30
0.0
 11
298.099998
 21
282.199999
 31
0.0
  0
LINE
  5
12A6
100
AcDbEntity
  8
11000_LEFT
370
    25
390
0
  6
CONTINUOUS
 62
     7
100
AcDbLine
 10
292.0
 20
283.300002
 30
0.0
 11
298.099998
 21
283.300002
 31
0.0
  0
LINE
  5
12A7
100
AcDbEntity
  8
11000_LEFT
370
    25
390
0
  6
CONTINUOUS
 62
     7
100
AcDbLine
 10
292.0
 20
354.499998
 30
0.0
 11
298.099998
 21
354.499998
 31
0.0
  0
LINE
  5
12A8
100
AcDbEntity
  8
11000_LEFT
370
    25
390
0
  6
CONTINUOUS
 62
     7
100
AcDbLine
 10
287.0
 20
355.600001
 30
0.0
 11
298.099998
 21
355.600001
 31
0.0
  0
LINE
  5
12A9
100
AcDbEntity
  8
11000_LEFT
370
    25
390
0
  6
CONTINUOUS
 62
     7
100
AcDbLine
 10
287.0
 20
355.9
 30
0.0
 11
298.099998
 21
355.9
 31
0.0
  0
LINE
  5
12AA
100
AcDbEntity
  8
11000_LEFT
370
    25
390
0
  6
CONTINUOUS
 62
     7
100
AcDbLine
 10
287.0
 20
356.499998
 30
0.0
 11
291.5
 21
356.499998
 31
0.0
  0
LINE
  5
12AB
100
AcDbEntity
  8
11000_LEFT
370
    25
390
0
  6
CONTINUOUS
 62
     7
100
AcDbLine
 10
287.0
 20
358.499998
 30
0.0
 11
291.501465
 21
358.499998
 31
0.0
  0
LINE
  5
12AC
100
AcDbEntity
  8
11000_LEFT
370
    25
390
0
  6
CONTINUOUS
 62
     7
100
AcDbLine
 10
287.0
 20
359.100001
 30
0.0
 11
298.099998
 21
359.100001
 31
0.0
  0
LINE
  5
12AD
100
AcDbEntity
  8
11000_LEFT
370
    25
390
0
  6
CONTINUOUS
 62
     7
100
AcDbLine
 10
287.0
 20
359.4
 30
0.0
 11
298.099998
 21
359.4
 31
0.0
  0
LINE
  5
12AE
100
AcDbEntity
  8
11000_LEFT
370
    25
390
0
  6
CONTINUOUS
 62
     7
100
AcDbLine
 10
292.0
 20
360.499998
 30
0.0
 11
298.099998
 21
360.499998
 31
0.0
  0
LINE
  5
12AF
100
AcDbEntity
  8
11000_LEFT
370
    25
390
0
  6
CONTINUOUS
 62
     7
100
AcDbLine
 10
305.110001
 20
383.599997
 30
0.0
 11
309.110001
 21
383.599997
 31
0.0
  0
LINE
  5
12B0
100
AcDbEntity
  8
11000_LEFT
370
    25
390
0
  6
CONTINUOUS
 62
     7
100
AcDbLine
 10
305.110001
 20
395.599997
 30
0.0
 11
309.110001
 21
395.599997
 31
0.0
  0
LINE
  5
12B1
100
AcDbEntity
  8
11000_LEFT
370
    25
390
0
  6
CONTINUOUS
 62
     7
100
AcDbLine
 10
309.588035
 20
396.599997
 30
0.0
 11
310.110001
 21
396.599997
 31
0.0
  0
LINE
  5
12B2
100
AcDbEntity
  8
11000_LEFT
370
    25
390
0
  6
CONTINUOUS
 62
     7
100
AcDbLine
 10
304.209999
 20
397.33
 30
0.0
 11
310.009998
 21
397.33
 31
0.0
  0
LINE
  5
12B3
100
AcDbEntity
  8
11000_LEFT
370
    25
390
0
  6
CONTINUOUS
 62
     7
100
AcDbLine
 10
291.110001
 20
400.599997
 30
0.0
 11
310.110001
 21
400.599997
 31
0.0
  0
LINE
  5
12B4
100
AcDbEntity
  8
11000_LEFT
370
    25
390
0
  6
CONTINUOUS
 62
     7
100
AcDbLine
 10
310.110001
 20
404.099997
 30
0.0
 11
312.360001
 21
404.099997
 31
0.0
  0
LINE
  5
12B5
100
AcDbEntity
  8
11000_LEFT
370
    25
390
0
  6
CONTINUOUS
 62
     7
100
AcDbLine
 10
310.110001
 20
407.099997
 30
0.0
 11
312.360001
 21
407.099997
 31
0.0
  0
LINE
  5
12B6
100
AcDbEntity
  8
11000_LEFT
370
    25
390
0
  6
CONTINUOUS
 62
     7
100
AcDbLine
 10
308.610001
 20
407.800002
 30
0.0
 11
310.110001
 21
407.800002
 31
0.0
  0
LINE
  5
12B7
100
AcDbEntity
  8
11000_LEFT
370
    25
390
0
  6
CONTINUOUS
 62
     7
100
AcDbLine
 10
292.610001
 20
407.800002
 30
0.0
 11
304.610001
 21
407.800002
 31
0.0
  0
LINE
  5
12B8
100
AcDbEntity
  8
11000_LEFT
370
    25
390
0
  6
CONTINUOUS
 62
     7
100
AcDbLine
 10
291.110001
 20
407.800002
 30
0.0
 11
292.610001
 21
407.800002
 31
0.0
  0
LINE
  5
12B9
100
AcDbEntity
  8
11000_LEFT
370
    25
390
0
  6
CONTINUOUS
 62
     7
100
AcDbLine
 10
291.91
 20
408.599997
 30
0.0
 11
303.283348
 21
408.599997
 31
0.0
  0
LINE
  5
12BA
100
AcDbEntity
  8
11000_LEFT
370
    25
390
0
  6
CONTINUOUS
 62
     7
100
AcDbLine
 10
296.610001
 20
416.599997
 30
0.0
 11
310.110001
 21
416.599997
 31
0.0
  0
LINE
  5
12BB
100
AcDbEntity
  8
11000_LEFT
370
    25
390
0
  6
CONTINUOUS
 62
     7
100
AcDbLine
 10
288.290001
 20
277.519999
 30
0.0
 11
289.290001
 21
278.4
 31
0.0
  0
LINE
  5
12BC
100
AcDbEntity
  8
11000_LEFT
370
    25
390
0
  6
CONTINUOUS
 62
     7
100
AcDbLine
 10
288.290001
 20
354.72
 30
0.0
 11
289.290001
 21
355.600001
 31
0.0
  0
LINE
  5
12BD
100
AcDbEntity
  8
11000_LEFT
370
    25
390
0
  6
CONTINUOUS
 62
     7
100
AcDbLine
 10
298.099998
 20
355.600001
 30
0.0
 11
298.25
 21
355.749998
 31
0.0
  0
LINE
  5
12BE
100
AcDbEntity
  8
11000_LEFT
370
    25
390
0
  6
CONTINUOUS
 62
     7
100
AcDbLine
 10
298.099998
 20
359.100001
 30
0.0
 11
298.25
 21
359.249998
 31
0.0
  0
LINE
  5
12BF
100
AcDbEntity
  8
11000_LEFT
370
    25
390
0
  6
CONTINUOUS
 62
     7
100
AcDbLine
 10
298.25
 20
278.550002
 30
0.0
 11
298.399998
 21
278.699999
 31
0.0
  0
LINE
  5
12C0
100
AcDbEntity
  8
11000_LEFT
370
    25
390
0
  6
CONTINUOUS
 62
     7
100
AcDbLine
 10
298.099998
 20
277.300002
 30
0.0
 11
298.399998
 21
277.600001
 31
0.0
  0
LINE
  5
12C1
100
AcDbEntity
  8
11000_LEFT
370
    25
390
0
  6
CONTINUOUS
 62
     7
100
AcDbLine
 10
298.099998
 20
278.4
 30
0.0
 11
298.25
 21
278.550002
 31
0.0
  0
LINE
  5
12C2
100
AcDbEntity
  8
11000_LEFT
370
    25
390
0
  6
CONTINUOUS
 62
     7
100
AcDbLine
 10
298.099998
 20
281.9
 30
0.0
 11
298.25
 21
282.050002
 31
0.0
  0
LINE
  5
12C3
100
AcDbEntity
  8
11000_LEFT
370
    25
390
0
  6
CONTINUOUS
 62
     7
100
AcDbLine
 10
312.360001
 20
404.099997
 30
0.0
 11
313.110001
 21
404.849997
 31
0.0
  0
LINE
  5
12C4
100
AcDbEntity
  8
11000_LEFT
370
    25
390
0
  6
CONTINUOUS
 62
     7
100
AcDbLine
 10
298.099998
 20
354.499998
 30
0.0
 11
298.399998
 21
354.800002
 31
0.0
  0
LINE
  5
12C5
100
AcDbEntity
  8
11000_LEFT
370
    25
390
0
  6
CONTINUOUS
 62
     7
100
AcDbLine
 10
298.25
 20
355.749998
 30
0.0
 11
298.399998
 21
355.9
 31
0.0
  0
LINE
  5
12C6
100
AcDbEntity
  8
11000_LEFT
370
    25
390
0
  6
CONTINUOUS
 62
     7
100
AcDbLine
 10
312.360001
 20
404.099997
 30
0.0
 11
312.360031
 21
404.100035
 31
0.0
  0
LINE
  5
12C7
100
AcDbEntity
  8
11000_LEFT
370
    25
390
0
  6
CONTINUOUS
 62
     7
100
AcDbLine
 10
304.209999
 20
250.47
 30
0.0
 11
305.209999
 21
252.200003
 31
0.0
  0
LINE
  5
12C8
100
AcDbEntity
  8
11000_LEFT
370
    25
390
0
  6
CONTINUOUS
 62
     7
100
AcDbLine
 10
304.209999
 20
250.47
 30
0.0
 11
305.209999
 21
252.200003
 31
0.0
  0
LINE
  5
12C9
100
AcDbEntity
  8
11000_LEFT
370
    25
390
0
  6
CONTINUOUS
 62
     7
100
AcDbLine
 10
304.209999
 20
250.47
 30
0.0
 11
305.209999
 21
252.200003
 31
0.0
  0
LINE
  5
12CA
100
AcDbEntity
  8
11000_LEFT
370
    25
390
0
  6
CONTINUOUS
 62
     7
100
AcDbLine
 10
304.209999
 20
250.47
 30
0.0
 11
305.209999
 21
252.200003
 31
0.0
  0
LINE
  5
12CB
100
AcDbEntity
  8
11000_LEFT
370
    25
390
0
  6
CONTINUOUS
 62
     7
100
AcDbLine
 10
304.209999
 20
250.47
 30
0.0
 11
305.209999
 21
252.200003
 31
0.0
  0
LINE
  5
12CC
100
AcDbEntity
  8
11000_LEFT
370
    25
390
0
  6
CONTINUOUS
 62
     7
100
AcDbLine
 10
304.209999
 20
250.47
 30
0.0
 11
305.209999
 21
252.200003
 31
0.0
  0
LINE
  5
12CD
100
AcDbEntity
  8
11000_LEFT
370
    25
390
0
  6
CONTINUOUS
 62
     7
100
AcDbLine
 10
309.009998
 20
395.599997
 30
0.0
 11
310.009998
 21
397.33
 31
0.0
  0
LINE
  5
12CE
100
AcDbEntity
  8
11000_LEFT
370
    25
390
0
  6
CONTINUOUS
 62
     7
100
AcDbLine
 10
312.360001
 20
404.099997
 30
0.0
 11
312.360008
 21
404.100012
 31
0.0
  0
LINE
  5
12CF
100
AcDbEntity
  8
11000_LEFT
370
    25
390
0
  6
CONTINUOUS
 62
     7
100
AcDbLine
 10
312.360001
 20
404.099997
 30
0.0
 11
312.360008
 21
404.100012
 31
0.0
  0
LINE
  5
12D0
100
AcDbEntity
  8
11000_LEFT
370
    25
390
0
  6
CONTINUOUS
 62
     7
100
AcDbLine
 10
288.049999
 20
282.199999
 30
0.0
 11
288.290001
 21
283.08
 31
0.0
  0
LINE
  5
12D1
100
AcDbEntity
  8
11000_LEFT
370
    25
390
0
  6
CONTINUOUS
 62
     7
100
AcDbLine
 10
288.049999
 20
359.4
 30
0.0
 11
288.290001
 21
360.280001
 31
0.0
  0
LINE
  5
12D2
100
AcDbEntity
  8
11000_LEFT
370
    25
390
0
  6
CONTINUOUS
 62
     7
100
AcDbLine
 10
287.0
 20
355.600001
 30
0.0
 11
287.0
 21
356.499998
 31
0.0
  0
LINE
  5
12D3
100
AcDbEntity
  8
11000_LEFT
370
    25
390
0
  6
CONTINUOUS
 62
     7
100
AcDbLine
 10
287.0
 20
358.499998
 30
0.0
 11
287.0
 21
359.100001
 31
0.0
  0
LINE
  5
12D4
100
AcDbEntity
  8
11000_LEFT
370
    25
390
0
  6
CONTINUOUS
 62
     7
100
AcDbLine
 10
287.0
 20
359.100001
 30
0.0
 11
287.0
 21
359.4
 31
0.0
  0
LINE
  5
12D5
100
AcDbEntity
  8
11000_LEFT
370
    25
390
0
  6
CONTINUOUS
 62
     7
100
AcDbLine
 10
287.0
 20
278.699999
 30
0.0
 11
287.0
 21
279.300002
 31
0.0
  0
LINE
  5
12D6
100
AcDbEntity
  8
11000_LEFT
370
    25
390
0
  6
CONTINUOUS
 62
     7
100
AcDbLine
 10
287.0
 20
278.4
 30
0.0
 11
287.0
 21
278.699999
 31
0.0
  0
LINE
  5
12D7
100
AcDbEntity
  8
11000_LEFT
370
    25
390
0
  6
CONTINUOUS
 62
     7
100
AcDbLine
 10
287.0
 20
281.300002
 30
0.0
 11
287.0
 21
281.9
 31
0.0
  0
LINE
  5
12D8
100
AcDbEntity
  8
11000_LEFT
370
    25
390
0
  6
CONTINUOUS
 62
     7
100
AcDbLine
 10
287.0
 20
281.9
 30
0.0
 11
287.0
 21
282.199999
 31
0.0
  0
LINE
  5
12D9
100
AcDbEntity
  8
11000_LEFT
370
    25
390
0
  6
CONTINUOUS
 62
     7
100
AcDbLine
 10
291.110001
 20
400.599997
 30
0.0
 11
291.110001
 21
407.800002
 31
0.0
  0
LINE
  5
12DA
100
AcDbEntity
  8
11000_LEFT
370
    25
390
0
  6
CONTINUOUS
 62
     7
100
AcDbLine
 10
292.0
 20
354.499998
 30
0.0
 11
292.0
 21
354.800002
 31
0.0
  0
LINE
  5
12DB
100
AcDbEntity
  8
11000_LEFT
370
    25
390
0
  6
CONTINUOUS
 62
     7
100
AcDbLine
 10
292.0
 20
360.199999
 30
0.0
 11
292.0
 21
360.499998
 31
0.0
  0
LINE
  5
12DC
100
AcDbEntity
  8
11000_LEFT
370
    25
390
0
  6
CONTINUOUS
 62
     7
100
AcDbLine
 10
292.0
 20
356.999998
 30
0.0
 11
292.0
 21
357.999998
 31
0.0
  0
LINE
  5
12DD
100
AcDbEntity
  8
11000_LEFT
370
    25
390
0
  6
CONTINUOUS
 62
     7
100
AcDbLine
 10
292.0
 20
277.300002
 30
0.0
 11
292.0
 21
277.600001
 31
0.0
  0
LINE
  5
12DE
100
AcDbEntity
  8
11000_LEFT
370
    25
390
0
  6
CONTINUOUS
 62
     7
100
AcDbLine
 10
292.0
 20
282.999998
 30
0.0
 11
292.0
 21
283.300002
 31
0.0
  0
LINE
  5
12DF
100
AcDbEntity
  8
11000_LEFT
370
    25
390
0
  6
CONTINUOUS
 62
     7
100
AcDbLine
 10
292.0
 20
279.800002
 30
0.0
 11
292.0
 21
280.800002
 31
0.0
  0
LINE
  5
12E0
100
AcDbEntity
  8
11000_LEFT
370
    25
390
0
  6
CONTINUOUS
 62
     7
100
AcDbLine
 10
292.610001
 20
400.599997
 30
0.0
 11
292.610001
 21
408.599997
 31
0.0
  0
LINE
  5
12E1
100
AcDbEntity
  8
11000_LEFT
370
    25
390
0
  6
CONTINUOUS
 62
     7
100
AcDbLine
 10
296.110001
 20
240.300002
 30
0.0
 11
296.110001
 21
248.999998
 31
0.0
  0
LINE
  5
12E2
100
AcDbEntity
  8
11000_LEFT
370
    25
390
0
  6
CONTINUOUS
 62
     7
100
AcDbLine
 10
296.610001
 20
408.599997
 30
0.0
 11
296.610001
 21
416.599997
 31
0.0
  0
LINE
  5
12E3
100
AcDbEntity
  8
11000_LEFT
370
    25
390
0
  6
CONTINUOUS
 62
     7
100
AcDbLine
 10
297.610001
 20
239.499998
 30
0.0
 11
297.610001
 21
248.999998
 31
0.0
  0
LINE
  5
12E4
100
AcDbEntity
  8
11000_LEFT
370
    25
390
0
  6
CONTINUOUS
 62
     7
100
AcDbLine
 10
298.099998
 20
355.9
 30
0.0
 11
298.099998
 21
359.100001
 31
0.0
  0
LINE
  5
12E5
100
AcDbEntity
  8
11000_LEFT
370
    25
390
0
  6
CONTINUOUS
 62
     7
100
AcDbLine
 10
298.099998
 20
278.699999
 30
0.0
 11
298.099998
 21
281.9
 31
0.0
  0
LINE
  5
12E6
100
AcDbEntity
  8
11000_LEFT
370
    25
390
0
  6
CONTINUOUS
 62
     7
100
AcDbLine
 10
298.110001
 20
408.599997
 30
0.0
 11
298.110001
 21
416.599997
 31
0.0
  0
LINE
  5
12E7
100
AcDbEntity
  8
11000_LEFT
370
    25
390
0
  6
CONTINUOUS
 62
     7
100
AcDbLine
 10
298.399998
 20
354.800002
 30
0.0
 11
298.399998
 21
359.100001
 31
0.0
  0
LINE
  5
12E8
100
AcDbEntity
  8
11000_LEFT
370
    25
390
0
  6
CONTINUOUS
 62
     7
100
AcDbLine
 10
298.399998
 20
359.100005
 30
0.0
 11
298.399998
 21
360.199999
 31
0.0
  0
LINE
  5
12E9
100
AcDbEntity
  8
11000_LEFT
370
    25
390
0
  6
CONTINUOUS
 62
     7
100
AcDbLine
 10
298.399998
 20
277.600001
 30
0.0
 11
298.399998
 21
278.700003
 31
0.0
  0
LINE
  5
12EA
100
AcDbEntity
  8
11000_LEFT
370
    25
390
0
  6
CONTINUOUS
 62
     7
100
AcDbLine
 10
298.399998
 20
281.900004
 30
0.0
 11
298.399998
 21
282.999998
 31
0.0
  0
LINE
  5
12EB
100
AcDbEntity
  8
11000_LEFT
370
    25
390
0
  6
CONTINUOUS
 62
     7
100
AcDbLine
 10
298.399998
 20
278.699999
 30
0.0
 11
298.399998
 21
281.9
 31
0.0
  0
LINE
  5
12EC
100
AcDbEntity
  8
11000_LEFT
370
    25
390
0
  6
CONTINUOUS
 62
     7
100
AcDbLine
 10
301.610001
 20
408.599997
 30
0.0
 11
301.610001
 21
416.599997
 31
0.0
  0
LINE
  5
12ED
100
AcDbEntity
  8
11000_LEFT
370
    25
390
0
  6
CONTINUOUS
 62
     7
100
AcDbLine
 10
302.110001
 20
235.999998
 30
0.0
 11
302.110001
 21
239.499998
 31
0.0
  0
LINE
  5
12EE
100
AcDbEntity
  8
11000_LEFT
370
    25
390
0
  6
CONTINUOUS
 62
     7
100
AcDbLine
 10
303.110001
 20
408.599997
 30
0.0
 11
303.110001
 21
416.599997
 31
0.0
  0
LINE
  5
12EF
100
AcDbEntity
  8
11000_LEFT
370
    25
390
0
  6
CONTINUOUS
 62
     7
100
AcDbLine
 10
303.610001
 20
235.999998
 30
0.0
 11
303.610001
 21
239.499998
 31
0.0
  0
LINE
  5
12F0
100
AcDbEntity
  8
11000_LEFT
370
    25
390
0
  6
CONTINUOUS
 62
     7
100
AcDbLine
 10
304.209999
 20
397.33
 30
0.0
 11
304.209999
 21
400.599997
 31
0.0
  0
LINE
  5
12F1
100
AcDbEntity
  8
11000_LEFT
370
    25
390
0
  6
CONTINUOUS
 62
     7
100
AcDbLine
 10
304.209999
 20
247.200003
 30
0.0
 11
304.209999
 21
250.47
 31
0.0
  0
LINE
  5
12F2
100
AcDbEntity
  8
11000_LEFT
370
    25
390
0
  6
CONTINUOUS
 62
     7
100
AcDbLine
 10
304.209999
 20
247.200003
 30
0.0
 11
304.209999
 21
250.47
 31
0.0
  0
LINE
  5
12F3
100
AcDbEntity
  8
11000_LEFT
370
    25
390
0
  6
CONTINUOUS
 62
     7
100
AcDbLine
 10
304.209999
 20
247.200003
 30
0.0
 11
304.209999
 21
250.47
 31
0.0
  0
LINE
  5
12F4
100
AcDbEntity
  8
11000_LEFT
370
    25
390
0
  6
CONTINUOUS
 62
     7
100
AcDbLine
 10
304.209999
 20
247.200003
 30
0.0
 11
304.209999
 21
250.47
 31
0.0
  0
LINE
  5
12F5
100
AcDbEntity
  8
11000_LEFT
370
    25
390
0
  6
CONTINUOUS
 62
     7
100
AcDbLine
 10
304.209999
 20
247.200003
 30
0.0
 11
304.209999
 21
250.47
 31
0.0
  0
LINE
  5
12F6
100
AcDbEntity
  8
11000_LEFT
370
    25
390
0
  6
CONTINUOUS
 62
     7
100
AcDbLine
 10
304.209999
 20
247.200003
 30
0.0
 11
304.209999
 21
250.47
 31
0.0
  0
LINE
  5
12F7
100
AcDbEntity
  8
11000_LEFT
370
    25
390
0
  6
CONTINUOUS
 62
     7
100
AcDbLine
 10
304.610001
 20
407.800002
 30
0.0
 11
304.610001
 21
416.599997
 31
0.0
  0
LINE
  5
12F8
100
AcDbEntity
  8
11000_LEFT
370
    25
390
0
  6
CONTINUOUS
 62
     7
100
AcDbLine
 10
305.110001
 20
383.599997
 30
0.0
 11
305.110001
 21
395.599997
 31
0.0
  0
LINE
  5
12F9
100
AcDbEntity
  8
11000_LEFT
370
    25
390
0
  6
CONTINUOUS
 62
     7
100
AcDbLine
 10
305.110001
 20
252.200003
 30
0.0
 11
305.110001
 21
264.199999
 31
0.0
  0
LINE
  5
12FA
100
AcDbEntity
  8
11000_LEFT
370
    25
390
0
  6
CONTINUOUS
 62
     7
100
AcDbLine
 10
305.110001
 20
252.200003
 30
0.0
 11
305.110001
 21
264.199999
 31
0.0
  0
LINE
  5
12FB
100
AcDbEntity
  8
11000_LEFT
370
    25
390
0
  6
CONTINUOUS
 62
     7
100
AcDbLine
 10
305.110001
 20
252.200003
 30
0.0
 11
305.110001
 21
264.199999
 31
0.0
  0
LINE
  5
12FC
100
AcDbEntity
  8
11000_LEFT
370
    25
390
0
  6
CONTINUOUS
 62
     7
100
AcDbLine
 10
305.110001
 20
252.200003
 30
0.0
 11
305.110001
 21
264.199999
 31
0.0
  0
LINE
  5
12FD
100
AcDbEntity
  8
11000_LEFT
370
    25
390
0
  6
CONTINUOUS
 62
     7
100
AcDbLine
 10
305.110001
 20
252.200003
 30
0.0
 11
305.110001
 21
264.199999
 31
0.0
  0
LINE
  5
12FE
100
AcDbEntity
  8
11000_LEFT
370
    25
390
0
  6
CONTINUOUS
 62
     7
100
AcDbLine
 10
305.110001
 20
252.200003
 30
0.0
 11
305.110001
 21
264.199999
 31
0.0
  0
LINE
  5
12FF
100
AcDbEntity
  8
11000_LEFT
370
    25
390
0
  6
CONTINUOUS
 62
     7
100
AcDbLine
 10
308.610001
 20
400.599997
 30
0.0
 11
308.610001
 21
416.599997
 31
0.0
  0
LINE
  5
1300
100
AcDbEntity
  8
11000_LEFT
370
    25
390
0
  6
CONTINUOUS
 62
     7
100
AcDbLine
 10
308.610001
 20
247.200003
 30
0.0
 11
308.610001
 21
248.999998
 31
0.0
  0
LINE
  5
1301
100
AcDbEntity
  8
11000_LEFT
370
    25
390
0
  6
CONTINUOUS
 62
     7
100
AcDbLine
 10
308.610001
 20
235.999998
 30
0.0
 11
308.610001
 21
239.499998
 31
0.0
  0
LINE
  5
1302
100
AcDbEntity
  8
11000_LEFT
370
    25
390
0
  6
CONTINUOUS
 62
     7
100
AcDbLine
 10
308.610001
 20
240.300002
 30
0.0
 11
308.610001
 21
247.200003
 31
0.0
  0
LINE
  5
1303
100
AcDbEntity
  8
11000_LEFT
370
    25
390
0
  6
CONTINUOUS
 62
     7
100
AcDbLine
 10
308.610001
 20
239.499998
 30
0.0
 11
308.610001
 21
240.300002
 31
0.0
  0
LINE
  5
1304
100
AcDbEntity
  8
11000_LEFT
370
    25
390
0
  6
CONTINUOUS
 62
     7
100
AcDbLine
 10
309.110001
 20
383.599997
 30
0.0
 11
309.110001
 21
395.599997
 31
0.0
  0
LINE
  5
1305
100
AcDbEntity
  8
11000_LEFT
370
    25
390
0
  6
CONTINUOUS
 62
     7
100
AcDbLine
 10
309.110001
 20
252.200003
 30
0.0
 11
309.110001
 21
264.199999
 31
0.0
  0
LINE
  5
1306
100
AcDbEntity
  8
11000_LEFT
370
    25
390
0
  6
CONTINUOUS
 62
     7
100
AcDbLine
 10
310.009998
 20
397.33
 30
0.0
 11
310.009998
 21
400.599997
 31
0.0
  0
LINE
  5
1307
100
AcDbEntity
  8
11000_LEFT
370
    25
390
0
  6
CONTINUOUS
 62
     7
100
AcDbLine
 10
310.009998
 20
248.999998
 30
0.0
 11
310.009998
 21
250.47
 31
0.0
  0
LINE
  5
1308
100
AcDbEntity
  8
11000_LEFT
370
    25
390
0
  6
CONTINUOUS
 62
     7
100
AcDbLine
 10
310.110001
 20
396.599997
 30
0.0
 11
310.110001
 21
416.599997
 31
0.0
  0
LINE
  5
1309
100
AcDbEntity
  8
11000_LEFT
370
    25
390
0
  6
CONTINUOUS
 62
     7
100
AcDbLine
 10
310.110001
 20
247.200003
 30
0.0
 11
310.110001
 21
248.999998
 31
0.0
  0
LINE
  5
130A
100
AcDbEntity
  8
11000_LEFT
370
    25
390
0
  6
CONTINUOUS
 62
     7
100
AcDbLine
 10
310.110001
 20
249.000014
 30
0.0
 11
310.110001
 21
250.999998
 31
0.0
  0
LINE
  5
130B
100
AcDbEntity
  8
11000_LEFT
370
    25
390
0
  6
CONTINUOUS
 62
     7
100
AcDbLine
 10
310.110001
 20
235.999998
 30
0.0
 11
310.110001
 21
240.294981
 31
0.0
  0
LINE
  5
130C
100
AcDbEntity
  8
11000_LEFT
370
    25
390
0
  6
CONTINUOUS
 62
     7
100
AcDbLine
 10
310.110001
 20
240.300002
 30
0.0
 11
310.110001
 21
247.200003
 31
0.0
  0
LINE
  5
130D
100
AcDbEntity
  8
11000_LEFT
370
    25
390
0
  6
CONTINUOUS
 62
     7
100
AcDbLine
 10
312.360001
 20
404.099997
 30
0.0
 11
312.360001
 21
407.099997
 31
0.0
  0
LINE
  5
130E
100
AcDbEntity
  8
11000_LEFT
370
    25
390
0
  6
CONTINUOUS
 62
     7
100
AcDbLine
 10
313.110001
 20
404.849997
 30
0.0
 11
313.110001
 21
406.349997
 31
0.0
  0
ARC
  5
130F
100
AcDbEntity
  8
11000_LEFT
370
    25
390
0
  6
CONTINUOUS
 62
     7
100
AcDbCircle
 10
291.199999
 20
277.6
 30
0.0
 40
0.8
100
AcDbArc
 50
0.0
 51
89.99988
  0
ARC
  5
1310
100
AcDbEntity
  8
11000_LEFT
370
    25
390
0
  6
CONTINUOUS
 62
     7
100
AcDbCircle
 10
291.199999
 20
283.0
 30
0.0
 40
0.8
100
AcDbArc
 50
270.125796
 51
359.999891
  0
ARC
  5
1311
100
AcDbEntity
  8
11000_LEFT
370
    25
390
0
  6
CONTINUOUS
 62
     7
100
AcDbCircle
 10
291.199999
 20
354.8
 30
0.0
 40
0.8
100
AcDbArc
 50
0.000109
 51
89.99988
  0
ARC
  5
1312
100
AcDbEntity
  8
11000_LEFT
370
    25
390
0
  6
CONTINUOUS
 62
     7
100
AcDbCircle
 10
291.199999
 20
360.2
 30
0.0
 40
0.8
100
AcDbArc
 50
270.125796
 51
0.0
  0
ARC
  5
1313
100
AcDbEntity
  8
11000_LEFT
370
    25
390
0
  6
CONTINUOUS
 62
     7
100
AcDbCircle
 10
291.499999
 20
279.8
 30
0.0
 40
0.5
100
AcDbArc
 50
270.000105
 51
0.000175
  0
ARC
  5
1314
100
AcDbEntity
  8
11000_LEFT
370
    25
390
0
  6
CONTINUOUS
 62
     7
100
AcDbCircle
 10
291.499999
 20
280.8
 30
0.0
 40
0.5
100
AcDbArc
 50
0.000175
 51
89.999895
  0
ARC
  5
1315
100
AcDbEntity
  8
11000_LEFT
370
    25
390
0
  6
CONTINUOUS
 62
     7
100
AcDbCircle
 10
291.499999
 20
357.0
 30
0.0
 40
0.5
100
AcDbArc
 50
270.000105
 51
359.999825
  0
ARC
  5
1316
100
AcDbEntity
  8
11000_LEFT
370
    25
390
0
  6
CONTINUOUS
 62
     7
100
AcDbCircle
 10
291.499999
 20
358.0
 30
0.0
 40
0.5
100
AcDbArc
 50
359.999825
 51
89.999895
  0
ARC
  5
1317
100
AcDbEntity
  8
11000_LEFT
370
    25
390
0
  6
CONTINUOUS
 62
     7
100
AcDbCircle
 10
291.909999
 20
407.8
 30
0.0
 40
0.8
100
AcDbArc
 50
89.999945
 51
179.999891
  0
ARC
  5
1318
100
AcDbEntity
  8
11000_LEFT
370
    25
390
0
  6
CONTINUOUS
 62
     7
100
AcDbCircle
 10
296.909999
 20
240.3
 30
0.0
 40
0.8
100
AcDbArc
 50
179.999891
 51
270.000055
  0
ARC
  5
1319
100
AcDbEntity
  8
11000_LEFT
370
    25
390
0
  6
CONTINUOUS
 62
     7
100
AcDbCircle
 10
309.309999
 20
240.3
 30
0.0
 40
0.8
100
AcDbArc
 50
269.999891
 51
0.000109
  0
LINE
  5
131A
100
AcDbEntity
  8
11100_LEFT_DIM
370
    13
390
0
  6
CONTINUOUS
 62
     7
100
AcDbLine
 10
291.109999
 20
408.6
 30
0.0
 11
291.109999
 21
427.6
 31
0.0
  0
LINE
  5
131B
100
AcDbEntity
  8
11100_LEFT_DIM
370
    13
390
0
  6
CONTINUOUS
 62
     7
100
AcDbLine
 10
313.109999
 20
427.6
 30
0.0
 11
313.109999
 21
406.1
 31
0.0
  0
LINE
  5
131C
100
AcDbEntity
  8
11100_LEFT_DIM
370
    13
390
0
  6
CONTINUOUS
 62
     7
100
AcDbLine
 10
291.109999
 20
426.6
 30
0.0
 11
313.109999
 21
426.6
 31
0.0
  0
TEXT
  5
131D
100
AcDbEntity
  8
11100_LEFT_DIM
370
    13
390
0
  6
CONTINUOUS
 62
     7
100
AcDbText
 10
300.443332
 20
427.6
 30
0.0
 40
2.0
  1
22
 72
     1
 11
302.109999
 21
427.6
 31
0.0
100
AcDbText
  0
LINE
  5
131E
100
AcDbEntity
  8
11100_LEFT_DIM
370
    13
390
0
  6
CONTINUOUS
 62
     7
100
AcDbLine
 10
296.109999
 20
239.5
 30
0.0
 11
296.109999
 21
225.0
 31
0.0
  0
LINE
  5
131F
100
AcDbEntity
  8
11100_LEFT_DIM
370
    13
390
0
  6
CONTINUOUS
 62
     7
100
AcDbLine
 10
310.109999
 20
225.0
 30
0.0
 11
310.109999
 21
236.0
 31
0.0
  0
LINE
  5
1320
100
AcDbEntity
  8
11100_LEFT_DIM
370
    13
390
0
  6
CONTINUOUS
 62
     7
100
AcDbLine
 10
296.109999
 20
226.0
 30
0.0
 11
310.109999
 21
226.0
 31
0.0
  0
TEXT
  5
1321
100
AcDbEntity
  8
11100_LEFT_DIM
370
    13
390
0
  6
CONTINUOUS
 62
     7
100
AcDbText
 10
301.776666
 20
227.0
 30
0.0
 40
2.0
  1
14
 72
     1
 11
303.109999
 21
227.0
 31
0.0
100
AcDbText
  0
SOLID
  5
1322
100
AcDbEntity
  8
11100_LEFT_DIM
370
    13
390
0
  6
CONTINUOUS
 62
     7
100
AcDbTrace
 10
295.109999
 20
427.12661
 30
0.0
 11
291.109999
 21
426.6
 31
0.0
 12
295.109999
 22
426.07339
 32
0.0
 13
291.109999
 23
426.6
 33
0.0
  0
SOLID
  5
1323
100
AcDbEntity
  8
11100_LEFT_DIM
370
    13
390
0
  6
CONTINUOUS
 62
     7
100
AcDbTrace
 10
309.109999
 20
426.07339
 30
0.0
 11
313.109999
 21
426.6
 31
0.0
 12
309.109999
 22
427.12661
 32
0.0
 13
313.109999
 23
426.6
 33
0.0
  0
SOLID
  5
1324
100
AcDbEntity
  8
11100_LEFT_DIM
370
    13
390
0
  6
CONTINUOUS
 62
     7
100
AcDbTrace
 10
300.109999
 20
226.52661
 30
0.0
 11
296.109999
 21
226.0
 31
0.0
 12
300.109999
 22
225.47339
 32
0.0
 13
296.109999
 23
226.0
 33
0.0
  0
SOLID
  5
1325
100
AcDbEntity
  8
11100_LEFT_DIM
370
    13
390
0
  6
CONTINUOUS
 62
     7
100
AcDbTrace
 10
306.109999
 20
225.47339
 30
0.0
 11
310.109999
 21
226.0
 31
0.0
 12
306.109999
 22
226.52661
 32
0.0
 13
310.109999
 23
226.0
 33
0.0
  0
LINE
  5
1326
100
AcDbEntity
  8
90000_FRAME
370
    13
  6
CONTINUOUS
 62
     7
100
AcDbLine
 10
9.999932
 20
9.999953
 30
0.0
 11
9.999932
 21
583.999953
 31
0.0
  0
LINE
  5
1327
100
AcDbEntity
  8
91000_TIP
370
    13
  6
CONTINUOUS
 62
     7
100
AcDbLine
 10
72.758853
 20
42.420135
 30
0.0
 11
92.758853
 21
47.420135
 31
0.0
  0
LINE
  5
1328
100
AcDbEntity
  8
91000_TIP
370
    13
  6
CONTINUOUS
 62
     7
100
AcDbLine
 10
70.199832
 20
37.420135
 30
0.0
 11
117.403811
 21
37.420135
 31
0.0
  0
LINE
  5
1329
100
AcDbEntity
  8
91000_TIP
370
    13
  6
CONTINUOUS
 62
     7
100
AcDbLine
 10
72.758853
 20
32.420135
 30
0.0
 11
92.758853
 21
27.420135
 31
0.0
  0
LINE
  5
132A
100
AcDbEntity
  8
91000_TIP
370
    13
  6
CONTINUOUS
 62
     7
100
AcDbLine
 10
72.758853
 20
42.420135
 30
0.0
 11
72.758853
 21
32.420135
 31
0.0
  0
LINE
  5
132B
100
AcDbEntity
  8
91000_TIP
370
    13
  6
CONTINUOUS
 62
     7
100
AcDbLine
 10
92.758853
 20
47.420135
 30
0.0
 11
92.758853
 21
27.420135
 31
0.0
  0
LINE
  5
132C
100
AcDbEntity
  8
91000_TIP
370
    13
  6
CONTINUOUS
 62
     7
100
AcDbLine
 10
105.758853
 20
25.977173
 30
0.0
 11
105.758853
 21
48.543945
 31
0.0
  0
CIRCLE
  5
132D
100
AcDbEntity
  8
91000_TIP
370
    13
  6
CONTINUOUS
 62
     7
100
AcDbCircle
 10
105.758853
 20
37.420135
 30
0.0
 40
10.0
  0
CIRCLE
  5
132E
100
AcDbEntity
  8
91000_TIP
370
    13
  6
CONTINUOUS
 62
     7
100
AcDbCircle
 10
105.758853
 20
37.420135
 30
0.0
 40
5.0
  0
TEXT
  5
132F
100
AcDbEntity
  8
90000_FRAME
370
    13
  6
CONTINUOUS
 62
     7
100
AcDbText
 10
131.119013
 20
59.555361
 30
0.0
 40
4.4
  1
All dimensions are in millimeters (mm)
 41
0.961374
100
AcDbText
  0
TEXT
  5
1330
100
AcDbEntity
  8
90000_FRAME
370
    13
  6
CONTINUOUS
 62
     7
100
AcDbText
 10
131.119013
 20
65.813406
 30
0.0
 40
4.4
  1
Alle Bemassungswerte sind in Millimeter (mm) angegeben.
 41
0.825144
100
AcDbText
  0
LINE
  5
1331
100
AcDbEntity
  8
90000_FRAME
370
    13
  6
CONTINUOUS
 62
     7
100
AcDbLine
 10
409.999932
 20
9.999953
 30
0.0
 11
409.999932
 21
583.999953
 31
0.0
  0
LINE
  5
1332
100
AcDbEntity
  8
90000_FRAME
370
    13
  6
CONTINUOUS
 62
     7
100
AcDbLine
 10
409.999932
 20
9.999953
 30
0.0
 11
9.999932
 21
9.999953
 31
0.0
  0
TEXT
  5
1333
100
AcDbEntity
  8
90000_FRAME
370
    13
  6
CONTINUOUS
 62
     7
100
AcDbText
 10
232.896098
 20
45.406236
 30
0.0
 40
6.0
  1
3RA2933-2AA2
 41
0.784213
100
AcDbText
  0
TEXT
  5
1334
100
AcDbEntity
  8
90000_FRAME
370
    13
  6
CONTINUOUS
 62
     7
100
AcDbText
 10
316.319932
 20
23.799953
 30
0.0
 40
4.4
  1
Massstab/Scale: 1:1
 41
0.9
100
AcDbText
  0
TEXT
  5
1335
100
AcDbEntity
  8
90000_FRAME
370
    13
  6
CONTINUOUS
 62
     7
100
AcDbText
 10
232.591788
 20
23.799953
 30
0.0
 40
4.4
  1
Format/Size: DIN A4
 41
0.803258
100
AcDbText
  0
LINE
  5
1336
100
AcDbEntity
  8
90000_FRAME
370
    13
  6
CONTINUOUS
 62
     7
100
AcDbLine
 10
399.999932
 20
19.999953
 30
0.0
 11
399.999932
 21
55.999953
 31
0.0
  0
LINE
  5
1337
100
AcDbEntity
  8
90000_FRAME
370
    13
  6
CONTINUOUS
 62
     7
100
AcDbLine
 10
314.999932
 20
19.999953
 30
0.0
 11
314.999932
 21
31.999953
 31
0.0
  0
LINE
  5
1338
100
AcDbEntity
  8
90000_FRAME
370
    13
  6
CONTINUOUS
 62
     7
100
AcDbLine
 10
229.999932
 20
19.999953
 30
0.0
 11
229.999932
 21
55.999953
 31
0.0
  0
LINE
  5
1339
100
AcDbEntity
  8
90000_FRAME
370
    13
  6
CONTINUOUS
 62
     7
100
AcDbLine
 10
129.999932
 20
55.999953
 30
0.0
 11
399.999932
 21
55.999953
 31
0.0
  0
LINE
  5
133A
100
AcDbEntity
  8
90000_FRAME
370
    13
  6
CONTINUOUS
 62
     7
100
AcDbLine
 10
229.999932
 20
31.999953
 30
0.0
 11
399.999932
 21
31.999953
 31
0.0
  0
LINE
  5
133B
100
AcDbEntity
  8
90000_FRAME
370
    13
  6
CONTINUOUS
 62
     7
100
AcDbLine
 10
129.999932
 20
19.999953
 30
0.0
 11
129.999932
 21
55.999953
 31
0.0
  0
LINE
  5
133C
100
AcDbEntity
  8
90000_FRAME
370
    13
  6
CONTINUOUS
 62
     7
100
AcDbLine
 10
129.999932
 20
19.999953
 30
0.0
 11
399.999932
 21
19.999953
 31
0.0
  0
LINE
  5
133D
100
AcDbEntity
  8
90000_FRAME
370
    13
  6
CONTINUOUS
 62
     7
100
AcDbLine
 10
158.372333
 20
42.829049
 30
0.0
 11
158.372333
 21
33.322511
 31
0.0
  0
LINE
  5
133E
100
AcDbEntity
  8
90000_FRAME
370
    13
  6
CONTINUOUS
 62
     7
100
AcDbLine
 10
161.224294
 20
42.829049
 30
0.0
 11
161.224294
 21
33.322511
 31
0.0
  0
LINE
  5
133F
100
AcDbEntity
  8
90000_FRAME
370
    13
  6
CONTINUOUS
 62
     7
100
AcDbLine
 10
158.372333
 20
33.322511
 30
0.0
 11
161.224294
 21
33.322511
 31
0.0
  0
LINE
  5
1340
100
AcDbEntity
  8
90000_FRAME
370
    13
  6
CONTINUOUS
 62
     7
100
AcDbLine
 10
158.372333
 20
42.829049
 30
0.0
 11
161.224294
 21
42.829049
 31
0.0
  0
LINE
  5
1341
100
AcDbEntity
  8
90000_FRAME
370
    13
  6
CONTINUOUS
 62
     7
100
AcDbLine
 10
163.410798
 20
42.829049
 30
0.0
 11
163.410798
 21
33.322511
 31
0.0
  0
LINE
  5
1342
100
AcDbEntity
  8
90000_FRAME
370
    13
  6
CONTINUOUS
 62
     7
100
AcDbLine
 10
163.410798
 20
33.322511
 30
0.0
 11
170.540701
 21
33.322511
 31
0.0
  0
LINE
  5
1343
100
AcDbEntity
  8
90000_FRAME
370
    13
  6
CONTINUOUS
 62
     7
100
AcDbLine
 10
170.540701
 20
35.128753
 30
0.0
 11
166.167694
 21
35.128753
 31
0.0
  0
LINE
  5
1344
100
AcDbEntity
  8
90000_FRAME
370
    13
  6
CONTINUOUS
 62
     7
100
AcDbLine
 10
170.540701
 20
35.128753
 30
0.0
 11
170.540701
 21
33.322511
 31
0.0
  0
LINE
  5
1345
100
AcDbEntity
  8
90000_FRAME
370
    13
  6
CONTINUOUS
 62
     7
100
AcDbLine
 10
170.445636
 20
42.829049
 30
0.0
 11
163.410798
 21
42.829049
 31
0.0
  0
LINE
  5
1346
100
AcDbEntity
  8
90000_FRAME
370
    13
  6
CONTINUOUS
 62
     7
100
AcDbLine
 10
170.445636
 20
41.070339
 30
0.0
 11
166.167694
 21
41.070339
 31
0.0
  0
LINE
  5
1347
100
AcDbEntity
  8
90000_FRAME
370
    13
  6
CONTINUOUS
 62
     7
100
AcDbLine
 10
170.445636
 20
42.829049
 30
0.0
 11
170.445636
 21
41.070339
 31
0.0
  0
LINE
  5
1348
100
AcDbEntity
  8
90000_FRAME
370
    13
  6
CONTINUOUS
 62
     7
100
AcDbLine
 10
169.875244
 20
37.362789
 30
0.0
 11
166.167694
 21
37.362789
 31
0.0
  0
LINE
  5
1349
100
AcDbEntity
  8
90000_FRAME
370
    13
  6
CONTINUOUS
 62
     7
100
AcDbLine
 10
169.875244
 20
38.931368
 30
0.0
 11
169.875244
 21
37.362789
 31
0.0
  0
LINE
  5
134A
100
AcDbEntity
  8
90000_FRAME
370
    13
  6
CONTINUOUS
 62
     7
100
AcDbLine
 10
169.875244
 20
38.931368
 30
0.0
 11
166.167694
 21
38.931368
 31
0.0
  0
LINE
  5
134B
100
AcDbEntity
  8
90000_FRAME
370
    13
  6
CONTINUOUS
 62
     7
100
AcDbLine
 10
166.167694
 20
41.070339
 30
0.0
 11
166.167694
 21
38.931368
 31
0.0
  0
LINE
  5
134C
100
AcDbEntity
  8
90000_FRAME
370
    13
  6
CONTINUOUS
 62
     7
100
AcDbLine
 10
166.167694
 20
37.362789
 30
0.0
 11
166.167694
 21
35.128753
 31
0.0
  0
LINE
  5
134D
100
AcDbEntity
  8
90000_FRAME
370
    13
  6
CONTINUOUS
 62
     7
100
AcDbLine
 10
172.156813
 20
33.322511
 30
0.0
 11
172.156813
 21
42.829049
 31
0.0
  0
LINE
  5
134E
100
AcDbEntity
  8
90000_FRAME
370
    13
  6
CONTINUOUS
 62
     7
100
AcDbLine
 10
172.156813
 20
33.322511
 30
0.0
 11
174.058121
 21
33.322511
 31
0.0
  0
LINE
  5
134F
100
AcDbEntity
  8
90000_FRAME
370
    13
  6
CONTINUOUS
 62
     7
100
AcDbLine
 10
183.849855
 20
42.829049
 30
0.0
 11
183.849855
 21
33.322511
 31
0.0
  0
LINE
  5
1350
100
AcDbEntity
  8
90000_FRAME
370
    13
  6
CONTINUOUS
 62
     7
100
AcDbLine
 10
183.849855
 20
33.322511
 30
0.0
 11
181.092959
 21
33.322511
 31
0.0
  0
LINE
  5
1351
100
AcDbEntity
  8
90000_FRAME
370
    13
  6
CONTINUOUS
 62
     7
100
AcDbLine
 10
176.719951
 20
33.227445
 30
0.0
 11
178.431128
 21
33.227445
 31
0.0
  0
LINE
  5
1352
100
AcDbEntity
  8
90000_FRAME
370
    13
  6
CONTINUOUS
 62
     7
100
AcDbLine
 10
176.719951
 20
33.227445
 30
0.0
 11
174.058121
 21
39.406695
 31
0.0
  0
LINE
  5
1353
100
AcDbEntity
  8
90000_FRAME
370
    13
  6
CONTINUOUS
 62
     7
100
AcDbLine
 10
174.058121
 20
33.322511
 30
0.0
 11
174.058121
 21
39.406695
 31
0.0
  0
LINE
  5
1354
100
AcDbEntity
  8
90000_FRAME
370
    13
  6
CONTINUOUS
 62
     7
100
AcDbLine
 10
181.092959
 20
39.50176
 30
0.0
 11
178.431128
 21
33.227445
 31
0.0
  0
LINE
  5
1355
100
AcDbEntity
  8
90000_FRAME
370
    13
  6
CONTINUOUS
 62
     7
100
AcDbLine
 10
175.579167
 20
42.829049
 30
0.0
 11
172.156813
 21
42.829049
 31
0.0
  0
LINE
  5
1356
100
AcDbEntity
  8
90000_FRAME
370
    13
  6
CONTINUOUS
 62
     7
100
AcDbLine
 10
183.849855
 20
42.829049
 30
0.0
 11
180.427501
 21
42.829049
 31
0.0
  0
LINE
  5
1357
100
AcDbEntity
  8
90000_FRAME
370
    13
  6
CONTINUOUS
 62
     7
100
AcDbLine
 10
175.579167
 20
42.829049
 30
0.0
 11
178.050867
 21
37.03006
 31
0.0
  0
LINE
  5
1358
100
AcDbEntity
  8
90000_FRAME
370
    13
  6
CONTINUOUS
 62
     7
100
AcDbLine
 10
180.427501
 20
42.829049
 30
0.0
 11
178.050867
 21
37.03006
 31
0.0
  0
LINE
  5
1359
100
AcDbEntity
  8
90000_FRAME
370
    13
  6
CONTINUOUS
 62
     7
100
AcDbLine
 10
181.092959
 20
39.50176
 30
0.0
 11
181.092959
 21
33.322511
 31
0.0
  0
LINE
  5
135A
100
AcDbEntity
  8
90000_FRAME
370
    13
  6
CONTINUOUS
 62
     7
100
AcDbLine
 10
186.036359
 20
42.829049
 30
0.0
 11
186.036359
 21
33.322511
 31
0.0
  0
LINE
  5
135B
100
AcDbEntity
  8
90000_FRAME
370
    13
  6
CONTINUOUS
 62
     7
100
AcDbLine
 10
186.036359
 20
33.322511
 30
0.0
 11
193.166262
 21
33.322511
 31
0.0
  0
LINE
  5
135C
100
AcDbEntity
  8
90000_FRAME
370
    13
  6
CONTINUOUS
 62
     7
100
AcDbLine
 10
193.166262
 20
35.128753
 30
0.0
 11
188.793255
 21
35.128753
 31
0.0
  0
LINE
  5
135D
100
AcDbEntity
  8
90000_FRAME
370
    13
  6
CONTINUOUS
 62
     7
100
AcDbLine
 10
193.166262
 20
35.128753
 30
0.0
 11
193.166262
 21
33.322511
 31
0.0
  0
LINE
  5
135E
100
AcDbEntity
  8
90000_FRAME
370
    13
  6
CONTINUOUS
 62
     7
100
AcDbLine
 10
193.071197
 20
42.829049
 30
0.0
 11
186.036359
 21
42.829049
 31
0.0
  0
LINE
  5
135F
100
AcDbEntity
  8
90000_FRAME
370
    13
  6
CONTINUOUS
 62
     7
100
AcDbLine
 10
193.071197
 20
41.070339
 30
0.0
 11
188.793255
 21
41.070339
 31
0.0
  0
LINE
  5
1360
100
AcDbEntity
  8
90000_FRAME
370
    13
  6
CONTINUOUS
 62
     7
100
AcDbLine
 10
193.071197
 20
42.829049
 30
0.0
 11
193.071197
 21
41.070339
 31
0.0
  0
LINE
  5
1361
100
AcDbEntity
  8
90000_FRAME
370
    13
  6
CONTINUOUS
 62
     7
100
AcDbLine
 10
192.500805
 20
37.362789
 30
0.0
 11
188.793255
 21
37.362789
 31
0.0
  0
LINE
  5
1362
100
AcDbEntity
  8
90000_FRAME
370
    13
  6
CONTINUOUS
 62
     7
100
AcDbLine
 10
192.500805
 20
38.931368
 30
0.0
 11
192.500805
 21
37.362789
 31
0.0
  0
LINE
  5
1363
100
AcDbEntity
  8
90000_FRAME
370
    13
  6
CONTINUOUS
 62
     7
100
AcDbLine
 10
192.500805
 20
38.931368
 30
0.0
 11
188.793255
 21
38.931368
 31
0.0
  0
LINE
  5
1364
100
AcDbEntity
  8
90000_FRAME
370
    13
  6
CONTINUOUS
 62
     7
100
AcDbLine
 10
188.793255
 20
41.070339
 30
0.0
 11
188.793255
 21
38.931368
 31
0.0
  0
LINE
  5
1365
100
AcDbEntity
  8
90000_FRAME
370
    13
  6
CONTINUOUS
 62
     7
100
AcDbLine
 10
188.793255
 20
37.362789
 30
0.0
 11
188.793255
 21
35.128753
 31
0.0
  0
LINE
  5
1366
100
AcDbEntity
  8
90000_FRAME
370
    13
  6
CONTINUOUS
 62
     7
100
AcDbLine
 10
194.734841
 20
33.322511
 30
0.0
 11
194.734841
 21
42.829049
 31
0.0
  0
LINE
  5
1367
100
AcDbEntity
  8
90000_FRAME
370
    13
  6
CONTINUOUS
 62
     7
100
AcDbLine
 10
203.100595
 20
42.829049
 30
0.0
 11
203.100595
 21
33.322511
 31
0.0
  0
LINE
  5
1368
100
AcDbEntity
  8
90000_FRAME
370
    13
  6
CONTINUOUS
 62
     7
100
AcDbLine
 10
194.734841
 20
33.322511
 30
0.0
 11
196.636149
 21
33.322511
 31
0.0
  0
LINE
  5
1369
100
AcDbEntity
  8
90000_FRAME
370
    13
  6
CONTINUOUS
 62
     7
100
AcDbLine
 10
203.100595
 20
42.829049
 30
0.0
 11
201.199287
 21
42.829049
 31
0.0
  0
LINE
  5
136A
100
AcDbEntity
  8
90000_FRAME
370
    13
  6
CONTINUOUS
 62
     7
100
AcDbLine
 10
197.824466
 20
42.829049
 30
0.0
 11
194.734841
 21
42.829049
 31
0.0
  0
LINE
  5
136B
100
AcDbEntity
  8
90000_FRAME
370
    13
  6
CONTINUOUS
 62
     7
100
AcDbLine
 10
203.100595
 20
33.322511
 30
0.0
 11
200.058502
 21
33.322511
 31
0.0
  0
LINE
  5
136C
100
AcDbEntity
  8
90000_FRAME
370
    13
  6
CONTINUOUS
 62
     7
100
AcDbLine
 10
200.058502
 20
33.322511
 30
0.0
 11
196.636149
 21
39.406695
 31
0.0
  0
LINE
  5
136D
100
AcDbEntity
  8
90000_FRAME
370
    13
  6
CONTINUOUS
 62
     7
100
AcDbLine
 10
197.824466
 20
42.829049
 30
0.0
 11
201.199287
 21
36.934995
 31
0.0
  0
LINE
  5
136E
100
AcDbEntity
  8
90000_FRAME
370
    13
  6
CONTINUOUS
 62
     7
100
AcDbLine
 10
201.199287
 20
42.829049
 30
0.0
 11
201.199287
 21
36.934995
 31
0.0
  0
LINE
  5
136F
100
AcDbEntity
  8
90000_FRAME
370
    13
  6
CONTINUOUS
 62
     7
100
AcDbLine
 10
196.636149
 20
33.322511
 30
0.0
 11
196.636149
 21
39.406695
 31
0.0
  0
LINE
  5
1370
100
AcDbEntity
  8
90000_FRAME
370
    13
  6
CONTINUOUS
 62
     7
100
AcDbLine
 10
204.716706
 20
33.512641
 30
0.0
 11
204.716706
 21
35.413949
 31
0.0
  0
LINE
  5
1371
100
AcDbEntity
  8
90000_FRAME
370
    13
  6
CONTINUOUS
 62
     7
100
AcDbLine
 10
211.371283
 20
40.832676
 30
0.0
 11
211.371283
 21
42.733983
 31
0.0
  0
ARC
  5
1372
100
AcDbEntity
  8
90000_FRAME
370
    13
  6
CONTINUOUS
 62
     7
100
AcDbCircle
 10
208.125988
 20
37.236828
 30
0.0
 40
2.223239
100
AcDbArc
 50
277.709996
 51
295.688493
  0
ARC
  5
1373
100
AcDbEntity
  8
90000_FRAME
370
    13
  6
CONTINUOUS
 62
     7
100
AcDbCircle
 10
208.694608
 20
35.787176
 30
0.0
 40
0.680338
100
AcDbArc
 50
305.503221
 51
72.46529
  0
ARC
  5
1374
100
AcDbEntity
  8
90000_FRAME
370
    13
  6
CONTINUOUS
 62
     7
100
AcDbCircle
 10
207.562621
 20
42.59059
 30
0.0
 40
9.513589
100
AcDbArc
 50
252.59392
 51
280.98166
  0
ARC
  5
1375
100
AcDbEntity
  8
90000_FRAME
370
    13
  6
CONTINUOUS
 62
     7
100
AcDbCircle
 10
208.472291
 20
37.354562
 30
0.0
 40
4.201453
100
AcDbArc
 50
282.405836
 51
311.864443
  0
ARC
  5
1376
100
AcDbEntity
  8
90000_FRAME
370
    13
  6
CONTINUOUS
 62
     7
100
AcDbCircle
 10
207.925163
 20
40.571246
 30
0.0
 40
0.605925
100
AcDbArc
 50
154.440035
 51
221.82017
  0
ARC
  5
1377
100
AcDbEntity
  8
90000_FRAME
370
    13
  6
CONTINUOUS
 62
     7
100
AcDbCircle
 10
208.083605
 20
40.412804
 30
0.0
 40
0.820618
100
AcDbArc
 50
102.828783
 51
149.225964
  0
ARC
  5
1378
100
AcDbEntity
  8
90000_FRAME
370
    13
  6
CONTINUOUS
 62
     7
100
AcDbCircle
 10
208.917659
 20
36.928133
 30
0.0
 40
4.403673
100
AcDbArc
 50
84.040006
 51
103.342766
  0
ARC
  5
1379
100
AcDbEntity
  8
90000_FRAME
370
    13
  6
CONTINUOUS
 62
     7
100
AcDbCircle
 10
208.235731
 20
32.093405
 30
0.0
 40
9.284747
100
AcDbArc
 50
70.262586
 51
82.952419
  0
ARC
  5
137A
100
AcDbEntity
  8
90000_FRAME
370
    13
  6
CONTINUOUS
 62
     7
100
AcDbCircle
 10
207.207695
 20
41.436651
 30
0.0
 40
6.517512
100
AcDbArc
 50
247.530021
 51
280.757952
  0
ARC
  5
137B
100
AcDbEntity
  8
90000_FRAME
370
    13
  6
CONTINUOUS
 62
     7
100
AcDbCircle
 10
194.437762
 20
4.933611
 30
0.0
 40
34.663217
100
AcDbArc
 50
65.341467
 51
67.399777
  0
ARC
  5
137C
100
AcDbEntity
  8
90000_FRAME
370
    13
  6
CONTINUOUS
 62
     7
100
AcDbCircle
 10
216.029487
 20
56.518464
 30
0.0
 40
21.258328
100
AcDbArc
 50
242.86201
 51
247.104203
  0
ARC
  5
137D
100
AcDbEntity
  8
90000_FRAME
370
    13
  6
CONTINUOUS
 62
     7
100
AcDbCircle
 10
208.319684
 20
41.450601
 30
0.0
 40
4.332583
100
AcDbArc
 50
227.311928
 51
242.704032
  0
ARC
  5
137E
100
AcDbEntity
  8
90000_FRAME
370
    13
  6
CONTINUOUS
 62
     7
100
AcDbCircle
 10
207.111622
 20
40.039245
 30
0.0
 40
2.477043
100
AcDbArc
 50
194.795219
 51
225.717655
  0
ARC
  5
137F
100
AcDbEntity
  8
90000_FRAME
370
    13
  6
CONTINUOUS
 62
     7
100
AcDbCircle
 10
207.235939
 20
40.119685
 30
0.0
 40
2.618184
100
AcDbArc
 50
164.197486
 51
195.802514
  0
ARC
  5
1380
100
AcDbEntity
  8
90000_FRAME
370
    13
  6
CONTINUOUS
 62
     7
100
AcDbCircle
 10
208.349986
 20
38.343151
 30
0.0
 40
4.73385
100
AcDbArc
 50
86.221802
 51
120.42726
  0
ARC
  5
1381
100
AcDbEntity
  8
90000_FRAME
370
    13
  6
CONTINUOUS
 62
     7
100
AcDbCircle
 10
207.812273
 20
24.950815
 30
0.0
 40
18.13581
100
AcDbArc
 50
78.682705
 51
87.31476
  0
ARC
  5
1382
100
AcDbEntity
  8
90000_FRAME
370
    13
  6
CONTINUOUS
 62
     7
100
AcDbCircle
 10
206.900134
 20
40.334701
 30
0.0
 40
2.239495
100
AcDbArc
 50
142.813918
 51
167.152295
  0
ARC
  5
1383
100
AcDbEntity
  8
90000_FRAME
370
    13
  6
CONTINUOUS
 62
     7
100
AcDbCircle
 10
207.590753
 20
39.721537
 30
0.0
 40
3.161093
100
AcDbArc
 50
121.214095
 51
141.525477
  0
ARC
  5
1384
100
AcDbEntity
  8
90000_FRAME
370
    13
  6
CONTINUOUS
 62
     7
100
AcDbCircle
 10
208.745102
 20
41.343652
 30
0.0
 40
1.732255
100
AcDbArc
 50
222.776039
 51
239.036243
  0
ARC
  5
1385
100
AcDbEntity
  8
90000_FRAME
370
    13
  6
CONTINUOUS
 62
     7
100
AcDbCircle
 10
203.731682
 20
26.683108
 30
0.0
 40
13.717547
100
AcDbArc
 50
59.902027
 51
68.203648
  0
ARC
  5
1386
100
AcDbEntity
  8
90000_FRAME
370
    13
  6
CONTINUOUS
 62
     7
100
AcDbCircle
 10
210.548671
 20
44.534881
 30
0.0
 40
5.397482
100
AcDbArc
 50
240.0482
 51
251.377967
  0
ARC
  5
1387
100
AcDbEntity
  8
90000_FRAME
370
    13
  6
CONTINUOUS
 62
     7
100
AcDbCircle
 10
209.217757
 20
36.221084
 30
0.0
 40
2.866895
100
AcDbArc
 50
315.890455
 51
333.522926
  0
ARC
  5
1388
100
AcDbEntity
  8
90000_FRAME
370
    13
  6
CONTINUOUS
 62
     7
100
AcDbCircle
 10
209.227034
 20
36.114269
 30
0.0
 40
2.812457
100
AcDbArc
 50
335.386797
 51
24.391512
  0
ARC
  5
1389
100
AcDbEntity
  8
90000_FRAME
370
    13
  6
CONTINUOUS
 62
     7
100
AcDbCircle
 10
209.082624
 20
35.958556
 30
0.0
 40
3.009405
100
AcDbArc
 50
25.956292
 51
59.483483
  0
LINE
  5
138A
100
AcDbEntity
  8
90000_FRAME
370
    13
  6
CONTINUOUS
 62
     7
100
AcDbLine
 10
149.531252
 20
33.512641
 30
0.0
 11
149.531252
 21
35.413949
 31
0.0
  0
LINE
  5
138B
100
AcDbEntity
  8
90000_FRAME
370
    13
  6
CONTINUOUS
 62
     7
100
AcDbLine
 10
156.185829
 20
40.832676
 30
0.0
 11
156.185829
 21
42.733983
 31
0.0
  0
ARC
  5
138C
100
AcDbEntity
  8
90000_FRAME
370
    13
  6
CONTINUOUS
 62
     7
100
AcDbCircle
 10
152.940534
 20
37.236828
 30
0.0
 40
2.223239
100
AcDbArc
 50
277.709996
 51
295.688493
  0
ARC
  5
138D
100
AcDbEntity
  8
90000_FRAME
370
    13
  6
CONTINUOUS
 62
     7
100
AcDbCircle
 10
153.509154
 20
35.787176
 30
0.0
 40
0.680338
100
AcDbArc
 50
305.503221
 51
72.46529
  0
ARC
  5
138E
100
AcDbEntity
  8
90000_FRAME
370
    13
  6
CONTINUOUS
 62
     7
100
AcDbCircle
 10
152.377167
 20
42.59059
 30
0.0
 40
9.513589
100
AcDbArc
 50
252.59392
 51
280.98166
  0
ARC
  5
138F
100
AcDbEntity
  8
90000_FRAME
370
    13
  6
CONTINUOUS
 62
     7
100
AcDbCircle
 10
153.286837
 20
37.354562
 30
0.0
 40
4.201453
100
AcDbArc
 50
282.405836
 51
311.864443
  0
ARC
  5
1390
100
AcDbEntity
  8
90000_FRAME
370
    13
  6
CONTINUOUS
 62
     7
100
AcDbCircle
 10
152.739709
 20
40.571246
 30
0.0
 40
0.605925
100
AcDbArc
 50
154.440035
 51
221.82017
  0
ARC
  5
1391
100
AcDbEntity
  8
90000_FRAME
370
    13
  6
CONTINUOUS
 62
     7
100
AcDbCircle
 10
152.898151
 20
40.412804
 30
0.0
 40
0.820618
100
AcDbArc
 50
102.828783
 51
149.225964
  0
ARC
  5
1392
100
AcDbEntity
  8
90000_FRAME
370
    13
  6
CONTINUOUS
 62
     7
100
AcDbCircle
 10
153.732205
 20
36.928133
 30
0.0
 40
4.403673
100
AcDbArc
 50
84.040006
 51
103.342766
  0
ARC
  5
1393
100
AcDbEntity
  8
90000_FRAME
370
    13
  6
CONTINUOUS
 62
     7
100
AcDbCircle
 10
153.050277
 20
32.093405
 30
0.0
 40
9.284747
100
AcDbArc
 50
70.262586
 51
82.952419
  0
ARC
  5
1394
100
AcDbEntity
  8
90000_FRAME
370
    13
  6
CONTINUOUS
 62
     7
100
AcDbCircle
 10
152.022241
 20
41.436651
 30
0.0
 40
6.517512
100
AcDbArc
 50
247.530021
 51
280.757952
  0
ARC
  5
1395
100
AcDbEntity
  8
90000_FRAME
370
    13
  6
CONTINUOUS
 62
     7
100
AcDbCircle
 10
139.252308
 20
4.933611
 30
0.0
 40
34.663217
100
AcDbArc
 50
65.341467
 51
67.399777
  0
ARC
  5
1396
100
AcDbEntity
  8
90000_FRAME
370
    13
  6
CONTINUOUS
 62
     7
100
AcDbCircle
 10
160.844032
 20
56.518464
 30
0.0
 40
21.258328
100
AcDbArc
 50
242.86201
 51
247.104203
  0
ARC
  5
1397
100
AcDbEntity
  8
90000_FRAME
370
    13
  6
CONTINUOUS
 62
     7
100
AcDbCircle
 10
153.13423
 20
41.450601
 30
0.0
 40
4.332583
100
AcDbArc
 50
227.311928
 51
242.704032
  0
ARC
  5
1398
100
AcDbEntity
  8
90000_FRAME
370
    13
  6
CONTINUOUS
 62
     7
100
AcDbCircle
 10
151.926168
 20
40.039245
 30
0.0
 40
2.477043
100
AcDbArc
 50
194.795219
 51
225.717655
  0
ARC
  5
1399
100
AcDbEntity
  8
90000_FRAME
370
    13
  6
CONTINUOUS
 62
     7
100
AcDbCircle
 10
153.164532
 20
38.343151
 30
0.0
 40
4.73385
100
AcDbArc
 50
86.221802
 51
120.42726
  0
ARC
  5
139A
100
AcDbEntity
  8
90000_FRAME
370
    13
  6
CONTINUOUS
 62
     7
100
AcDbCircle
 10
152.626819
 20
24.950815
 30
0.0
 40
18.13581
100
AcDbArc
 50
78.682705
 51
87.31476
  0
ARC
  5
139B
100
AcDbEntity
  8
90000_FRAME
370
    13
  6
CONTINUOUS
 62
     7
100
AcDbCircle
 10
152.405299
 20
39.721537
 30
0.0
 40
3.161093
100
AcDbArc
 50
121.214095
 51
141.525477
  0
ARC
  5
139C
100
AcDbEntity
  8
90000_FRAME
370
    13
  6
CONTINUOUS
 62
     7
100
AcDbCircle
 10
153.559648
 20
41.343652
 30
0.0
 40
1.732255
100
AcDbArc
 50
222.776039
 51
239.036243
  0
ARC
  5
139D
100
AcDbEntity
  8
90000_FRAME
370
    13
  6
CONTINUOUS
 62
     7
100
AcDbCircle
 10
148.546228
 20
26.683108
 30
0.0
 40
13.717547
100
AcDbArc
 50
59.902027
 51
68.203648
  0
ARC
  5
139E
100
AcDbEntity
  8
90000_FRAME
370
    13
  6
CONTINUOUS
 62
     7
100
AcDbCircle
 10
155.363217
 20
44.534881
 30
0.0
 40
5.397482
100
AcDbArc
 50
240.0482
 51
251.377967
  0
ARC
  5
139F
100
AcDbEntity
  8
90000_FRAME
370
    13
  6
CONTINUOUS
 62
     7
100
AcDbCircle
 10
154.032303
 20
36.221084
 30
0.0
 40
2.866895
100
AcDbArc
 50
315.890455
 51
333.522926
  0
ARC
  5
13A0
100
AcDbEntity
  8
90000_FRAME
370
    13
  6
CONTINUOUS
 62
     7
100
AcDbCircle
 10
154.04158
 20
36.114269
 30
0.0
 40
2.812457
100
AcDbArc
 50
335.386797
 51
24.391512
  0
ARC
  5
13A1
100
AcDbEntity
  8
90000_FRAME
370
    13
  6
CONTINUOUS
 62
     7
100
AcDbCircle
 10
153.89717
 20
35.958556
 30
0.0
 40
3.009405
100
AcDbArc
 50
25.956292
 51
59.483483
  0
LINE
  5
13A2
100
AcDbEntity
  8
90000_FRAME
370
    13
  6
CONTINUOUS
 62
     7
100
AcDbLine
 10
149.914909
 20
41.667438
 30
0.0
 11
150.463041
 21
42.215584
 31
0.0
  0
ARC
  5
13A3
100
AcDbEntity
  8
90000_FRAME
370
    13
  6
CONTINUOUS
 62
     7
100
AcDbCircle
 10
152.050485
 20
40.119685
 30
0.0
 40
2.618184
100
AcDbArc
 50
164.197486
 51
195.802514
  0
ARC
  5
13A4
100
AcDbEntity
  8
90000_FRAME
370
    13
  6
CONTINUOUS
 62
     7
100
AcDbCircle
 10
151.71468
 20
40.334701
 30
0.0
 40
2.239495
100
AcDbArc
 50
142.813918
 51
167.152295
  0
LINE
  5
13A5
100
AcDbEntity
  8
90000_FRAME
370
    13
  6
CONTINUOUS
 62
     7
100
AcDbLine
 10
409.999932
 20
583.999953
 30
0.0
 11
9.999932
 21
583.999953
 31
0.0
  0
LINE
  5
13A6
100
AcDbEntity
  8
90000_FRAME
370
    13
  6
CONTINUOUS
 62
     7
100
AcDbLine
 10
419.999932
 20
593.999953
 30
0.0
 11
-0.000068
 21
593.999953
 31
0.0
  0
LINE
  5
13A7
100
AcDbEntity
  8
90000_FRAME
370
    13
  6
CONTINUOUS
 62
     7
100
AcDbLine
 10
419.999932
 20
-0.000047
 30
0.0
 11
-0.000068
 21
-0.000047
 31
0.0
  0
LINE
  5
13A8
100
AcDbEntity
  8
90000_FRAME
370
    13
  6
CONTINUOUS
 62
     7
100
AcDbLine
 10
-0.000068
 20
-0.000047
 30
0.0
 11
-0.000068
 21
593.999953
 31
0.0
  0
LINE
  5
13A9
100
AcDbEntity
  8
90000_FRAME
370
    13
  6
CONTINUOUS
 62
     7
100
AcDbLine
 10
419.999932
 20
-0.000047
 30
0.0
 11
419.999932
 21
593.999953
 31
0.0
  0
ENDSEC
  0
SECTION
  2
OBJECTS
  0
DICTIONARY
  5
10CF
100
AcDbDictionary
280
     0
281
     1
  3
ACAD_GROUP
350
10D0
  3
ACAD_MLINESTYLE
350
10D1
  0
DICTIONARY
  5
10D0
102
{ACAD_REACTORS
330
10CF
102
}
100
AcDbDictionary
280
     0
281
     1
  0
DICTIONARY
  5
10D1
102
{ACAD_REACTORS
330
10CF
102
}
100
AcDbDictionary
280
     0
281
     1
  3
Standard
350
10D2
  0
MLINESTYLE
  5
10D2
102
{ACAD_REACTORS
330
10D1
102
}
100
AcDbMlineStyle
  2
Standard
 70
     0
  3

 62
     0
 51
90.0
 52
90.0
 71
     2
 49
0.5
 62
   256
  6
ByLayer
 49
-0.5
 62
   256
  6
ByLayer
  0
ENDSEC
  0
EOF
