  0
SECTION
  2
HEADER
  9
$ACADVER
  1
AC1015
  9
$ACADMAINTVER
 70
     6
  9
$DWGCODEPAGE
  3
ANSI_1252
  9
$INSBASE
 10
0.0
 20
0.0
 30
0.0
  9
$EXTMIN
 10
69.395417
 20
287.976483
 30
-1.0
  9
$EXTMAX
 10
1026.514554
 20
492.804657
 30
0.7
  9
$LIMMIN
 10
0.0
 20
0.0
  9
$LIMMAX
 10
12.0
 20
9.0
  9
$ORTHOMODE
 70
     0
  9
$REGENMODE
 70
     1
  9
$FILLMODE
 70
     1
  9
$QTEXTMODE
 70
     0
  9
$MIRRTEXT
 70
     0
  9
$LTSCALE
 40
5.0
  9
$ATTMODE
 70
     1
  9
$TEXTSIZE
 40
0.2
  9
$TRACEWID
 40
0.05
  9
$TEXTSTYLE
  7
STANDARD
  9
$CLAYER
  8
0
  9
$CELTYPE
  6
ByLayer
  9
$CECOLOR
 62
   256
  9
$CELTSCALE
 40
1.0
  9
$DISPSILH
 70
     0
  9
$DIMSCALE
 40
1.0
  9
$DIMASZ
 40
0.18
  9
$DIMEXO
 40
0.0625
  9
$DIMDLI
 40
0.38
  9
$DIMRND
 40
0.0
  9
$DIMDLE
 40
0.0
  9
$DIMEXE
 40
0.18
  9
$DIMTP
 40
0.0
  9
$DIMTM
 40
0.0
  9
$DIMTXT
 40
0.18
  9
$DIMCEN
 40
0.09
  9
$DIMTSZ
 40
0.0
  9
$DIMTOL
 70
     0
  9
$DIMLIM
 70
     0
  9
$DIMTIH
 70
     1
  9
$DIMTOH
 70
     1
  9
$DIMSE1
 70
     0
  9
$DIMSE2
 70
     0
  9
$DIMTAD
 70
     0
  9
$DIMZIN
 70
     0
  9
$DIMBLK
  1

  9
$DIMASO
 70
     1
  9
$DIMSHO
 70
     1
  9
$DIMPOST
  1

  9
$DIMAPOST
  1

  9
$DIMALT
 70
     0
  9
$DIMALTD
 70
     2
  9
$DIMALTF
 40
25.4
  9
$DIMLFAC
 40
1.0
  9
$DIMTOFL
 70
     0
  9
$DIMTVP
 40
0.0
  9
$DIMTIX
 70
     0
  9
$DIMSOXD
 70
     0
  9
$DIMSAH
 70
     0
  9
$DIMBLK1
  1

  9
$DIMBLK2
  1

  9
$DIMSTYLE
  2
STANDARD
  9
$DIMCLRD
 70
     0
  9
$DIMCLRE
 70
     0
  9
$DIMCLRT
 70
     0
  9
$DIMTFAC
 40
1.0
  9
$DIMGAP
 40
0.09
  9
$DIMJUST
 70
     0
  9
$DIMSD1
 70
     0
  9
$DIMSD2
 70
     0
  9
$DIMTOLJ
 70
     1
  9
$DIMTZIN
 70
     0
  9
$DIMALTZ
 70
     0
  9
$DIMALTTZ
 70
     0
  9
$DIMUPT
 70
     0
  9
$DIMDEC
 70
     4
  9
$DIMTDEC
 70
     4
  9
$DIMALTU
 70
     2
  9
$DIMALTTD
 70
     2
  9
$DIMTXSTY
  7
STANDARD
  9
$DIMAUNIT
 70
     0
  9
$DIMADEC
 70
     0
  9
$DIMALTRND
 40
0.0
  9
$DIMAZIN
 70
     0
  9
$DIMDSEP
 70
     0
  9
$DIMATFIT
 70
     3
  9
$DIMFRAC
 70
     0
  9
$DIMLDRBLK
  1

  9
$DIMLUNIT
 70
     2
  9
$DIMLWD
 70
     0
  9
$DIMLWE
 70
     0
  9
$DIMTMOVE
 70
     0
  9
$LUNITS
 70
     2
  9
$LUPREC
 70
     4
  9
$SKETCHINC
 40
0.1
  9
$FILLETRAD
 40
0.0
  9
$AUNITS
 70
     0
  9
$AUPREC
 70
     0
  9
$MENU
  1
.
  9
$ELEVATION
 40
0.0
  9
$PELEVATION
 40
0.0
  9
$THICKNESS
 40
0.0
  9
$LIMCHECK
 70
     0
  9
$CHAMFERA
 40
0.0
  9
$CHAMFERB
 40
0.0
  9
$CHAMFERC
 40
0.0
  9
$CHAMFERD
 40
0.0
  9
$SKPOLY
 70
     0
  9
$TDCREATE
 40
2453353.758792454
  9
$TDUCREATE
 40
0.000000000
  9
$TDUPDATE
 40
0.000000000
  9
$TDUUPDATE
 40
2447892.958333334
  9
$TDINDWG
 40
78332576.0667047050
  9
$TDUSRTIMER
 40
0.0000000000
  9
$USRTIMER
 70
     1
  9
$ANGBASE
 50
0.0
  9
$ANGDIR
 70
     0
  9
$PDMODE
 70
     0
  9
$PDSIZE
 40
0.0
  9
$PLINEWID
 40
0.0
  9
$SPLFRAME
 70
     0
  9
$SPLINETYPE
 70
     6
  9
$SPLINESEGS
 70
     8
  9
$HANDSEED
  5
1346
  9
$SURFTAB1
 70
     6
  9
$SURFTAB2
 70
     6
  9
$SURFTYPE
 70
     6
  9
$SURFU
 70
     6
  9
$SURFV
 70
     6
  9
$UCSBASE
  2

  9
$UCSNAME
  2

  9
$UCSORG
 10
0.0
 20
0.0
 30
0.0
  9
$UCSXDIR
 10
1.0
 20
0.0
 30
0.0
  9
$UCSYDIR
 10
0.0
 20
1.0
 30
0.0
  9
$UCSORTHOREF
  2

  9
$UCSORTHOVIEW
 70
     0
  9
$UCSORGTOP
 10
0.0
 20
0.0
 30
0.0
  9
$UCSORGBOTTOM
 10
0.0
 20
0.0
 30
0.0
  9
$UCSORGLEFT
 10
0.0
 20
0.0
 30
0.0
  9
$UCSORGRIGHT
 10
0.0
 20
0.0
 30
0.0
  9
$UCSORGFRONT
 10
0.0
 20
0.0
 30
0.0
  9
$UCSORGBACK
 10
0.0
 20
0.0
 30
0.0
  9
$PUCSBASE
  2

  9
$PUCSNAME
  2

  9
$PUCSORG
 10
0.0
 20
0.0
 30
0.0
  9
$PUCSXDIR
 10
1.0
 20
0.0
 30
0.0
  9
$PUCSYDIR
 10
0.0
 20
1.0
 30
0.0
  9
$PUCSORTHOREF
  2

  9
$PUCSORTHOVIEW
 70
     0
  9
$PUCSORGTOP
 10
0.0
 20
0.0
 30
0.0
  9
$PUCSORGBOTTOM
 10
0.0
 20
0.0
 30
0.0
  9
$PUCSORGLEFT
 10
0.0
 20
0.0
 30
0.0
  9
$PUCSORGRIGHT
 10
0.0
 20
0.0
 30
0.0
  9
$PUCSORGFRONT
 10
0.0
 20
0.0
 30
0.0
  9
$PUCSORGBACK
 10
0.0
 20
0.0
 30
0.0
  9
$USERI1
 70
     0
  9
$USERI2
 70
     0
  9
$USERI3
 70
     0
  9
$USERI4
 70
     0
  9
$USERI5
 70
     0
  9
$USERR1
 40
0.0
  9
$USERR2
 40
0.0
  9
$USERR3
 40
0.0
  9
$USERR4
 40
0.0
  9
$USERR5
 40
0.0
  9
$WORLDVIEW
 70
     1
  9
$SHADEDGE
 70
     3
  9
$SHADEDIF
 70
    70
  9
$TILEMODE
 70
     1
  9
$MAXACTVP
 70
    64
  9
$PINSBASE
 10
0.0
 20
0.0
 30
0.0
  9
$PLIMCHECK
 70
     0
  9
$PEXTMIN
 10
0.0
 20
0.0
 30
0.0
  9
$PEXTMAX
 10
0.0
 20
0.0
 30
0.0
  9
$PLIMMIN
 10
0.0
 20
0.0
  9
$PLIMMAX
 10
0.0
 20
0.0
  9
$UNITMODE
 70
     0
  9
$VISRETAIN
 70
     1
  9
$PLINEGEN
 70
     0
  9
$PSLTSCALE
 70
     1
  9
$TREEDEPTH
 70
  3020
  9
$CMLSTYLE
  2
Standard
  9
$CMLJUST
 70
     0
  9
$CMLSCALE
 40
1.0
  9
$PROXYGRAPHICS
 70
     0
  9
$MEASUREMENT
 70
     0
  9
$CELWEIGHT
370
     0
  9
$ENDCAPS
280
     0
  9
$JOINSTYLE
280
     0
  9
$LWDISPLAY
290
     0
  9
$INSUNITS
 70
     0
  9
$HYPERLINKBASE
  1

  9
$STYLESHEET
  1

  9
$XEDIT
290
     1
  9
$CEPSNTYPE
380
     0
  9
$PSTYLEMODE
290
     1
  9
$FINGERPRINTGUID
  2

  9
$VERSIONGUID
  2

  9
$EXTNAMES
290
     1
  9
$PSVPSCALE
 40
0.0
  0
ENDSEC
  0
SECTION
  2
CLASSES
  0
CLASS
  1
LWPOLYLINE
  2
AcDbPolyline
  3
AutoCAD 2000
 90
        0
280
     0
281
     1
  0
CLASS
  1
IMAGE
  2
AcDbRasterImage
  3
ISM
 90
      127
280
     0
281
     1
  0
CLASS
  1
OLE2FRAME
  2
AcDbOle2Frame
  3
AutoCAD 2000
 90
        0
280
     0
281
     1
  0
CLASS
  1
HATCH
  2
AcDbHatch
  3
AutoCAD 2000
 90
        0
280
     0
281
     1
  0
CLASS
  1
DICTIONARYVAR
  2
AcDbDictionaryVar
  3
AutoCAD 2000
 90
        0
280
     0
281
     0
  0
CLASS
  1
RASTERVARIABLES
  2
AcDbRasterVariables
  3
ISM
 90
        0
280
     0
281
     0
  0
CLASS
  1
IMAGEDEF
  2
AcDbRasterImageDef
  3
ISM
 90
        0
280
     0
281
     0
  0
CLASS
  1
IMAGEDEF_REACTOR
  2
AcDbRasterImageDefReactor
  3
ISM
 90
        1
280
     0
281
     0
  0
CLASS
  1
IDBUFFER
  2
AcDbIdBuffer
  3
AutoCAD 2000
 90
        0
280
     0
281
     0
  0
CLASS
  1
SPATIAL_FILTER
  2
AcDbSpatialFilter
  3
AutoCAD 2000
 90
        0
280
     0
281
     0
  0
CLASS
  1
XRECORD
  2
AcDbXrecord
  3
AutoCAD 2000
 90
        0
280
     0
281
     0
  0
CLASS
  1
SORTENTSTABLE
  2
AcDbSortentsTable
  3
AutoCAD 2000
 90
        0
280
     0
281
     0
  0
CLASS
  1
LAYER_INDEX
  2
AcDbLayerIndex
  3
AutoCAD 2000
 90
        0
280
     0
281
     0
  0
CLASS
  1
SPATIAL_INDEX
  2
AcDbSpatialIndex
  3
AutoCAD 2000
 90
        0
280
     0
281
     0
  0
CLASS
  1
OBJECT_PTR
  2
CAseDLPNTableRecord
  3
"ASE-LPNTableRecord"
 90
        1
280
     0
281
     0
  0
CLASS
  1
LAYOUT
  2
AcDbLayout
  3
AutoCAD 2000
 90
        0
280
     0
281
     0
  0
CLASS
  1
PLOTSETTINGS
  2
AcDbPlotSettings
  3
AutoCAD 2000
 90
        0
280
     0
281
     0
  0
CLASS
  1
ACDBDICTIONARYWDFLT
  2
AcDbDictionaryWithDefault
  3
AutoCAD 2000
 90
        0
280
     0
281
     0
  0
CLASS
  1
ACDBPLACEHOLDER
  2
AcDbPlaceHolder
  3
AutoCAD 2000
 90
        0
280
     0
281
     0
  0
CLASS
  1
VBA_PROJECT
  2
AcDbVbaProject
  3
acadvba
 90
        0
280
     0
281
     0
  0
CLASS
  1
WIPEOUT
  2
AcDbWipeout
  3
WipeOut|AutoCAD Express Tool|expresstools@autodesk.com
 90
      127
280
     0
281
     1
  0
CLASS
  1
WIPEOUTVARIABLES
  2
AcDbWipeoutVariables
  3
WipeOut|AutoCAD Express Tool|expresstools@autodesk.com
 90
        0
280
     0
281
     0
  0
CLASS
  1
RTEXT
  2
RText
  3
RText|AutoCAD Express Tool|expresstools@autodesk.com
 90
        0
280
     0
281
     1
  0
CLASS
  1
ARCALIGNEDTEXT
  2
AcDbArcAlignedText
  3
ATEXT|AutoCAD Express Tool|expresstools@autodesk.com
 90
        0
280
     0
281
     1
  0
ENDSEC
  0
SECTION
  2
TABLES
  0
TABLE
  2
VPORT
  5
1094
100
AcDbSymbolTable
 70
     1
  0
VPORT
  5
10BB
100
AcDbSymbolTableRecord
100
AcDbViewportTableRecord
  2
*ACTIVE
 70
     0
 10
0.0
 20
0.0
 11
1.0
 21
1.0
 12
450.328833
 22
266.374849
 13
0.0
 23
0.0
 14
0.5
 24
0.5
 15
0.5
 25
0.5
 16
0.0
 26
0.0
 36
1.0
 17
0.0
 27
0.0
 37
0.0
 40
620.078606
 41
1.701534
 42
50.0
 43
0.0
 44
0.0
 50
0.0
 51
0.0
 71
    16
 72
  1000
 73
     1
 74
     3
 75
     0
 76
     0
 77
     0
 78
     0
281
     0
 65
     0
110
0.0
120
0.0
130
0.0
111
1.0
121
0.0
131
0.0
112
0.0
122
1.0
132
0.0
345
0
346
0
 79
     0
146
0.0
  0
ENDTAB
  0
TABLE
  2
LTYPE
  5
1091
100
AcDbSymbolTable
 70
     6
  0
LTYPE
  5
109A
100
AcDbSymbolTableRecord
100
AcDbLinetypeTableRecord
  2
ByBlock
 70
    64
  3

 72
    65
 73
     0
 40
0.0
  0
LTYPE
  5
109B
100
AcDbSymbolTableRecord
100
AcDbLinetypeTableRecord
  2
ByLayer
 70
    64
  3

 72
    65
 73
     0
 40
0.0
  0
LTYPE
  5
109C
100
AcDbSymbolTableRecord
100
AcDbLinetypeTableRecord
  2
CONTINUOUS
 70
     0
  3
Solid line
 72
    65
 73
     0
 40
0.0
  0
LTYPE
  5
109D
100
AcDbSymbolTableRecord
100
AcDbLinetypeTableRecord
  2
CENTER
 70
     0
  3
____ _ ____ _ ____ _ ____ _ ____ _ ____ _ ____
 72
    65
 73
     4
 40
0.6
 49
0.375
 74
     0
 49
-0.075
 74
     0
 49
0.075
 74
     0
 49
-0.075
 74
     0
  0
LTYPE
  5
109E
100
AcDbSymbolTableRecord
100
AcDbLinetypeTableRecord
  2
ACAD_ISO02W100
 70
     0
  3
ISO Strichlinie __ __ __ __ __ __ __ __ __ __ _
 72
    65
 73
     2
 40
15.0
 49
12.0
 74
     0
 49
-3.0
 74
     0
  0
LTYPE
  5
109F
100
AcDbSymbolTableRecord
100
AcDbLinetypeTableRecord
  2
DASHED
 70
     0
  3
_ _ _ _ _ _ _ _ _ _ _ _ _ _ _ _ _ _ _ _ _ _ _ _
 72
    65
 73
     2
 40
0.375
 49
0.25
 74
     0
 49
-0.125
 74
     0
  0
ENDTAB
  0
TABLE
  2
LAYER
  5
108F
100
AcDbSymbolTable
 70
     6
  0
LAYER
  5
10A0
100
AcDbSymbolTableRecord
100
AcDbLayerTableRecord
  2
0
 70
     0
 62
     7
  6
CONTINUOUS
290
     1
370
    -3
390
0
  0
LAYER
  5
10A1
100
AcDbSymbolTableRecord
100
AcDbLayerTableRecord
  2
90000_FRAME
 70
     0
 62
     7
  6
CONTINUOUS
290
     1
370
    -3
390
0
  0
LAYER
  5
10A2
100
AcDbSymbolTableRecord
100
AcDbLayerTableRecord
  2
91000_TIP
 70
     0
 62
     7
  6
CONTINUOUS
290
     1
370
    -3
390
0
  0
LAYER
  5
10A3
100
AcDbSymbolTableRecord
100
AcDbLayerTableRecord
  2
10000_FRONT
 70
     0
 62
     7
  6
CONTINUOUS
290
     1
370
    -3
390
0
  0
LAYER
  5
10A7
100
AcDbSymbolTableRecord
100
AcDbLayerTableRecord
  2
DEFPOINTS
 70
     0
 62
     7
  6
CONTINUOUS
290
     0
370
    -3
390
0
  0
LAYER
  5
10A8
100
AcDbSymbolTableRecord
100
AcDbLayerTableRecord
  2
10100_FRONT_DIM
 70
     0
 62
     7
  6
CONTINUOUS
290
     1
370
    -3
390
0
  0
ENDTAB
  0
TABLE
  2
STYLE
  5
1090
100
AcDbSymbolTable
 70
     2
  0
STYLE
  5
10C0
100
AcDbSymbolTableRecord
100
AcDbTextStyleTableRecord
  2
STANDARD
 70
     0
 40
0.0
 41
1.0
 50
0.0
 71
     0
 42
0.2
  3
txt.shx
  4

  0
STYLE
  5
12C9
100
AcDbSymbolTableRecord
100
AcDbTextStyleTableRecord
  2
TFONT1
 70
     0
 40
0.0
 41
1.0
 50
0.0
 71
     0
 42
0.2
  3
TXT.SHX
  4

  0
ENDTAB
  0
TABLE
  2
VIEW
  5
1092
100
AcDbSymbolTable
 70
     0
  0
ENDTAB
  0
TABLE
  2
UCS
  5
1093
100
AcDbSymbolTable
 70
     0
  0
ENDTAB
  0
TABLE
  2
APPID
  5
1095
100
AcDbSymbolTable
 70
     4
  0
APPID
  5
10BC
100
AcDbSymbolTableRecord
100
AcDbRegAppTableRecord
  2
ACAD
 70
     0
  0
APPID
  5
10BD
100
AcDbSymbolTableRecord
100
AcDbRegAppTableRecord
  2
AUSTER_ANSICHT
 70
     0
  0
APPID
  5
10BE
100
AcDbSymbolTableRecord
100
AcDbRegAppTableRecord
  2
AUSTER_FOLIE
 70
     0
  0
APPID
  5
10BF
100
AcDbSymbolTableRecord
100
AcDbRegAppTableRecord
  2
ACAECLAYERSTANDARD
 70
     0
  0
ENDTAB
  0
TABLE
  2
DIMSTYLE
  5
1096
100
AcDbSymbolTable
 70
     3
100
AcDbDimStyleTable
 71
     0
  0
DIMSTYLE
105
10CA
100
AcDbSymbolTableRecord
100
AcDbDimStyleTableRecord
  2
STANDARD
 70
     0
  3

  4

 40
1.0
 41
0.18
 42
0.0625
 43
0.38
 44
0.18
 45
0.0
 46
0.0
 47
0.0
 48
0.0
 71
     0
 72
     0
 73
     1
 74
     1
 75
     0
 76
     0
 77
     0
 78
     0
 79
     0
140
0.18
141
0.09
142
0.0
143
25.4
144
1.0
145
0.0
146
1.0
147
0.09
148
0.0
170
     0
171
     2
172
     0
173
     0
174
     0
175
     0
176
     0
177
     0
178
     0
179
     0
271
     4
272
     4
273
     2
274
     2
275
     0
276
     0
277
     2
278
    46
279
     0
280
     0
281
     0
282
     0
283
     1
284
     0
285
     0
286
     0
288
     0
289
     3
340
10C0
341
0
342
0
343
0
344
0
371
    -2
372
    -2
  0
DIMSTYLE
105
10CB
100
AcDbSymbolTableRecord
100
AcDbDimStyleTableRecord
  2
DSTYLE1
 70
     0
  3

  4

 40
1.0
 41
3.0
 42
0.0
 43
0.38
 44
1.0
 45
0.0
 46
0.0
 47
0.0
 48
0.0
 71
     0
 72
     0
 73
     0
 74
     0
 75
     0
 76
     0
 77
     1
 78
     3
 79
     0
140
2.5
141
0.09
142
0.0
143
0.03937
144
1.0
145
0.0
146
1.0
147
1.0
148
0.0
170
     0
171
     2
172
     0
173
     0
174
     0
175
     0
176
     0
177
     0
178
     0
179
     0
271
     4
272
     4
273
     2
274
     2
275
     0
276
     0
277
     2
278
    46
279
     0
280
     0
281
     0
282
     0
283
     1
284
     0
285
     0
286
     0
288
     0
289
     3
340
10C0
341
0
342
0
343
0
344
0
371
    -2
372
    -2
  0
DIMSTYLE
105
10CC
100
AcDbSymbolTableRecord
100
AcDbDimStyleTableRecord
  2
H035
 70
     0
  3

  4

 40
0.0
 41
3.5
 42
0.0
 43
3.75
 44
2.0
 45
0.0
 46
0.0
 47
0.0
 48
0.0
 71
     0
 72
     0
 73
     0
 74
     0
 75
     0
 76
     0
 77
     1
 78
     8
 79
     0
140
3.5
141
2.5
142
0.0
143
0.039
144
1.0
145
0.0
146
1.0
147
0.5
148
0.0
170
     0
171
     4
172
     1
173
     0
174
     0
175
     0
176
   256
177
     7
178
     7
179
     0
271
     4
272
     4
273
     2
274
     2
275
     0
276
     0
277
     2
278
    46
279
     0
280
     0
281
     0
282
     0
283
     1
284
     0
285
     0
286
     0
288
     0
289
     3
340
10C0
341
0
342
0
343
0
344
0
371
    -2
372
    -2
  0
ENDTAB
  0
TABLE
  2
BLOCK_RECORD
  5
10C5
100
AcDbSymbolTable
 70
     2
  0
BLOCK_RECORD
  5
10C3
100
AcDbSymbolTableRecord
100
AcDbBlockTableRecord
  2
*Model_Space
340
0
  0
BLOCK_RECORD
  5
10C4
100
AcDbSymbolTableRecord
100
AcDbBlockTableRecord
  2
*Paper_Space
340
0
  0
BLOCK_RECORD
  5
10C1
100
AcDbSymbolTableRecord
100
AcDbBlockTableRecord
  2
$MODEL_SPACE
340
0
  0
BLOCK_RECORD
  5
10C2
100
AcDbSymbolTableRecord
100
AcDbBlockTableRecord
  2
$PAPER_SPACE
340
0
  0
ENDTAB
  0
ENDSEC
  0
SECTION
  2
BLOCKS
  0
BLOCK
  5
10C6
100
AcDbEntity
  8
0
390
0
100
AcDbBlockBegin
  2
*Model_Space
 70
     0
 10
0.0
 20
0.0
 30
0.0
  3
*Model_Space
  1

  0
ENDBLK
  5
10C7
100
AcDbEntity
  8
0
390
0
100
AcDbBlockEnd
  0
BLOCK
  5
10C8
100
AcDbEntity
 67
     1
  8
0
390
0
100
AcDbBlockBegin
  2
*Paper_Space
 70
     0
 10
0.0
 20
0.0
 30
0.0
  3
*Paper_Space
  1

  0
ENDBLK
  5
10C9
100
AcDbEntity
 67
     1
  8
0
390
0
100
AcDbBlockEnd
  0
BLOCK
  5
10CD
100
AcDbEntity
  8
0
100
AcDbBlockBegin
  2
$MODEL_SPACE
 70
     0
 10
0.0
 20
0.0
 30
0.0
  3
$MODEL_SPACE
  1

  0
ENDBLK
  5
21
100
AcDbEntity
  8
0
100
AcDbBlockEnd
  0
BLOCK
  5
10CE
100
AcDbEntity
  8
0
100
AcDbBlockBegin
  2
$PAPER_SPACE
 70
     0
 10
0.0
 20
0.0
 30
0.0
  3
$PAPER_SPACE
  1

  0
ENDBLK
  5
76
100
AcDbEntity
  8
0
100
AcDbBlockEnd
  0
ENDSEC
  0
SECTION
  2
ENTITIES
  0
LINE
  5
10D4
100
AcDbEntity
  8
10000_FRONT
370
    25
390
0
  6
CONTINUOUS
 62
     7
100
AcDbLine
 10
245.810509
 20
168.422456
 30
0.0
 11
245.775002
 21
169.1
 31
0.0
  0
LINE
  5
10D5
100
AcDbEntity
  8
10000_FRONT
370
    25
390
0
  6
CONTINUOUS
 62
     7
100
AcDbLine
 10
325.610504
 20
168.422456
 30
0.0
 11
325.574997
 21
169.1
 31
0.0
  0
LINE
  5
10D6
100
AcDbEntity
  8
10000_FRONT
370
    25
390
0
  6
CONTINUOUS
 62
     7
100
AcDbLine
 10
246.074997
 20
167.1
 30
0.0
 11
245.810509
 21
168.422456
 31
0.0
  0
LINE
  5
10D7
100
AcDbEntity
  8
10000_FRONT
370
    25
390
0
  6
CONTINUOUS
 62
     7
100
AcDbLine
 10
325.875
 20
167.1
 30
0.0
 11
325.610504
 21
168.422456
 31
0.0
  0
LINE
  5
10D8
100
AcDbEntity
  8
10000_FRONT
370
    25
390
0
  6
CONTINUOUS
 62
     7
100
AcDbLine
 10
237.574997
 20
101.199998
 30
0.0
 11
237.409317
 21
101.6
 31
0.0
  0
LINE
  5
10D9
100
AcDbEntity
  8
10000_FRONT
370
    25
390
0
  6
CONTINUOUS
 62
     7
100
AcDbLine
 10
228.340683
 20
106.799997
 30
0.0
 11
228.175003
 21
107.199998
 31
0.0
  0
LINE
  5
10DA
100
AcDbEntity
  8
10000_FRONT
370
    25
390
0
  6
CONTINUOUS
 62
     7
100
AcDbLine
 10
237.574997
 20
187.2
 30
0.0
 11
237.409317
 21
187.6
 31
0.0
  0
LINE
  5
10DB
100
AcDbEntity
  8
10000_FRONT
370
    25
390
0
  6
CONTINUOUS
 62
     7
100
AcDbLine
 10
228.340683
 20
192.800001
 30
0.0
 11
228.175003
 21
193.2
 31
0.0
  0
LINE
  5
10DC
100
AcDbEntity
  8
10000_FRONT
370
    25
390
0
  6
CONTINUOUS
 62
     7
100
AcDbLine
 10
225.290688
 20
105.699998
 30
0.0
 11
225.125
 21
106.1
 31
0.0
  0
LINE
  5
10DD
100
AcDbEntity
  8
10000_FRONT
370
    25
390
0
  6
CONTINUOUS
 62
     7
100
AcDbLine
 10
240.625
 20
102.299997
 30
0.0
 11
240.459312
 21
102.699998
 31
0.0
  0
LINE
  5
10DE
100
AcDbEntity
  8
10000_FRONT
370
    25
390
0
  6
CONTINUOUS
 62
     7
100
AcDbLine
 10
225.290688
 20
191.7
 30
0.0
 11
225.125
 21
192.1
 31
0.0
  0
LINE
  5
10DF
100
AcDbEntity
  8
10000_FRONT
370
    25
390
0
  6
CONTINUOUS
 62
     7
100
AcDbLine
 10
240.625
 20
188.300001
 30
0.0
 11
240.459312
 21
188.7
 31
0.0
  0
LINE
  5
10E0
100
AcDbEntity
  8
10000_FRONT
370
    25
390
0
  6
CONTINUOUS
 62
     7
100
AcDbLine
 10
214.875
 20
111.067949
 30
0.0
 11
213.875
 21
112.799997
 31
0.0
  0
LINE
  5
10E1
100
AcDbEntity
  8
10000_FRONT
370
    25
390
0
  6
CONTINUOUS
 62
     7
100
AcDbLine
 10
89.875
 20
111.067949
 30
0.0
 11
88.875
 21
112.799997
 31
0.0
  0
LINE
  5
10E2
100
AcDbEntity
  8
10000_FRONT
370
    25
390
0
  6
CONTINUOUS
 62
     7
100
AcDbLine
 10
192.375
 20
111.067949
 30
0.0
 11
191.375
 21
112.799997
 31
0.0
  0
LINE
  5
10E3
100
AcDbEntity
  8
10000_FRONT
370
    25
390
0
  6
CONTINUOUS
 62
     7
100
AcDbLine
 10
112.375
 20
111.067949
 30
0.0
 11
111.375
 21
112.799997
 31
0.0
  0
LINE
  5
10E4
100
AcDbEntity
  8
10000_FRONT
370
    25
390
0
  6
CONTINUOUS
 62
     7
100
AcDbLine
 10
169.875
 20
111.067949
 30
0.0
 11
168.875
 21
112.799997
 31
0.0
  0
LINE
  5
10E5
100
AcDbEntity
  8
10000_FRONT
370
    25
390
0
  6
CONTINUOUS
 62
     7
100
AcDbLine
 10
134.875
 20
111.067949
 30
0.0
 11
133.875
 21
112.799997
 31
0.0
  0
LINE
  5
10E6
100
AcDbEntity
  8
10000_FRONT
370
    25
390
0
  6
CONTINUOUS
 62
     7
100
AcDbLine
 10
228.340683
 20
101.6
 30
0.0
 11
228.275002
 21
101.665689
 31
0.0
  0
LINE
  5
10E7
100
AcDbEntity
  8
10000_FRONT
370
    25
390
0
  6
CONTINUOUS
 62
     7
100
AcDbLine
 10
237.474998
 20
192.734315
 30
0.0
 11
237.409317
 21
192.800001
 31
0.0
  0
LINE
  5
10E8
100
AcDbEntity
  8
10000_FRONT
370
    25
390
0
  6
CONTINUOUS
 62
     7
100
AcDbLine
 10
228.340683
 20
187.6
 30
0.0
 11
228.275002
 21
187.665685
 31
0.0
  0
LINE
  5
10E9
100
AcDbEntity
  8
10000_FRONT
370
    25
390
0
  6
CONTINUOUS
 62
     7
100
AcDbLine
 10
237.474998
 20
106.734315
 30
0.0
 11
237.409317
 21
106.799997
 31
0.0
  0
LINE
  5
10EA
100
AcDbEntity
  8
10000_FRONT
370
    25
390
0
  6
CONTINUOUS
 62
     7
100
AcDbLine
 10
152.975
 20
145.199998
 30
0.0
 11
152.675
 21
145.500002
 31
0.0
  0
LINE
  5
10EB
100
AcDbEntity
  8
10000_FRONT
370
    25
390
0
  6
CONTINUOUS
 62
     7
100
AcDbLine
 10
148.175
 20
145.199998
 30
0.0
 11
147.875
 21
145.500002
 31
0.0
  0
LINE
  5
10EC
100
AcDbEntity
  8
10000_FRONT
370
    25
390
0
  6
CONTINUOUS
 62
     7
100
AcDbLine
 10
154.075
 20
148.699998
 30
0.0
 11
153.775
 21
149.000002
 31
0.0
  0
LINE
  5
10ED
100
AcDbEntity
  8
10000_FRONT
370
    25
390
0
  6
CONTINUOUS
 62
     7
100
AcDbLine
 10
149.275
 20
148.699998
 30
0.0
 11
148.975
 21
149.000002
 31
0.0
  0
LINE
  5
10EE
100
AcDbEntity
  8
10000_FRONT
370
    25
390
0
  6
CONTINUOUS
 62
     7
100
AcDbLine
 10
152.975
 20
165.199998
 30
0.0
 11
152.675
 21
165.500002
 31
0.0
  0
LINE
  5
10EF
100
AcDbEntity
  8
10000_FRONT
370
    25
390
0
  6
CONTINUOUS
 62
     7
100
AcDbLine
 10
148.175
 20
165.199998
 30
0.0
 11
147.875
 21
165.500002
 31
0.0
  0
LINE
  5
10F0
100
AcDbEntity
  8
10000_FRONT
370
    25
390
0
  6
CONTINUOUS
 62
     7
100
AcDbLine
 10
154.075
 20
168.699998
 30
0.0
 11
153.775
 21
169.000002
 31
0.0
  0
LINE
  5
10F1
100
AcDbEntity
  8
10000_FRONT
370
    25
390
0
  6
CONTINUOUS
 62
     7
100
AcDbLine
 10
149.275
 20
168.699998
 30
0.0
 11
148.975
 21
169.000002
 31
0.0
  0
LINE
  5
10F2
100
AcDbEntity
  8
10000_FRONT
370
    25
390
0
  6
CONTINUOUS
 62
     7
100
AcDbLine
 10
228.175003
 20
101.199998
 30
0.0
 11
227.875
 21
101.500002
 31
0.0
  0
LINE
  5
10F3
100
AcDbEntity
  8
10000_FRONT
370
    25
390
0
  6
CONTINUOUS
 62
     7
100
AcDbLine
 10
225.125
 20
102.299997
 30
0.0
 11
224.824997
 21
102.6
 31
0.0
  0
LINE
  5
10F4
100
AcDbEntity
  8
10000_FRONT
370
    25
390
0
  6
CONTINUOUS
 62
     7
100
AcDbLine
 10
225.290688
 20
102.699998
 30
0.0
 11
225.224998
 21
102.765688
 31
0.0
  0
LINE
  5
10F5
100
AcDbEntity
  8
10000_FRONT
370
    25
390
0
  6
CONTINUOUS
 62
     7
100
AcDbLine
 10
228.275002
 20
105.699998
 30
0.0
 11
227.875
 21
106.1
 31
0.0
  0
LINE
  5
10F6
100
AcDbEntity
  8
10000_FRONT
370
    25
390
0
  6
CONTINUOUS
 62
     7
100
AcDbLine
 10
240.925003
 20
105.799997
 30
0.0
 11
240.625
 21
106.1
 31
0.0
  0
LINE
  5
10F7
100
AcDbEntity
  8
10000_FRONT
370
    25
390
0
  6
CONTINUOUS
 62
     7
100
AcDbLine
 10
253.125
 20
125.900003
 30
0.0
 11
251.925003
 21
127.1
 31
0.0
  0
LINE
  5
10F8
100
AcDbEntity
  8
10000_FRONT
370
    25
390
0
  6
CONTINUOUS
 62
     7
100
AcDbLine
 10
332.824997
 20
125.900003
 30
0.0
 11
331.625
 21
127.1
 31
0.0
  0
LINE
  5
10F9
100
AcDbEntity
  8
10000_FRONT
370
    25
390
0
  6
CONTINUOUS
 62
     7
100
AcDbLine
 10
319.475006
 20
127.6
 30
0.0
 11
318.975006
 21
128.1
 31
0.0
  0
LINE
  5
10FA
100
AcDbEntity
  8
10000_FRONT
370
    25
390
0
  6
CONTINUOUS
 62
     7
100
AcDbLine
 10
244.375
 20
127.6
 30
0.0
 11
243.875
 21
128.1
 31
0.0
  0
LINE
  5
10FB
100
AcDbEntity
  8
10000_FRONT
370
    25
390
0
  6
CONTINUOUS
 62
     7
100
AcDbLine
 10
351.875
 20
168.1
 30
0.0
 11
351.375
 21
168.6
 31
0.0
  0
LINE
  5
10FC
100
AcDbEntity
  8
10000_FRONT
370
    25
390
0
  6
CONTINUOUS
 62
     7
100
AcDbLine
 10
334.475006
 20
168.1
 30
0.0
 11
333.975006
 21
168.6
 31
0.0
  0
LINE
  5
10FD
100
AcDbEntity
  8
10000_FRONT
370
    25
390
0
  6
CONTINUOUS
 62
     7
100
AcDbLine
 10
259.775002
 20
168.1
 30
0.0
 11
259.275002
 21
168.6
 31
0.0
  0
LINE
  5
10FE
100
AcDbEntity
  8
10000_FRONT
370
    25
390
0
  6
CONTINUOUS
 62
     7
100
AcDbLine
 10
276.774994
 20
168.1
 30
0.0
 11
276.274994
 21
168.6
 31
0.0
  0
LINE
  5
10FF
100
AcDbEntity
  8
10000_FRONT
370
    25
390
0
  6
CONTINUOUS
 62
     7
100
AcDbLine
 10
306.675003
 20
210.297056
 30
0.0
 11
302.472061
 21
214.5
 31
0.0
  0
LINE
  5
1100
100
AcDbEntity
  8
10000_FRONT
370
    25
390
0
  6
CONTINUOUS
 62
     7
100
AcDbLine
 10
202.875
 20
213.6
 30
0.0
 11
201.875
 21
214.6
 31
0.0
  0
LINE
  5
1101
100
AcDbEntity
  8
10000_FRONT
370
    25
390
0
  6
CONTINUOUS
 62
     7
100
AcDbLine
 10
180.375
 20
213.6
 30
0.0
 11
179.375
 21
214.6
 31
0.0
  0
LINE
  5
1102
100
AcDbEntity
  8
10000_FRONT
370
    25
390
0
  6
CONTINUOUS
 62
     7
100
AcDbLine
 10
157.875
 20
213.6
 30
0.0
 11
156.875
 21
214.6
 31
0.0
  0
LINE
  5
1103
100
AcDbEntity
  8
10000_FRONT
370
    25
390
0
  6
CONTINUOUS
 62
     7
100
AcDbLine
 10
132.875
 20
213.6
 30
0.0
 11
131.875
 21
214.6
 31
0.0
  0
LINE
  5
1104
100
AcDbEntity
  8
10000_FRONT
370
    25
390
0
  6
CONTINUOUS
 62
     7
100
AcDbLine
 10
110.375
 20
213.6
 30
0.0
 11
109.375
 21
214.6
 31
0.0
  0
LINE
  5
1105
100
AcDbEntity
  8
10000_FRONT
370
    25
390
0
  6
CONTINUOUS
 62
     7
100
AcDbLine
 10
87.875
 20
213.6
 30
0.0
 11
86.875
 21
214.6
 31
0.0
  0
LINE
  5
1106
100
AcDbEntity
  8
10000_FRONT
370
    25
390
0
  6
CONTINUOUS
 62
     7
100
AcDbLine
 10
237.875
 20
102.299997
 30
0.0
 11
237.474998
 21
102.699998
 31
0.0
  0
LINE
  5
1107
100
AcDbEntity
  8
10000_FRONT
370
    25
390
0
  6
CONTINUOUS
 62
     7
100
AcDbLine
 10
228.275002
 20
191.7
 30
0.0
 11
227.875
 21
192.1
 31
0.0
  0
LINE
  5
1108
100
AcDbEntity
  8
10000_FRONT
370
    25
390
0
  6
CONTINUOUS
 62
     7
100
AcDbLine
 10
237.875
 20
188.300001
 30
0.0
 11
237.474998
 21
188.7
 31
0.0
  0
LINE
  5
1109
100
AcDbEntity
  8
10000_FRONT
370
    25
390
0
  6
CONTINUOUS
 62
     7
100
AcDbLine
 10
237.875
 20
192.899999
 30
0.0
 11
237.574997
 21
193.2
 31
0.0
  0
LINE
  5
110A
100
AcDbEntity
  8
10000_FRONT
370
    25
390
0
  6
CONTINUOUS
 62
     7
100
AcDbLine
 10
228.175003
 20
187.2
 30
0.0
 11
227.875
 21
187.5
 31
0.0
  0
LINE
  5
110B
100
AcDbEntity
  8
10000_FRONT
370
    25
390
0
  6
CONTINUOUS
 62
     7
100
AcDbLine
 10
225.125
 20
188.300001
 30
0.0
 11
224.824997
 21
188.6
 31
0.0
  0
LINE
  5
110C
100
AcDbEntity
  8
10000_FRONT
370
    25
390
0
  6
CONTINUOUS
 62
     7
100
AcDbLine
 10
240.925003
 20
191.800001
 30
0.0
 11
240.625
 21
192.1
 31
0.0
  0
LINE
  5
110D
100
AcDbEntity
  8
10000_FRONT
370
    25
390
0
  6
CONTINUOUS
 62
     7
100
AcDbLine
 10
237.875
 20
106.900003
 30
0.0
 11
237.574997
 21
107.199998
 31
0.0
  0
LINE
  5
110E
100
AcDbEntity
  8
10000_FRONT
370
    25
390
0
  6
CONTINUOUS
 62
     7
100
AcDbLine
 10
225.290688
 20
188.7
 30
0.0
 11
225.224998
 21
188.765686
 31
0.0
  0
LINE
  5
110F
100
AcDbEntity
  8
10000_FRONT
370
    25
390
0
  6
CONTINUOUS
 62
     7
100
AcDbLine
 10
240.525002
 20
191.634315
 30
0.0
 11
240.459312
 21
191.7
 31
0.0
  0
LINE
  5
1110
100
AcDbEntity
  8
10000_FRONT
370
    25
390
0
  6
CONTINUOUS
 62
     7
100
AcDbLine
 10
240.525002
 20
105.634317
 30
0.0
 11
240.459312
 21
105.699998
 31
0.0
  0
LINE
  5
1111
100
AcDbEntity
  8
10000_FRONT
370
    25
390
0
  6
CONTINUOUS
 62
     7
100
AcDbLine
 10
240.925003
 20
102.6
 30
0.0
 11
240.525002
 21
102.765688
 31
0.0
  0
LINE
  5
1112
100
AcDbEntity
  8
10000_FRONT
370
    25
390
0
  6
CONTINUOUS
 62
     7
100
AcDbLine
 10
228.275002
 20
106.734315
 30
0.0
 11
227.875
 21
106.900003
 31
0.0
  0
LINE
  5
1113
100
AcDbEntity
  8
10000_FRONT
370
    25
390
0
  6
CONTINUOUS
 62
     7
100
AcDbLine
 10
237.875
 20
101.500002
 30
0.0
 11
237.474998
 21
101.665689
 31
0.0
  0
LINE
  5
1114
100
AcDbEntity
  8
10000_FRONT
370
    25
390
0
  6
CONTINUOUS
 62
     7
100
AcDbLine
 10
240.925003
 20
188.6
 30
0.0
 11
240.525002
 21
188.765686
 31
0.0
  0
LINE
  5
1115
100
AcDbEntity
  8
10000_FRONT
370
    25
390
0
  6
CONTINUOUS
 62
     7
100
AcDbLine
 10
225.224998
 20
191.634315
 30
0.0
 11
224.824997
 21
191.800001
 31
0.0
  0
LINE
  5
1116
100
AcDbEntity
  8
10000_FRONT
370
    25
390
0
  6
CONTINUOUS
 62
     7
100
AcDbLine
 10
237.875
 20
187.5
 30
0.0
 11
237.474998
 21
187.665685
 31
0.0
  0
LINE
  5
1117
100
AcDbEntity
  8
10000_FRONT
370
    25
390
0
  6
CONTINUOUS
 62
     7
100
AcDbLine
 10
228.275002
 20
192.734315
 30
0.0
 11
227.875
 21
192.899999
 31
0.0
  0
LINE
  5
1118
100
AcDbEntity
  8
10000_FRONT
370
    25
390
0
  6
CONTINUOUS
 62
     7
100
AcDbLine
 10
225.224998
 20
105.634317
 30
0.0
 11
224.824997
 21
105.799997
 31
0.0
  0
LINE
  5
1119
100
AcDbEntity
  8
10000_FRONT
370
    25
390
0
  6
CONTINUOUS
 62
     7
100
AcDbLine
 10
72.875
 20
81.400003
 30
0.0
 11
222.875
 21
81.400003
 31
0.0
  0
LINE
  5
111A
100
AcDbEntity
  8
10000_FRONT
370
    25
390
0
  6
CONTINUOUS
 62
     7
100
AcDbLine
 10
72.875
 20
97.400003
 30
0.0
 11
222.875
 21
97.400003
 31
0.0
  0
LINE
  5
111B
100
AcDbEntity
  8
10000_FRONT
370
    25
390
0
  6
CONTINUOUS
 62
     7
100
AcDbLine
 10
80.875
 20
98.549997
 30
0.0
 11
89.875
 21
98.549997
 31
0.0
  0
LINE
  5
111C
100
AcDbEntity
  8
10000_FRONT
370
    25
390
0
  6
CONTINUOUS
 62
     7
100
AcDbLine
 10
205.875
 20
98.549997
 30
0.0
 11
214.875
 21
98.549997
 31
0.0
  0
LINE
  5
111D
100
AcDbEntity
  8
10000_FRONT
370
    25
390
0
  6
CONTINUOUS
 62
     7
100
AcDbLine
 10
103.375
 20
98.549997
 30
0.0
 11
112.375
 21
98.549997
 31
0.0
  0
LINE
  5
111E
100
AcDbEntity
  8
10000_FRONT
370
    25
390
0
  6
CONTINUOUS
 62
     7
100
AcDbLine
 10
183.375
 20
98.549997
 30
0.0
 11
192.375
 21
98.549997
 31
0.0
  0
LINE
  5
111F
100
AcDbEntity
  8
10000_FRONT
370
    25
390
0
  6
CONTINUOUS
 62
     7
100
AcDbLine
 10
125.875
 20
98.549997
 30
0.0
 11
134.875
 21
98.549997
 31
0.0
  0
LINE
  5
1120
100
AcDbEntity
  8
10000_FRONT
370
    25
390
0
  6
CONTINUOUS
 62
     7
100
AcDbLine
 10
160.875
 20
98.549997
 30
0.0
 11
169.875
 21
98.549997
 31
0.0
  0
LINE
  5
1121
100
AcDbEntity
  8
10000_FRONT
370
    25
390
0
  6
CONTINUOUS
 62
     7
100
AcDbLine
 10
228.175003
 20
101.199998
 30
0.0
 11
237.574997
 21
101.199998
 31
0.0
  0
LINE
  5
1122
100
AcDbEntity
  8
10000_FRONT
370
    25
390
0
  6
CONTINUOUS
 62
     7
100
AcDbLine
 10
239.625
 20
101.500658
 30
0.0
 11
240.625
 21
101.500658
 31
0.0
  0
LINE
  5
1123
100
AcDbEntity
  8
10000_FRONT
370
    25
390
0
  6
CONTINUOUS
 62
     7
100
AcDbLine
 10
225.125
 20
101.500658
 30
0.0
 11
226.125
 21
101.500658
 31
0.0
  0
LINE
  5
1124
100
AcDbEntity
  8
10000_FRONT
370
    25
390
0
  6
CONTINUOUS
 62
     7
100
AcDbLine
 10
239.625
 20
101.525262
 30
0.0
 11
240.625
 21
101.525262
 31
0.0
  0
LINE
  5
1125
100
AcDbEntity
  8
10000_FRONT
370
    25
390
0
  6
CONTINUOUS
 62
     7
100
AcDbLine
 10
225.125
 20
101.525262
 30
0.0
 11
226.125
 21
101.525262
 31
0.0
  0
LINE
  5
1126
100
AcDbEntity
  8
10000_FRONT
370
    25
390
0
  6
CONTINUOUS
 62
     7
100
AcDbLine
 10
228.340683
 20
101.6
 30
0.0
 11
237.409317
 21
101.6
 31
0.0
  0
LINE
  5
1127
100
AcDbEntity
  8
10000_FRONT
370
    25
390
0
  6
CONTINUOUS
 62
     7
100
AcDbLine
 10
229.875
 20
102.199998
 30
0.0
 11
235.875
 21
102.199998
 31
0.0
  0
LINE
  5
1128
100
AcDbEntity
  8
10000_FRONT
370
    25
390
0
  6
CONTINUOUS
 62
     7
100
AcDbLine
 10
237.875
 20
102.299997
 30
0.0
 11
240.625
 21
102.299997
 31
0.0
  0
LINE
  5
1129
100
AcDbEntity
  8
10000_FRONT
370
    25
390
0
  6
CONTINUOUS
 62
     7
100
AcDbLine
 10
225.125
 20
102.299997
 30
0.0
 11
227.875
 21
102.299997
 31
0.0
  0
LINE
  5
112A
100
AcDbEntity
  8
10000_FRONT
370
    25
390
0
  6
CONTINUOUS
 62
     7
100
AcDbLine
 10
237.474998
 20
102.699998
 30
0.0
 11
240.459312
 21
102.699998
 31
0.0
  0
LINE
  5
112B
100
AcDbEntity
  8
10000_FRONT
370
    25
390
0
  6
CONTINUOUS
 62
     7
100
AcDbLine
 10
225.290688
 20
102.699998
 30
0.0
 11
228.275002
 21
102.699998
 31
0.0
  0
LINE
  5
112C
100
AcDbEntity
  8
10000_FRONT
370
    25
390
0
  6
CONTINUOUS
 62
     7
100
AcDbLine
 10
237.474998
 20
105.699998
 30
0.0
 11
240.459312
 21
105.699998
 31
0.0
  0
LINE
  5
112D
100
AcDbEntity
  8
10000_FRONT
370
    25
390
0
  6
CONTINUOUS
 62
     7
100
AcDbLine
 10
225.290688
 20
105.699998
 30
0.0
 11
228.275002
 21
105.699998
 31
0.0
  0
LINE
  5
112E
100
AcDbEntity
  8
10000_FRONT
370
    25
390
0
  6
CONTINUOUS
 62
     7
100
AcDbLine
 10
225.125
 20
106.1
 30
0.0
 11
227.875
 21
106.1
 31
0.0
  0
LINE
  5
112F
100
AcDbEntity
  8
10000_FRONT
370
    25
390
0
  6
CONTINUOUS
 62
     7
100
AcDbLine
 10
237.875
 20
106.1
 30
0.0
 11
240.625
 21
106.1
 31
0.0
  0
LINE
  5
1130
100
AcDbEntity
  8
10000_FRONT
370
    25
390
0
  6
CONTINUOUS
 62
     7
100
AcDbLine
 10
229.875
 20
106.199998
 30
0.0
 11
235.875
 21
106.199998
 31
0.0
  0
LINE
  5
1131
100
AcDbEntity
  8
10000_FRONT
370
    25
390
0
  6
CONTINUOUS
 62
     7
100
AcDbLine
 10
228.340683
 20
106.799997
 30
0.0
 11
237.409317
 21
106.799997
 31
0.0
  0
LINE
  5
1132
100
AcDbEntity
  8
10000_FRONT
370
    25
390
0
  6
CONTINUOUS
 62
     7
100
AcDbLine
 10
225.125
 20
106.874734
 30
0.0
 11
226.125
 21
106.874734
 31
0.0
  0
LINE
  5
1133
100
AcDbEntity
  8
10000_FRONT
370
    25
390
0
  6
CONTINUOUS
 62
     7
100
AcDbLine
 10
239.625
 20
106.874734
 30
0.0
 11
240.625
 21
106.874734
 31
0.0
  0
LINE
  5
1134
100
AcDbEntity
  8
10000_FRONT
370
    25
390
0
  6
CONTINUOUS
 62
     7
100
AcDbLine
 10
225.125
 20
106.899339
 30
0.0
 11
226.125
 21
106.899339
 31
0.0
  0
LINE
  5
1135
100
AcDbEntity
  8
10000_FRONT
370
    25
390
0
  6
CONTINUOUS
 62
     7
100
AcDbLine
 10
239.625
 20
106.899339
 30
0.0
 11
240.625
 21
106.899339
 31
0.0
  0
LINE
  5
1136
100
AcDbEntity
  8
10000_FRONT
370
    25
390
0
  6
CONTINUOUS
 62
     7
100
AcDbLine
 10
228.175003
 20
107.199998
 30
0.0
 11
237.574997
 21
107.199998
 31
0.0
  0
LINE
  5
1137
100
AcDbEntity
  8
10000_FRONT
370
    25
390
0
  6
CONTINUOUS
 62
     7
100
AcDbLine
 10
81.875
 20
112.799997
 30
0.0
 11
88.875
 21
112.799997
 31
0.0
  0
LINE
  5
1138
100
AcDbEntity
  8
10000_FRONT
370
    25
390
0
  6
CONTINUOUS
 62
     7
100
AcDbLine
 10
206.875
 20
112.799997
 30
0.0
 11
213.875
 21
112.799997
 31
0.0
  0
LINE
  5
1139
100
AcDbEntity
  8
10000_FRONT
370
    25
390
0
  6
CONTINUOUS
 62
     7
100
AcDbLine
 10
104.375
 20
112.799997
 30
0.0
 11
111.375
 21
112.799997
 31
0.0
  0
LINE
  5
113A
100
AcDbEntity
  8
10000_FRONT
370
    25
390
0
  6
CONTINUOUS
 62
     7
100
AcDbLine
 10
184.375
 20
112.799997
 30
0.0
 11
191.375
 21
112.799997
 31
0.0
  0
LINE
  5
113B
100
AcDbEntity
  8
10000_FRONT
370
    25
390
0
  6
CONTINUOUS
 62
     7
100
AcDbLine
 10
126.875
 20
112.799997
 30
0.0
 11
133.875
 21
112.799997
 31
0.0
  0
LINE
  5
113C
100
AcDbEntity
  8
10000_FRONT
370
    25
390
0
  6
CONTINUOUS
 62
     7
100
AcDbLine
 10
161.875
 20
112.799997
 30
0.0
 11
168.875
 21
112.799997
 31
0.0
  0
LINE
  5
113D
100
AcDbEntity
  8
10000_FRONT
370
    25
390
0
  6
CONTINUOUS
 62
     7
100
AcDbLine
 10
235.625
 20
115.6
 30
0.0
 11
360.125
 21
115.6
 31
0.0
  0
LINE
  5
113E
100
AcDbEntity
  8
10000_FRONT
370
    25
390
0
  6
CONTINUOUS
 62
     7
100
AcDbLine
 10
253.125
 20
125.900003
 30
0.0
 11
279.725006
 21
125.900003
 31
0.0
  0
LINE
  5
113F
100
AcDbEntity
  8
10000_FRONT
370
    25
390
0
  6
CONTINUOUS
 62
     7
100
AcDbLine
 10
332.824997
 20
125.900003
 30
0.0
 11
360.125
 21
125.900003
 31
0.0
  0
LINE
  5
1140
100
AcDbEntity
  8
10000_FRONT
370
    25
390
0
  6
CONTINUOUS
 62
     7
100
AcDbLine
 10
280.675003
 20
127.1
 30
0.0
 11
331.625
 21
127.1
 31
0.0
  0
LINE
  5
1141
100
AcDbEntity
  8
10000_FRONT
370
    25
390
0
  6
CONTINUOUS
 62
     7
100
AcDbLine
 10
235.625
 20
127.1
 30
0.0
 11
251.925003
 21
127.1
 31
0.0
  0
LINE
  5
1142
100
AcDbEntity
  8
10000_FRONT
370
    25
390
0
  6
CONTINUOUS
 62
     7
100
AcDbLine
 10
316.975006
 20
127.6
 30
0.0
 11
319.475006
 21
127.6
 31
0.0
  0
LINE
  5
1143
100
AcDbEntity
  8
10000_FRONT
370
    25
390
0
  6
CONTINUOUS
 62
     7
100
AcDbLine
 10
241.875
 20
127.6
 30
0.0
 11
244.375
 21
127.6
 31
0.0
  0
LINE
  5
1144
100
AcDbEntity
  8
10000_FRONT
370
    25
390
0
  6
CONTINUOUS
 62
     7
100
AcDbLine
 10
317.475006
 20
128.1
 30
0.0
 11
318.975006
 21
128.1
 31
0.0
  0
LINE
  5
1145
100
AcDbEntity
  8
10000_FRONT
370
    25
390
0
  6
CONTINUOUS
 62
     7
100
AcDbLine
 10
242.375
 20
128.1
 30
0.0
 11
243.875
 21
128.1
 31
0.0
  0
LINE
  5
1146
100
AcDbEntity
  8
10000_FRONT
370
    25
390
0
  6
CONTINUOUS
 62
     7
100
AcDbLine
 10
317.475006
 20
141.1
 30
0.0
 11
318.975006
 21
141.1
 31
0.0
  0
LINE
  5
1147
100
AcDbEntity
  8
10000_FRONT
370
    25
390
0
  6
CONTINUOUS
 62
     7
100
AcDbLine
 10
242.375
 20
141.1
 30
0.0
 11
243.875
 21
141.1
 31
0.0
  0
LINE
  5
1148
100
AcDbEntity
  8
10000_FRONT
370
    25
390
0
  6
CONTINUOUS
 62
     7
100
AcDbLine
 10
152.775
 20
144.320001
 30
0.0
 11
153.775
 21
144.320001
 31
0.0
  0
LINE
  5
1149
100
AcDbEntity
  8
10000_FRONT
370
    25
390
0
  6
CONTINUOUS
 62
     7
100
AcDbLine
 10
148.175
 20
144.320001
 30
0.0
 11
149.175
 21
144.320001
 31
0.0
  0
LINE
  5
114A
100
AcDbEntity
  8
10000_FRONT
370
    25
390
0
  6
CONTINUOUS
 62
     7
100
AcDbLine
 10
148.175
 20
145.199998
 30
0.0
 11
153.775
 21
145.199998
 31
0.0
  0
LINE
  5
114B
100
AcDbEntity
  8
10000_FRONT
370
    25
390
0
  6
CONTINUOUS
 62
     7
100
AcDbLine
 10
232.875
 20
146.1
 30
0.0
 11
282.875
 21
146.1
 31
0.0
  0
LINE
  5
114C
100
AcDbEntity
  8
10000_FRONT
370
    25
390
0
  6
CONTINUOUS
 62
     7
100
AcDbLine
 10
149.275
 20
146.1
 30
0.0
 11
152.675
 21
146.1
 31
0.0
  0
LINE
  5
114D
100
AcDbEntity
  8
10000_FRONT
370
    25
390
0
  6
CONTINUOUS
 62
     7
100
AcDbLine
 10
149.275
 20
146.199998
 30
0.0
 11
152.675
 21
146.199998
 31
0.0
  0
LINE
  5
114E
100
AcDbEntity
  8
10000_FRONT
370
    25
390
0
  6
CONTINUOUS
 62
     7
100
AcDbLine
 10
227.875
 20
146.6
 30
0.0
 11
232.875
 21
146.6
 31
0.0
  0
LINE
  5
114F
100
AcDbEntity
  8
10000_FRONT
370
    25
390
0
  6
CONTINUOUS
 62
     7
100
AcDbLine
 10
282.875
 20
146.6
 30
0.0
 11
287.875
 21
146.6
 31
0.0
  0
LINE
  5
1150
100
AcDbEntity
  8
10000_FRONT
370
    25
390
0
  6
CONTINUOUS
 62
     7
100
AcDbLine
 10
227.875
 20
147.6
 30
0.0
 11
232.875
 21
147.6
 31
0.0
  0
LINE
  5
1151
100
AcDbEntity
  8
10000_FRONT
370
    25
390
0
  6
CONTINUOUS
 62
     7
100
AcDbLine
 10
282.875
 20
147.6
 30
0.0
 11
287.875
 21
147.6
 31
0.0
  0
LINE
  5
1152
100
AcDbEntity
  8
10000_FRONT
370
    25
390
0
  6
CONTINUOUS
 62
     7
100
AcDbLine
 10
149.275
 20
148.000002
 30
0.0
 11
152.675
 21
148.000002
 31
0.0
  0
LINE
  5
1153
100
AcDbEntity
  8
10000_FRONT
370
    25
390
0
  6
CONTINUOUS
 62
     7
100
AcDbLine
 10
232.875
 20
148.1
 30
0.0
 11
282.875
 21
148.1
 31
0.0
  0
LINE
  5
1154
100
AcDbEntity
  8
10000_FRONT
370
    25
390
0
  6
CONTINUOUS
 62
     7
100
AcDbLine
 10
149.275
 20
148.1
 30
0.0
 11
152.675
 21
148.1
 31
0.0
  0
LINE
  5
1155
100
AcDbEntity
  8
10000_FRONT
370
    25
390
0
  6
CONTINUOUS
 62
     7
100
AcDbLine
 10
148.175
 20
149.000002
 30
0.0
 11
153.775
 21
149.000002
 31
0.0
  0
LINE
  5
1156
100
AcDbEntity
  8
10000_FRONT
370
    25
390
0
  6
CONTINUOUS
 62
     7
100
AcDbLine
 10
152.775
 20
149.879999
 30
0.0
 11
153.775
 21
149.879999
 31
0.0
  0
LINE
  5
1157
100
AcDbEntity
  8
10000_FRONT
370
    25
390
0
  6
CONTINUOUS
 62
     7
100
AcDbLine
 10
148.175
 20
149.879999
 30
0.0
 11
149.175
 21
149.879999
 31
0.0
  0
LINE
  5
1158
100
AcDbEntity
  8
10000_FRONT
370
    25
390
0
  6
CONTINUOUS
 62
     7
100
AcDbLine
 10
276.774994
 20
155.1
 30
0.0
 11
278.274994
 21
155.1
 31
0.0
  0
LINE
  5
1159
100
AcDbEntity
  8
10000_FRONT
370
    25
390
0
  6
CONTINUOUS
 62
     7
100
AcDbLine
 10
259.775002
 20
155.1
 30
0.0
 11
261.275002
 21
155.1
 31
0.0
  0
LINE
  5
115A
100
AcDbEntity
  8
10000_FRONT
370
    25
390
0
  6
CONTINUOUS
 62
     7
100
AcDbLine
 10
334.475006
 20
155.1
 30
0.0
 11
335.975006
 21
155.1
 31
0.0
  0
LINE
  5
115B
100
AcDbEntity
  8
10000_FRONT
370
    25
390
0
  6
CONTINUOUS
 62
     7
100
AcDbLine
 10
351.875
 20
155.1
 30
0.0
 11
353.375
 21
155.1
 31
0.0
  0
LINE
  5
115C
100
AcDbEntity
  8
10000_FRONT
370
    25
390
0
  6
CONTINUOUS
 62
     7
100
AcDbLine
 10
152.775
 20
164.320001
 30
0.0
 11
153.775
 21
164.320001
 31
0.0
  0
LINE
  5
115D
100
AcDbEntity
  8
10000_FRONT
370
    25
390
0
  6
CONTINUOUS
 62
     7
100
AcDbLine
 10
148.175
 20
164.320001
 30
0.0
 11
149.175
 21
164.320001
 31
0.0
  0
LINE
  5
115E
100
AcDbEntity
  8
10000_FRONT
370
    25
390
0
  6
CONTINUOUS
 62
     7
100
AcDbLine
 10
148.175
 20
165.199998
 30
0.0
 11
153.775
 21
165.199998
 31
0.0
  0
LINE
  5
115F
100
AcDbEntity
  8
10000_FRONT
370
    25
390
0
  6
CONTINUOUS
 62
     7
100
AcDbLine
 10
149.275
 20
166.1
 30
0.0
 11
152.675
 21
166.1
 31
0.0
  0
LINE
  5
1160
100
AcDbEntity
  8
10000_FRONT
370
    25
390
0
  6
CONTINUOUS
 62
     7
100
AcDbLine
 10
149.275
 20
166.199998
 30
0.0
 11
152.675
 21
166.199998
 31
0.0
  0
LINE
  5
1161
100
AcDbEntity
  8
10000_FRONT
370
    25
390
0
  6
CONTINUOUS
 62
     7
100
AcDbLine
 10
278.274994
 20
167.1
 30
0.0
 11
334.475006
 21
167.1
 31
0.0
  0
LINE
  5
1162
100
AcDbEntity
  8
10000_FRONT
370
    25
390
0
  6
CONTINUOUS
 62
     7
100
AcDbLine
 10
353.375
 20
167.1
 30
0.0
 11
360.125
 21
167.1
 31
0.0
  0
LINE
  5
1163
100
AcDbEntity
  8
10000_FRONT
370
    25
390
0
  6
CONTINUOUS
 62
     7
100
AcDbLine
 10
335.975006
 20
167.1
 30
0.0
 11
351.875
 21
167.1
 31
0.0
  0
LINE
  5
1164
100
AcDbEntity
  8
10000_FRONT
370
    25
390
0
  6
CONTINUOUS
 62
     7
100
AcDbLine
 10
261.275002
 20
167.1
 30
0.0
 11
276.774994
 21
167.1
 31
0.0
  0
LINE
  5
1165
100
AcDbEntity
  8
10000_FRONT
370
    25
390
0
  6
CONTINUOUS
 62
     7
100
AcDbLine
 10
252.675003
 20
167.1
 30
0.0
 11
259.775002
 21
167.1
 31
0.0
  0
LINE
  5
1166
100
AcDbEntity
  8
10000_FRONT
370
    25
390
0
  6
CONTINUOUS
 62
     7
100
AcDbLine
 10
235.625
 20
167.1
 30
0.0
 11
246.074997
 21
167.1
 31
0.0
  0
LINE
  5
1167
100
AcDbEntity
  8
10000_FRONT
370
    25
390
0
  6
CONTINUOUS
 62
     7
100
AcDbLine
 10
246.074997
 20
167.1
 30
0.0
 11
252.675003
 21
167.1
 31
0.0
  0
LINE
  5
1168
100
AcDbEntity
  8
10000_FRONT
370
    25
390
0
  6
CONTINUOUS
 62
     7
100
AcDbLine
 10
149.275
 20
168.000002
 30
0.0
 11
152.675
 21
168.000002
 31
0.0
  0
LINE
  5
1169
100
AcDbEntity
  8
10000_FRONT
370
    25
390
0
  6
CONTINUOUS
 62
     7
100
AcDbLine
 10
276.774994
 20
168.1
 30
0.0
 11
278.274994
 21
168.1
 31
0.0
  0
LINE
  5
116A
100
AcDbEntity
  8
10000_FRONT
370
    25
390
0
  6
CONTINUOUS
 62
     7
100
AcDbLine
 10
259.775002
 20
168.1
 30
0.0
 11
261.275002
 21
168.1
 31
0.0
  0
LINE
  5
116B
100
AcDbEntity
  8
10000_FRONT
370
    25
390
0
  6
CONTINUOUS
 62
     7
100
AcDbLine
 10
334.475006
 20
168.1
 30
0.0
 11
335.975006
 21
168.1
 31
0.0
  0
LINE
  5
116C
100
AcDbEntity
  8
10000_FRONT
370
    25
390
0
  6
CONTINUOUS
 62
     7
100
AcDbLine
 10
351.875
 20
168.1
 30
0.0
 11
353.375
 21
168.1
 31
0.0
  0
LINE
  5
116D
100
AcDbEntity
  8
10000_FRONT
370
    25
390
0
  6
CONTINUOUS
 62
     7
100
AcDbLine
 10
149.275
 20
168.1
 30
0.0
 11
152.675
 21
168.1
 31
0.0
  0
LINE
  5
116E
100
AcDbEntity
  8
10000_FRONT
370
    25
390
0
  6
CONTINUOUS
 62
     7
100
AcDbLine
 10
276.274994
 20
168.6
 30
0.0
 11
278.774994
 21
168.6
 31
0.0
  0
LINE
  5
116F
100
AcDbEntity
  8
10000_FRONT
370
    25
390
0
  6
CONTINUOUS
 62
     7
100
AcDbLine
 10
259.275002
 20
168.6
 30
0.0
 11
261.775002
 21
168.6
 31
0.0
  0
LINE
  5
1170
100
AcDbEntity
  8
10000_FRONT
370
    25
390
0
  6
CONTINUOUS
 62
     7
100
AcDbLine
 10
333.975006
 20
168.6
 30
0.0
 11
336.475006
 21
168.6
 31
0.0
  0
LINE
  5
1171
100
AcDbEntity
  8
10000_FRONT
370
    25
390
0
  6
CONTINUOUS
 62
     7
100
AcDbLine
 10
351.375
 20
168.6
 30
0.0
 11
353.875
 21
168.6
 31
0.0
  0
LINE
  5
1172
100
AcDbEntity
  8
10000_FRONT
370
    25
390
0
  6
CONTINUOUS
 62
     7
100
AcDbLine
 10
148.175
 20
169.000002
 30
0.0
 11
153.775
 21
169.000002
 31
0.0
  0
LINE
  5
1173
100
AcDbEntity
  8
10000_FRONT
370
    25
390
0
  6
CONTINUOUS
 62
     7
100
AcDbLine
 10
252.974998
 20
169.1
 30
0.0
 11
325.574997
 21
169.1
 31
0.0
  0
LINE
  5
1174
100
AcDbEntity
  8
10000_FRONT
370
    25
390
0
  6
CONTINUOUS
 62
     7
100
AcDbLine
 10
336.975006
 20
169.1
 30
0.0
 11
360.125
 21
169.1
 31
0.0
  0
LINE
  5
1175
100
AcDbEntity
  8
10000_FRONT
370
    25
390
0
  6
CONTINUOUS
 62
     7
100
AcDbLine
 10
333.475006
 20
169.1
 30
0.0
 11
336.975006
 21
169.1
 31
0.0
  0
LINE
  5
1176
100
AcDbEntity
  8
10000_FRONT
370
    25
390
0
  6
CONTINUOUS
 62
     7
100
AcDbLine
 10
332.774994
 20
169.1
 30
0.0
 11
333.475006
 21
169.1
 31
0.0
  0
LINE
  5
1177
100
AcDbEntity
  8
10000_FRONT
370
    25
390
0
  6
CONTINUOUS
 62
     7
100
AcDbLine
 10
235.625
 20
169.1
 30
0.0
 11
245.775002
 21
169.1
 31
0.0
  0
LINE
  5
1178
100
AcDbEntity
  8
10000_FRONT
370
    25
390
0
  6
CONTINUOUS
 62
     7
100
AcDbLine
 10
152.775
 20
169.879999
 30
0.0
 11
153.775
 21
169.879999
 31
0.0
  0
LINE
  5
1179
100
AcDbEntity
  8
10000_FRONT
370
    25
390
0
  6
CONTINUOUS
 62
     7
100
AcDbLine
 10
148.175
 20
169.879999
 30
0.0
 11
149.175
 21
169.879999
 31
0.0
  0
LINE
  5
117A
100
AcDbEntity
  8
10000_FRONT
370
    25
390
0
  6
CONTINUOUS
 62
     7
100
AcDbLine
 10
333.475006
 20
171.699998
 30
0.0
 11
336.975006
 21
171.699998
 31
0.0
  0
LINE
  5
117B
100
AcDbEntity
  8
10000_FRONT
370
    25
390
0
  6
CONTINUOUS
 62
     7
100
AcDbLine
 10
258.775002
 20
171.699998
 30
0.0
 11
262.275002
 21
171.699998
 31
0.0
  0
LINE
  5
117C
100
AcDbEntity
  8
10000_FRONT
370
    25
390
0
  6
CONTINUOUS
 62
     7
100
AcDbLine
 10
333.475006
 20
175.597116
 30
0.0
 11
336.975006
 21
175.597116
 31
0.0
  0
LINE
  5
117D
100
AcDbEntity
  8
10000_FRONT
370
    25
390
0
  6
CONTINUOUS
 62
     7
100
AcDbLine
 10
258.775002
 20
175.597116
 30
0.0
 11
262.275002
 21
175.597116
 31
0.0
  0
LINE
  5
117E
100
AcDbEntity
  8
10000_FRONT
370
    25
390
0
  6
CONTINUOUS
 62
     7
100
AcDbLine
 10
235.625
 20
181.300001
 30
0.0
 11
360.125
 21
181.300001
 31
0.0
  0
LINE
  5
117F
100
AcDbEntity
  8
10000_FRONT
370
    25
390
0
  6
CONTINUOUS
 62
     7
100
AcDbLine
 10
291.274994
 20
183.300001
 30
0.0
 11
300.675003
 21
183.300001
 31
0.0
  0
LINE
  5
1180
100
AcDbEntity
  8
10000_FRONT
370
    25
390
0
  6
CONTINUOUS
 62
     7
100
AcDbLine
 10
268.775002
 20
183.300001
 30
0.0
 11
278.175003
 21
183.300001
 31
0.0
  0
LINE
  5
1181
100
AcDbEntity
  8
10000_FRONT
370
    25
390
0
  6
CONTINUOUS
 62
     7
100
AcDbLine
 10
246.275002
 20
183.300001
 30
0.0
 11
255.675003
 21
183.300001
 31
0.0
  0
LINE
  5
1182
100
AcDbEntity
  8
10000_FRONT
370
    25
390
0
  6
CONTINUOUS
 62
     7
100
AcDbLine
 10
228.175003
 20
187.2
 30
0.0
 11
237.574997
 21
187.2
 31
0.0
  0
LINE
  5
1183
100
AcDbEntity
  8
10000_FRONT
370
    25
390
0
  6
CONTINUOUS
 62
     7
100
AcDbLine
 10
239.625
 20
187.500658
 30
0.0
 11
240.625
 21
187.500658
 31
0.0
  0
LINE
  5
1184
100
AcDbEntity
  8
10000_FRONT
370
    25
390
0
  6
CONTINUOUS
 62
     7
100
AcDbLine
 10
225.125
 20
187.500658
 30
0.0
 11
226.125
 21
187.500658
 31
0.0
  0
LINE
  5
1185
100
AcDbEntity
  8
10000_FRONT
370
    25
390
0
  6
CONTINUOUS
 62
     7
100
AcDbLine
 10
239.625
 20
187.525262
 30
0.0
 11
240.625
 21
187.525262
 31
0.0
  0
LINE
  5
1186
100
AcDbEntity
  8
10000_FRONT
370
    25
390
0
  6
CONTINUOUS
 62
     7
100
AcDbLine
 10
225.125
 20
187.525262
 30
0.0
 11
226.125
 21
187.525262
 31
0.0
  0
LINE
  5
1187
100
AcDbEntity
  8
10000_FRONT
370
    25
390
0
  6
CONTINUOUS
 62
     7
100
AcDbLine
 10
228.340683
 20
187.6
 30
0.0
 11
237.409317
 21
187.6
 31
0.0
  0
LINE
  5
1188
100
AcDbEntity
  8
10000_FRONT
370
    25
390
0
  6
CONTINUOUS
 62
     7
100
AcDbLine
 10
229.875
 20
188.2
 30
0.0
 11
235.875
 21
188.2
 31
0.0
  0
LINE
  5
1189
100
AcDbEntity
  8
10000_FRONT
370
    25
390
0
  6
CONTINUOUS
 62
     7
100
AcDbLine
 10
237.875
 20
188.300001
 30
0.0
 11
240.625
 21
188.300001
 31
0.0
  0
LINE
  5
118A
100
AcDbEntity
  8
10000_FRONT
370
    25
390
0
  6
CONTINUOUS
 62
     7
100
AcDbLine
 10
225.125
 20
188.300001
 30
0.0
 11
227.875
 21
188.300001
 31
0.0
  0
LINE
  5
118B
100
AcDbEntity
  8
10000_FRONT
370
    25
390
0
  6
CONTINUOUS
 62
     7
100
AcDbLine
 10
237.474998
 20
188.7
 30
0.0
 11
240.459312
 21
188.7
 31
0.0
  0
LINE
  5
118C
100
AcDbEntity
  8
10000_FRONT
370
    25
390
0
  6
CONTINUOUS
 62
     7
100
AcDbLine
 10
225.290688
 20
188.7
 30
0.0
 11
228.275002
 21
188.7
 31
0.0
  0
LINE
  5
118D
100
AcDbEntity
  8
10000_FRONT
370
    25
390
0
  6
CONTINUOUS
 62
     7
100
AcDbLine
 10
237.474998
 20
191.7
 30
0.0
 11
240.459312
 21
191.7
 31
0.0
  0
LINE
  5
118E
100
AcDbEntity
  8
10000_FRONT
370
    25
390
0
  6
CONTINUOUS
 62
     7
100
AcDbLine
 10
225.290688
 20
191.7
 30
0.0
 11
228.275002
 21
191.7
 31
0.0
  0
LINE
  5
118F
100
AcDbEntity
  8
10000_FRONT
370
    25
390
0
  6
CONTINUOUS
 62
     7
100
AcDbLine
 10
225.125
 20
192.1
 30
0.0
 11
227.875
 21
192.1
 31
0.0
  0
LINE
  5
1190
100
AcDbEntity
  8
10000_FRONT
370
    25
390
0
  6
CONTINUOUS
 62
     7
100
AcDbLine
 10
237.875
 20
192.1
 30
0.0
 11
240.625
 21
192.1
 31
0.0
  0
LINE
  5
1191
100
AcDbEntity
  8
10000_FRONT
370
    25
390
0
  6
CONTINUOUS
 62
     7
100
AcDbLine
 10
229.875
 20
192.2
 30
0.0
 11
235.875
 21
192.2
 31
0.0
  0
LINE
  5
1192
100
AcDbEntity
  8
10000_FRONT
370
    25
390
0
  6
CONTINUOUS
 62
     7
100
AcDbLine
 10
228.340683
 20
192.800001
 30
0.0
 11
237.409317
 21
192.800001
 31
0.0
  0
LINE
  5
1193
100
AcDbEntity
  8
10000_FRONT
370
    25
390
0
  6
CONTINUOUS
 62
     7
100
AcDbLine
 10
225.125
 20
192.874738
 30
0.0
 11
226.125
 21
192.874738
 31
0.0
  0
LINE
  5
1194
100
AcDbEntity
  8
10000_FRONT
370
    25
390
0
  6
CONTINUOUS
 62
     7
100
AcDbLine
 10
239.625
 20
192.874738
 30
0.0
 11
240.625
 21
192.874738
 31
0.0
  0
LINE
  5
1195
100
AcDbEntity
  8
10000_FRONT
370
    25
390
0
  6
CONTINUOUS
 62
     7
100
AcDbLine
 10
225.125
 20
192.899341
 30
0.0
 11
226.125
 21
192.899341
 31
0.0
  0
LINE
  5
1196
100
AcDbEntity
  8
10000_FRONT
370
    25
390
0
  6
CONTINUOUS
 62
     7
100
AcDbLine
 10
239.625
 20
192.899341
 30
0.0
 11
240.625
 21
192.899341
 31
0.0
  0
LINE
  5
1197
100
AcDbEntity
  8
10000_FRONT
370
    25
390
0
  6
CONTINUOUS
 62
     7
100
AcDbLine
 10
228.175003
 20
193.2
 30
0.0
 11
237.574997
 21
193.2
 31
0.0
  0
LINE
  5
1198
100
AcDbEntity
  8
10000_FRONT
370
    25
390
0
  6
CONTINUOUS
 62
     7
100
AcDbLine
 10
110.375
 20
196.300001
 30
0.0
 11
115.375
 21
196.300001
 31
0.0
  0
LINE
  5
1199
100
AcDbEntity
  8
10000_FRONT
370
    25
390
0
  6
CONTINUOUS
 62
     7
100
AcDbLine
 10
157.875
 20
196.300001
 30
0.0
 11
162.875
 21
196.300001
 31
0.0
  0
LINE
  5
119A
100
AcDbEntity
  8
10000_FRONT
370
    25
390
0
  6
CONTINUOUS
 62
     7
100
AcDbLine
 10
202.875
 20
196.300001
 30
0.0
 11
207.875
 21
196.300001
 31
0.0
  0
LINE
  5
119B
100
AcDbEntity
  8
10000_FRONT
370
    25
390
0
  6
CONTINUOUS
 62
     7
100
AcDbLine
 10
180.375
 20
196.300001
 30
0.0
 11
185.375
 21
196.300001
 31
0.0
  0
LINE
  5
119C
100
AcDbEntity
  8
10000_FRONT
370
    25
390
0
  6
CONTINUOUS
 62
     7
100
AcDbLine
 10
132.875
 20
196.300001
 30
0.0
 11
137.875
 21
196.300001
 31
0.0
  0
LINE
  5
119D
100
AcDbEntity
  8
10000_FRONT
370
    25
390
0
  6
CONTINUOUS
 62
     7
100
AcDbLine
 10
87.875
 20
196.300001
 30
0.0
 11
92.875
 21
196.300001
 31
0.0
  0
LINE
  5
119E
100
AcDbEntity
  8
10000_FRONT
370
    25
390
0
  6
CONTINUOUS
 62
     7
100
AcDbLine
 10
240.275002
 20
202.8
 30
0.0
 11
306.675003
 21
202.8
 31
0.0
  0
LINE
  5
119F
100
AcDbEntity
  8
10000_FRONT
370
    25
390
0
  6
CONTINUOUS
 62
     7
100
AcDbLine
 10
207.875
 20
213.2
 30
0.0
 11
213.474998
 21
213.2
 31
0.0
  0
LINE
  5
11A0
100
AcDbEntity
  8
10000_FRONT
370
    25
390
0
  6
CONTINUOUS
 62
     7
100
AcDbLine
 10
185.375
 20
213.2
 30
0.0
 11
202.875
 21
213.2
 31
0.0
  0
LINE
  5
11A1
100
AcDbEntity
  8
10000_FRONT
370
    25
390
0
  6
CONTINUOUS
 62
     7
100
AcDbLine
 10
162.875001
 20
213.2
 30
0.0
 11
180.375
 21
213.2
 31
0.0
  0
LINE
  5
11A2
100
AcDbEntity
  8
10000_FRONT
370
    25
390
0
  6
CONTINUOUS
 62
     7
100
AcDbLine
 10
137.875001
 20
213.2
 30
0.0
 11
157.875001
 21
213.2
 31
0.0
  0
LINE
  5
11A3
100
AcDbEntity
  8
10000_FRONT
370
    25
390
0
  6
CONTINUOUS
 62
     7
100
AcDbLine
 10
83.775002
 20
213.2
 30
0.0
 11
87.875
 21
213.2
 31
0.0
  0
LINE
  5
11A4
100
AcDbEntity
  8
10000_FRONT
370
    25
390
0
  6
CONTINUOUS
 62
     7
100
AcDbLine
 10
115.375
 20
213.2
 30
0.0
 11
132.875001
 21
213.2
 31
0.0
  0
LINE
  5
11A5
100
AcDbEntity
  8
10000_FRONT
370
    25
390
0
  6
CONTINUOUS
 62
     7
100
AcDbLine
 10
82.275002
 20
213.2
 30
0.0
 11
83.775002
 21
213.2
 31
0.0
  0
LINE
  5
11A6
100
AcDbEntity
  8
10000_FRONT
370
    25
390
0
  6
CONTINUOUS
 62
     7
100
AcDbLine
 10
92.875
 20
213.2
 30
0.0
 11
110.375
 21
213.2
 31
0.0
  0
LINE
  5
11A7
100
AcDbEntity
  8
10000_FRONT
370
    25
390
0
  6
CONTINUOUS
 62
     7
100
AcDbLine
 10
202.875
 20
213.6
 30
0.0
 11
207.875
 21
213.6
 31
0.0
  0
LINE
  5
11A8
100
AcDbEntity
  8
10000_FRONT
370
    25
390
0
  6
CONTINUOUS
 62
     7
100
AcDbLine
 10
180.375
 20
213.6
 30
0.0
 11
185.375
 21
213.6
 31
0.0
  0
LINE
  5
11A9
100
AcDbEntity
  8
10000_FRONT
370
    25
390
0
  6
CONTINUOUS
 62
     7
100
AcDbLine
 10
157.875
 20
213.6
 30
0.0
 11
162.875
 21
213.6
 31
0.0
  0
LINE
  5
11AA
100
AcDbEntity
  8
10000_FRONT
370
    25
390
0
  6
CONTINUOUS
 62
     7
100
AcDbLine
 10
132.875
 20
213.6
 30
0.0
 11
137.875
 21
213.6
 31
0.0
  0
LINE
  5
11AB
100
AcDbEntity
  8
10000_FRONT
370
    25
390
0
  6
CONTINUOUS
 62
     7
100
AcDbLine
 10
110.375
 20
213.6
 30
0.0
 11
115.375
 21
213.6
 31
0.0
  0
LINE
  5
11AC
100
AcDbEntity
  8
10000_FRONT
370
    25
390
0
  6
CONTINUOUS
 62
     7
100
AcDbLine
 10
87.875
 20
213.6
 30
0.0
 11
92.875
 21
213.6
 31
0.0
  0
LINE
  5
11AD
100
AcDbEntity
  8
10000_FRONT
370
    25
390
0
  6
CONTINUOUS
 62
     7
100
AcDbLine
 10
278.975006
 20
214.2
 30
0.0
 11
279.975006
 21
214.2
 31
0.0
  0
LINE
  5
11AE
100
AcDbEntity
  8
10000_FRONT
370
    25
390
0
  6
CONTINUOUS
 62
     7
100
AcDbLine
 10
279.975006
 20
214.5
 30
0.0
 11
302.472061
 21
214.5
 31
0.0
  0
LINE
  5
11AF
100
AcDbEntity
  8
10000_FRONT
370
    25
390
0
  6
CONTINUOUS
 62
     7
100
AcDbLine
 10
244.477943
 20
214.5
 30
0.0
 11
278.975006
 21
214.5
 31
0.0
  0
LINE
  5
11B0
100
AcDbEntity
  8
10000_FRONT
370
    25
390
0
  6
CONTINUOUS
 62
     7
100
AcDbLine
 10
83.775002
 20
214.6
 30
0.0
 11
211.974998
 21
214.6
 31
0.0
  0
LINE
  5
11B1
100
AcDbEntity
  8
10000_FRONT
370
    25
390
0
  6
CONTINUOUS
 62
     7
100
AcDbLine
 10
186.875
 20
225.1
 30
0.0
 11
213.474998
 21
225.1
 31
0.0
  0
LINE
  5
11B2
100
AcDbEntity
  8
10000_FRONT
370
    25
390
0
  6
CONTINUOUS
 62
     7
100
AcDbLine
 10
82.275002
 20
232.6
 30
0.0
 11
186.875
 21
232.6
 31
0.0
  0
LINE
  5
11B3
100
AcDbEntity
  8
10000_FRONT
370
    25
390
0
  6
CONTINUOUS
 62
     7
100
AcDbLine
 10
240.525002
 20
105.634317
 30
0.0
 11
240.925003
 21
105.799997
 31
0.0
  0
LINE
  5
11B4
100
AcDbEntity
  8
10000_FRONT
370
    25
390
0
  6
CONTINUOUS
 62
     7
100
AcDbLine
 10
237.474998
 20
192.734315
 30
0.0
 11
237.875
 21
192.899999
 31
0.0
  0
LINE
  5
11B5
100
AcDbEntity
  8
10000_FRONT
370
    25
390
0
  6
CONTINUOUS
 62
     7
100
AcDbLine
 10
227.875
 20
187.5
 30
0.0
 11
228.275002
 21
187.665685
 31
0.0
  0
LINE
  5
11B6
100
AcDbEntity
  8
10000_FRONT
370
    25
390
0
  6
CONTINUOUS
 62
     7
100
AcDbLine
 10
224.824997
 20
188.6
 30
0.0
 11
225.224998
 21
188.765686
 31
0.0
  0
LINE
  5
11B7
100
AcDbEntity
  8
10000_FRONT
370
    25
390
0
  6
CONTINUOUS
 62
     7
100
AcDbLine
 10
240.525002
 20
191.634315
 30
0.0
 11
240.925003
 21
191.800001
 31
0.0
  0
LINE
  5
11B8
100
AcDbEntity
  8
10000_FRONT
370
    25
390
0
  6
CONTINUOUS
 62
     7
100
AcDbLine
 10
227.875
 20
101.500002
 30
0.0
 11
228.275002
 21
101.665689
 31
0.0
  0
LINE
  5
11B9
100
AcDbEntity
  8
10000_FRONT
370
    25
390
0
  6
CONTINUOUS
 62
     7
100
AcDbLine
 10
237.474998
 20
106.734315
 30
0.0
 11
237.875
 21
106.900003
 31
0.0
  0
LINE
  5
11BA
100
AcDbEntity
  8
10000_FRONT
370
    25
390
0
  6
CONTINUOUS
 62
     7
100
AcDbLine
 10
224.824997
 20
102.6
 30
0.0
 11
225.224998
 21
102.765688
 31
0.0
  0
LINE
  5
11BB
100
AcDbEntity
  8
10000_FRONT
370
    25
390
0
  6
CONTINUOUS
 62
     7
100
AcDbLine
 10
225.224998
 20
105.634317
 30
0.0
 11
225.290688
 21
105.699998
 31
0.0
  0
LINE
  5
11BC
100
AcDbEntity
  8
10000_FRONT
370
    25
390
0
  6
CONTINUOUS
 62
     7
100
AcDbLine
 10
225.224998
 20
191.634315
 30
0.0
 11
225.290688
 21
191.7
 31
0.0
  0
LINE
  5
11BD
100
AcDbEntity
  8
10000_FRONT
370
    25
390
0
  6
CONTINUOUS
 62
     7
100
AcDbLine
 10
240.459312
 20
188.7
 30
0.0
 11
240.525002
 21
188.765686
 31
0.0
  0
LINE
  5
11BE
100
AcDbEntity
  8
10000_FRONT
370
    25
390
0
  6
CONTINUOUS
 62
     7
100
AcDbLine
 10
227.875
 20
106.900003
 30
0.0
 11
228.175003
 21
107.199998
 31
0.0
  0
LINE
  5
11BF
100
AcDbEntity
  8
10000_FRONT
370
    25
390
0
  6
CONTINUOUS
 62
     7
100
AcDbLine
 10
240.625
 20
188.300001
 30
0.0
 11
240.925003
 21
188.6
 31
0.0
  0
LINE
  5
11C0
100
AcDbEntity
  8
10000_FRONT
370
    25
390
0
  6
CONTINUOUS
 62
     7
100
AcDbLine
 10
224.824997
 20
191.800001
 30
0.0
 11
225.125
 21
192.1
 31
0.0
  0
LINE
  5
11C1
100
AcDbEntity
  8
10000_FRONT
370
    25
390
0
  6
CONTINUOUS
 62
     7
100
AcDbLine
 10
237.574997
 20
187.2
 30
0.0
 11
237.875
 21
187.5
 31
0.0
  0
LINE
  5
11C2
100
AcDbEntity
  8
10000_FRONT
370
    25
390
0
  6
CONTINUOUS
 62
     7
100
AcDbLine
 10
227.875
 20
188.300001
 30
0.0
 11
228.275002
 21
188.7
 31
0.0
  0
LINE
  5
11C3
100
AcDbEntity
  8
10000_FRONT
370
    25
390
0
  6
CONTINUOUS
 62
     7
100
AcDbLine
 10
227.875
 20
192.899999
 30
0.0
 11
228.175003
 21
193.2
 31
0.0
  0
LINE
  5
11C4
100
AcDbEntity
  8
10000_FRONT
370
    25
390
0
  6
CONTINUOUS
 62
     7
100
AcDbLine
 10
237.474998
 20
191.7
 30
0.0
 11
237.875
 21
192.1
 31
0.0
  0
LINE
  5
11C5
100
AcDbEntity
  8
10000_FRONT
370
    25
390
0
  6
CONTINUOUS
 62
     7
100
AcDbLine
 10
227.875
 20
102.299997
 30
0.0
 11
228.275002
 21
102.699998
 31
0.0
  0
LINE
  5
11C6
100
AcDbEntity
  8
10000_FRONT
370
    25
390
0
  6
CONTINUOUS
 62
     7
100
AcDbLine
 10
240.625
 20
102.299997
 30
0.0
 11
240.925003
 21
102.6
 31
0.0
  0
LINE
  5
11C7
100
AcDbEntity
  8
10000_FRONT
370
    25
390
0
  6
CONTINUOUS
 62
     7
100
AcDbLine
 10
240.459312
 20
102.699998
 30
0.0
 11
240.525002
 21
102.765688
 31
0.0
  0
LINE
  5
11C8
100
AcDbEntity
  8
10000_FRONT
370
    25
390
0
  6
CONTINUOUS
 62
     7
100
AcDbLine
 10
237.474998
 20
105.699998
 30
0.0
 11
237.875
 21
106.1
 31
0.0
  0
LINE
  5
11C9
100
AcDbEntity
  8
10000_FRONT
370
    25
390
0
  6
CONTINUOUS
 62
     7
100
AcDbLine
 10
224.824997
 20
105.799997
 30
0.0
 11
225.125
 21
106.1
 31
0.0
  0
LINE
  5
11CA
100
AcDbEntity
  8
10000_FRONT
370
    25
390
0
  6
CONTINUOUS
 62
     7
100
AcDbLine
 10
316.975006
 20
127.6
 30
0.0
 11
317.475006
 21
128.1
 31
0.0
  0
LINE
  5
11CB
100
AcDbEntity
  8
10000_FRONT
370
    25
390
0
  6
CONTINUOUS
 62
     7
100
AcDbLine
 10
241.875
 20
127.6
 30
0.0
 11
242.375
 21
128.1
 31
0.0
  0
LINE
  5
11CC
100
AcDbEntity
  8
10000_FRONT
370
    25
390
0
  6
CONTINUOUS
 62
     7
100
AcDbLine
 10
353.375
 20
168.1
 30
0.0
 11
353.875
 21
168.6
 31
0.0
  0
LINE
  5
11CD
100
AcDbEntity
  8
10000_FRONT
370
    25
390
0
  6
CONTINUOUS
 62
     7
100
AcDbLine
 10
335.975006
 20
168.1
 30
0.0
 11
336.475006
 21
168.6
 31
0.0
  0
LINE
  5
11CE
100
AcDbEntity
  8
10000_FRONT
370
    25
390
0
  6
CONTINUOUS
 62
     7
100
AcDbLine
 10
261.275002
 20
168.1
 30
0.0
 11
261.775002
 21
168.6
 31
0.0
  0
LINE
  5
11CF
100
AcDbEntity
  8
10000_FRONT
370
    25
390
0
  6
CONTINUOUS
 62
     7
100
AcDbLine
 10
278.274994
 20
168.1
 30
0.0
 11
278.774994
 21
168.6
 31
0.0
  0
LINE
  5
11D0
100
AcDbEntity
  8
10000_FRONT
370
    25
390
0
  6
CONTINUOUS
 62
     7
100
AcDbLine
 10
240.275002
 20
210.297056
 30
0.0
 11
244.477943
 21
214.5
 31
0.0
  0
LINE
  5
11D1
100
AcDbEntity
  8
10000_FRONT
370
    25
390
0
  6
CONTINUOUS
 62
     7
100
AcDbLine
 10
207.875
 20
213.6
 30
0.0
 11
208.875
 21
214.6
 31
0.0
  0
LINE
  5
11D2
100
AcDbEntity
  8
10000_FRONT
370
    25
390
0
  6
CONTINUOUS
 62
     7
100
AcDbLine
 10
185.375
 20
213.6
 30
0.0
 11
186.375
 21
214.6
 31
0.0
  0
LINE
  5
11D3
100
AcDbEntity
  8
10000_FRONT
370
    25
390
0
  6
CONTINUOUS
 62
     7
100
AcDbLine
 10
162.875
 20
213.6
 30
0.0
 11
163.875
 21
214.6
 31
0.0
  0
LINE
  5
11D4
100
AcDbEntity
  8
10000_FRONT
370
    25
390
0
  6
CONTINUOUS
 62
     7
100
AcDbLine
 10
137.875
 20
213.6
 30
0.0
 11
138.875
 21
214.6
 31
0.0
  0
LINE
  5
11D5
100
AcDbEntity
  8
10000_FRONT
370
    25
390
0
  6
CONTINUOUS
 62
     7
100
AcDbLine
 10
115.375
 20
213.6
 30
0.0
 11
116.375
 21
214.6
 31
0.0
  0
LINE
  5
11D6
100
AcDbEntity
  8
10000_FRONT
370
    25
390
0
  6
CONTINUOUS
 62
     7
100
AcDbLine
 10
92.875
 20
213.6
 30
0.0
 11
93.875
 21
214.6
 31
0.0
  0
LINE
  5
11D7
100
AcDbEntity
  8
10000_FRONT
370
    25
390
0
  6
CONTINUOUS
 62
     7
100
AcDbLine
 10
237.574997
 20
101.199998
 30
0.0
 11
237.875
 21
101.500002
 31
0.0
  0
LINE
  5
11D8
100
AcDbEntity
  8
10000_FRONT
370
    25
390
0
  6
CONTINUOUS
 62
     7
100
AcDbLine
 10
148.975
 20
145.199998
 30
0.0
 11
149.275
 21
145.500002
 31
0.0
  0
LINE
  5
11D9
100
AcDbEntity
  8
10000_FRONT
370
    25
390
0
  6
CONTINUOUS
 62
     7
100
AcDbLine
 10
153.775
 20
145.199998
 30
0.0
 11
154.075
 21
145.500002
 31
0.0
  0
LINE
  5
11DA
100
AcDbEntity
  8
10000_FRONT
370
    25
390
0
  6
CONTINUOUS
 62
     7
100
AcDbLine
 10
152.675
 20
148.699998
 30
0.0
 11
152.975
 21
149.000002
 31
0.0
  0
LINE
  5
11DB
100
AcDbEntity
  8
10000_FRONT
370
    25
390
0
  6
CONTINUOUS
 62
     7
100
AcDbLine
 10
147.875
 20
148.699998
 30
0.0
 11
148.175
 21
149.000002
 31
0.0
  0
LINE
  5
11DC
100
AcDbEntity
  8
10000_FRONT
370
    25
390
0
  6
CONTINUOUS
 62
     7
100
AcDbLine
 10
148.975
 20
165.199998
 30
0.0
 11
149.275
 21
165.500002
 31
0.0
  0
LINE
  5
11DD
100
AcDbEntity
  8
10000_FRONT
370
    25
390
0
  6
CONTINUOUS
 62
     7
100
AcDbLine
 10
153.775
 20
165.199998
 30
0.0
 11
154.075
 21
165.500002
 31
0.0
  0
LINE
  5
11DE
100
AcDbEntity
  8
10000_FRONT
370
    25
390
0
  6
CONTINUOUS
 62
     7
100
AcDbLine
 10
152.675
 20
168.699998
 30
0.0
 11
152.975
 21
169.000002
 31
0.0
  0
LINE
  5
11DF
100
AcDbEntity
  8
10000_FRONT
370
    25
390
0
  6
CONTINUOUS
 62
     7
100
AcDbLine
 10
147.875
 20
168.699998
 30
0.0
 11
148.175
 21
169.000002
 31
0.0
  0
LINE
  5
11E0
100
AcDbEntity
  8
10000_FRONT
370
    25
390
0
  6
CONTINUOUS
 62
     7
100
AcDbLine
 10
228.275002
 20
106.734315
 30
0.0
 11
228.340683
 21
106.799997
 31
0.0
  0
LINE
  5
11E1
100
AcDbEntity
  8
10000_FRONT
370
    25
390
0
  6
CONTINUOUS
 62
     7
100
AcDbLine
 10
237.409317
 20
187.6
 30
0.0
 11
237.474998
 21
187.665685
 31
0.0
  0
LINE
  5
11E2
100
AcDbEntity
  8
10000_FRONT
370
    25
390
0
  6
CONTINUOUS
 62
     7
100
AcDbLine
 10
228.275002
 20
192.734315
 30
0.0
 11
228.340683
 21
192.800001
 31
0.0
  0
LINE
  5
11E3
100
AcDbEntity
  8
10000_FRONT
370
    25
390
0
  6
CONTINUOUS
 62
     7
100
AcDbLine
 10
237.409317
 20
101.6
 30
0.0
 11
237.474998
 21
101.665689
 31
0.0
  0
LINE
  5
11E4
100
AcDbEntity
  8
10000_FRONT
370
    25
390
0
  6
CONTINUOUS
 62
     7
100
AcDbLine
 10
279.725006
 20
125.900003
 30
0.0
 11
280.675003
 21
127.1
 31
0.0
  0
LINE
  5
11E5
100
AcDbEntity
  8
10000_FRONT
370
    25
390
0
  6
CONTINUOUS
 62
     7
100
AcDbLine
 10
205.875
 20
111.067949
 30
0.0
 11
206.875
 21
112.799997
 31
0.0
  0
LINE
  5
11E6
100
AcDbEntity
  8
10000_FRONT
370
    25
390
0
  6
CONTINUOUS
 62
     7
100
AcDbLine
 10
80.875
 20
111.067949
 30
0.0
 11
81.875
 21
112.799997
 31
0.0
  0
LINE
  5
11E7
100
AcDbEntity
  8
10000_FRONT
370
    25
390
0
  6
CONTINUOUS
 62
     7
100
AcDbLine
 10
183.375
 20
111.067949
 30
0.0
 11
184.375
 21
112.799997
 31
0.0
  0
LINE
  5
11E8
100
AcDbEntity
  8
10000_FRONT
370
    25
390
0
  6
CONTINUOUS
 62
     7
100
AcDbLine
 10
103.375
 20
111.067949
 30
0.0
 11
104.375
 21
112.799997
 31
0.0
  0
LINE
  5
11E9
100
AcDbEntity
  8
10000_FRONT
370
    25
390
0
  6
CONTINUOUS
 62
     7
100
AcDbLine
 10
160.875
 20
111.067949
 30
0.0
 11
161.875
 21
112.799997
 31
0.0
  0
LINE
  5
11EA
100
AcDbEntity
  8
10000_FRONT
370
    25
390
0
  6
CONTINUOUS
 62
     7
100
AcDbLine
 10
125.875
 20
111.067949
 30
0.0
 11
126.875
 21
112.799997
 31
0.0
  0
LINE
  5
11EB
100
AcDbEntity
  8
10000_FRONT
370
    25
390
0
  6
CONTINUOUS
 62
     7
100
AcDbLine
 10
225.125
 20
188.300001
 30
0.0
 11
225.290688
 21
188.7
 31
0.0
  0
LINE
  5
11EC
100
AcDbEntity
  8
10000_FRONT
370
    25
390
0
  6
CONTINUOUS
 62
     7
100
AcDbLine
 10
240.459312
 20
191.7
 30
0.0
 11
240.625
 21
192.1
 31
0.0
  0
LINE
  5
11ED
100
AcDbEntity
  8
10000_FRONT
370
    25
390
0
  6
CONTINUOUS
 62
     7
100
AcDbLine
 10
225.125
 20
102.299997
 30
0.0
 11
225.290688
 21
102.699998
 31
0.0
  0
LINE
  5
11EE
100
AcDbEntity
  8
10000_FRONT
370
    25
390
0
  6
CONTINUOUS
 62
     7
100
AcDbLine
 10
240.459312
 20
105.699998
 30
0.0
 11
240.625
 21
106.1
 31
0.0
  0
LINE
  5
11EF
100
AcDbEntity
  8
10000_FRONT
370
    25
390
0
  6
CONTINUOUS
 62
     7
100
AcDbLine
 10
237.409317
 20
192.800001
 30
0.0
 11
237.574997
 21
193.2
 31
0.0
  0
LINE
  5
11F0
100
AcDbEntity
  8
10000_FRONT
370
    25
390
0
  6
CONTINUOUS
 62
     7
100
AcDbLine
 10
228.175003
 20
187.2
 30
0.0
 11
228.340683
 21
187.6
 31
0.0
  0
LINE
  5
11F1
100
AcDbEntity
  8
10000_FRONT
370
    25
390
0
  6
CONTINUOUS
 62
     7
100
AcDbLine
 10
237.409317
 20
106.799997
 30
0.0
 11
237.574997
 21
107.199998
 31
0.0
  0
LINE
  5
11F2
100
AcDbEntity
  8
10000_FRONT
370
    25
390
0
  6
CONTINUOUS
 62
     7
100
AcDbLine
 10
228.175003
 20
101.199998
 30
0.0
 11
228.340683
 21
101.6
 31
0.0
  0
LINE
  5
11F3
100
AcDbEntity
  8
10000_FRONT
370
    25
390
0
  6
CONTINUOUS
 62
     7
100
AcDbLine
 10
252.675003
 20
167.1
 30
0.0
 11
252.939491
 21
168.422456
 31
0.0
  0
LINE
  5
11F4
100
AcDbEntity
  8
10000_FRONT
370
    25
390
0
  6
CONTINUOUS
 62
     7
100
AcDbLine
 10
332.475006
 20
167.1
 30
0.0
 11
332.739487
 21
168.422456
 31
0.0
  0
LINE
  5
11F5
100
AcDbEntity
  8
10000_FRONT
370
    25
390
0
  6
CONTINUOUS
 62
     7
100
AcDbLine
 10
252.939491
 20
168.422456
 30
0.0
 11
252.974998
 21
169.1
 31
0.0
  0
LINE
  5
11F6
100
AcDbEntity
  8
10000_FRONT
370
    25
390
0
  6
CONTINUOUS
 62
     7
100
AcDbLine
 10
332.739487
 20
168.422456
 30
0.0
 11
332.774994
 21
169.1
 31
0.0
  0
LINE
  5
11F7
100
AcDbEntity
  8
10000_FRONT
370
    25
390
0
  6
CONTINUOUS
 62
     7
100
AcDbLine
 10
72.875
 20
81.400003
 30
0.0
 11
72.875
 21
97.400003
 31
0.0
  0
LINE
  5
11F8
100
AcDbEntity
  8
10000_FRONT
370
    25
390
0
  6
CONTINUOUS
 62
     7
100
AcDbLine
 10
80.875
 20
97.400003
 30
0.0
 11
80.875
 21
111.067949
 31
0.0
  0
LINE
  5
11F9
100
AcDbEntity
  8
10000_FRONT
370
    25
390
0
  6
CONTINUOUS
 62
     7
100
AcDbLine
 10
82.275002
 20
213.2
 30
0.0
 11
82.275002
 21
232.6
 31
0.0
  0
LINE
  5
11FA
100
AcDbEntity
  8
10000_FRONT
370
    25
390
0
  6
CONTINUOUS
 62
     7
100
AcDbLine
 10
83.775002
 20
213.2
 30
0.0
 11
83.775002
 21
214.6
 31
0.0
  0
LINE
  5
11FB
100
AcDbEntity
  8
10000_FRONT
370
    25
390
0
  6
CONTINUOUS
 62
     7
100
AcDbLine
 10
87.875
 20
196.300001
 30
0.0
 11
87.875
 21
213.6
 31
0.0
  0
LINE
  5
11FC
100
AcDbEntity
  8
10000_FRONT
370
    25
390
0
  6
CONTINUOUS
 62
     7
100
AcDbLine
 10
89.875
 20
97.400003
 30
0.0
 11
89.875
 21
111.067949
 31
0.0
  0
LINE
  5
11FD
100
AcDbEntity
  8
10000_FRONT
370
    25
390
0
  6
CONTINUOUS
 62
     7
100
AcDbLine
 10
92.875
 20
196.300001
 30
0.0
 11
92.875
 21
213.6
 31
0.0
  0
LINE
  5
11FE
100
AcDbEntity
  8
10000_FRONT
370
    25
390
0
  6
CONTINUOUS
 62
     7
100
AcDbLine
 10
103.375
 20
97.400003
 30
0.0
 11
103.375
 21
111.067949
 31
0.0
  0
LINE
  5
11FF
100
AcDbEntity
  8
10000_FRONT
370
    25
390
0
  6
CONTINUOUS
 62
     7
100
AcDbLine
 10
110.375
 20
196.300001
 30
0.0
 11
110.375
 21
213.6
 31
0.0
  0
LINE
  5
1200
100
AcDbEntity
  8
10000_FRONT
370
    25
390
0
  6
CONTINUOUS
 62
     7
100
AcDbLine
 10
112.375
 20
97.400003
 30
0.0
 11
112.375
 21
111.067949
 31
0.0
  0
LINE
  5
1201
100
AcDbEntity
  8
10000_FRONT
370
    25
390
0
  6
CONTINUOUS
 62
     7
100
AcDbLine
 10
115.375
 20
196.300001
 30
0.0
 11
115.375
 21
213.6
 31
0.0
  0
LINE
  5
1202
100
AcDbEntity
  8
10000_FRONT
370
    25
390
0
  6
CONTINUOUS
 62
     7
100
AcDbLine
 10
125.875
 20
97.400003
 30
0.0
 11
125.875
 21
111.067949
 31
0.0
  0
LINE
  5
1203
100
AcDbEntity
  8
10000_FRONT
370
    25
390
0
  6
CONTINUOUS
 62
     7
100
AcDbLine
 10
132.875
 20
196.300001
 30
0.0
 11
132.875
 21
213.6
 31
0.0
  0
LINE
  5
1204
100
AcDbEntity
  8
10000_FRONT
370
    25
390
0
  6
CONTINUOUS
 62
     7
100
AcDbLine
 10
134.875
 20
97.400003
 30
0.0
 11
134.875
 21
111.067949
 31
0.0
  0
LINE
  5
1205
100
AcDbEntity
  8
10000_FRONT
370
    25
390
0
  6
CONTINUOUS
 62
     7
100
AcDbLine
 10
137.875
 20
196.300001
 30
0.0
 11
137.875
 21
213.6
 31
0.0
  0
LINE
  5
1206
100
AcDbEntity
  8
10000_FRONT
370
    25
390
0
  6
CONTINUOUS
 62
     7
100
AcDbLine
 10
147.875
 20
165.500002
 30
0.0
 11
147.875
 21
168.699998
 31
0.0
  0
LINE
  5
1207
100
AcDbEntity
  8
10000_FRONT
370
    25
390
0
  6
CONTINUOUS
 62
     7
100
AcDbLine
 10
147.875
 20
145.500002
 30
0.0
 11
147.875
 21
148.699998
 31
0.0
  0
LINE
  5
1208
100
AcDbEntity
  8
10000_FRONT
370
    25
390
0
  6
CONTINUOUS
 62
     7
100
AcDbLine
 10
148.175
 20
164.320001
 30
0.0
 11
148.175
 21
165.199998
 31
0.0
  0
LINE
  5
1209
100
AcDbEntity
  8
10000_FRONT
370
    25
390
0
  6
CONTINUOUS
 62
     7
100
AcDbLine
 10
148.175
 20
169.000002
 30
0.0
 11
148.175
 21
169.879999
 31
0.0
  0
LINE
  5
120A
100
AcDbEntity
  8
10000_FRONT
370
    25
390
0
  6
CONTINUOUS
 62
     7
100
AcDbLine
 10
148.175
 20
144.320001
 30
0.0
 11
148.175
 21
145.199998
 31
0.0
  0
LINE
  5
120B
100
AcDbEntity
  8
10000_FRONT
370
    25
390
0
  6
CONTINUOUS
 62
     7
100
AcDbLine
 10
148.175
 20
149.000002
 30
0.0
 11
148.175
 21
149.879999
 31
0.0
  0
LINE
  5
120C
100
AcDbEntity
  8
10000_FRONT
370
    25
390
0
  6
CONTINUOUS
 62
     7
100
AcDbLine
 10
149.175
 20
164.320001
 30
0.0
 11
149.175
 21
165.199998
 31
0.0
  0
LINE
  5
120D
100
AcDbEntity
  8
10000_FRONT
370
    25
390
0
  6
CONTINUOUS
 62
     7
100
AcDbLine
 10
149.175
 20
169.000002
 30
0.0
 11
149.175
 21
169.879999
 31
0.0
  0
LINE
  5
120E
100
AcDbEntity
  8
10000_FRONT
370
    25
390
0
  6
CONTINUOUS
 62
     7
100
AcDbLine
 10
149.175
 20
144.320001
 30
0.0
 11
149.175
 21
145.199998
 31
0.0
  0
LINE
  5
120F
100
AcDbEntity
  8
10000_FRONT
370
    25
390
0
  6
CONTINUOUS
 62
     7
100
AcDbLine
 10
149.175
 20
149.000002
 30
0.0
 11
149.175
 21
149.879999
 31
0.0
  0
LINE
  5
1210
100
AcDbEntity
  8
10000_FRONT
370
    25
390
0
  6
CONTINUOUS
 62
     7
100
AcDbLine
 10
149.275
 20
168.000002
 30
0.0
 11
149.275
 21
168.699998
 31
0.0
  0
LINE
  5
1211
100
AcDbEntity
  8
10000_FRONT
370
    25
390
0
  6
CONTINUOUS
 62
     7
100
AcDbLine
 10
149.275
 20
165.500002
 30
0.0
 11
149.275
 21
166.199998
 31
0.0
  0
LINE
  5
1212
100
AcDbEntity
  8
10000_FRONT
370
    25
390
0
  6
CONTINUOUS
 62
     7
100
AcDbLine
 10
149.275
 20
148.000002
 30
0.0
 11
149.275
 21
148.699998
 31
0.0
  0
LINE
  5
1213
100
AcDbEntity
  8
10000_FRONT
370
    25
390
0
  6
CONTINUOUS
 62
     7
100
AcDbLine
 10
149.275
 20
145.500002
 30
0.0
 11
149.275
 21
146.199998
 31
0.0
  0
LINE
  5
1214
100
AcDbEntity
  8
10000_FRONT
370
    25
390
0
  6
CONTINUOUS
 62
     7
100
AcDbLine
 10
152.675
 20
165.500002
 30
0.0
 11
152.675
 21
166.199998
 31
0.0
  0
LINE
  5
1215
100
AcDbEntity
  8
10000_FRONT
370
    25
390
0
  6
CONTINUOUS
 62
     7
100
AcDbLine
 10
152.675
 20
168.000002
 30
0.0
 11
152.675
 21
168.699998
 31
0.0
  0
LINE
  5
1216
100
AcDbEntity
  8
10000_FRONT
370
    25
390
0
  6
CONTINUOUS
 62
     7
100
AcDbLine
 10
152.675
 20
145.500002
 30
0.0
 11
152.675
 21
146.199998
 31
0.0
  0
LINE
  5
1217
100
AcDbEntity
  8
10000_FRONT
370
    25
390
0
  6
CONTINUOUS
 62
     7
100
AcDbLine
 10
152.675
 20
148.000002
 30
0.0
 11
152.675
 21
148.699998
 31
0.0
  0
LINE
  5
1218
100
AcDbEntity
  8
10000_FRONT
370
    25
390
0
  6
CONTINUOUS
 62
     7
100
AcDbLine
 10
152.775
 20
164.320001
 30
0.0
 11
152.775
 21
165.199998
 31
0.0
  0
LINE
  5
1219
100
AcDbEntity
  8
10000_FRONT
370
    25
390
0
  6
CONTINUOUS
 62
     7
100
AcDbLine
 10
152.775
 20
169.000002
 30
0.0
 11
152.775
 21
169.879999
 31
0.0
  0
LINE
  5
121A
100
AcDbEntity
  8
10000_FRONT
370
    25
390
0
  6
CONTINUOUS
 62
     7
100
AcDbLine
 10
152.775
 20
144.320001
 30
0.0
 11
152.775
 21
145.199998
 31
0.0
  0
LINE
  5
121B
100
AcDbEntity
  8
10000_FRONT
370
    25
390
0
  6
CONTINUOUS
 62
     7
100
AcDbLine
 10
152.775
 20
149.000002
 30
0.0
 11
152.775
 21
149.879999
 31
0.0
  0
LINE
  5
121C
100
AcDbEntity
  8
10000_FRONT
370
    25
390
0
  6
CONTINUOUS
 62
     7
100
AcDbLine
 10
153.775
 20
164.320001
 30
0.0
 11
153.775
 21
165.199998
 31
0.0
  0
LINE
  5
121D
100
AcDbEntity
  8
10000_FRONT
370
    25
390
0
  6
CONTINUOUS
 62
     7
100
AcDbLine
 10
153.775
 20
169.000002
 30
0.0
 11
153.775
 21
169.879999
 31
0.0
  0
LINE
  5
121E
100
AcDbEntity
  8
10000_FRONT
370
    25
390
0
  6
CONTINUOUS
 62
     7
100
AcDbLine
 10
153.775
 20
144.320001
 30
0.0
 11
153.775
 21
145.199998
 31
0.0
  0
LINE
  5
121F
100
AcDbEntity
  8
10000_FRONT
370
    25
390
0
  6
CONTINUOUS
 62
     7
100
AcDbLine
 10
153.775
 20
149.000002
 30
0.0
 11
153.775
 21
149.879999
 31
0.0
  0
LINE
  5
1220
100
AcDbEntity
  8
10000_FRONT
370
    25
390
0
  6
CONTINUOUS
 62
     7
100
AcDbLine
 10
154.075
 20
165.500002
 30
0.0
 11
154.075
 21
168.699998
 31
0.0
  0
LINE
  5
1221
100
AcDbEntity
  8
10000_FRONT
370
    25
390
0
  6
CONTINUOUS
 62
     7
100
AcDbLine
 10
154.075
 20
145.500002
 30
0.0
 11
154.075
 21
148.699998
 31
0.0
  0
LINE
  5
1222
100
AcDbEntity
  8
10000_FRONT
370
    25
390
0
  6
CONTINUOUS
 62
     7
100
AcDbLine
 10
157.875
 20
196.300001
 30
0.0
 11
157.875
 21
213.6
 31
0.0
  0
LINE
  5
1223
100
AcDbEntity
  8
10000_FRONT
370
    25
390
0
  6
CONTINUOUS
 62
     7
100
AcDbLine
 10
160.875
 20
97.400003
 30
0.0
 11
160.875
 21
111.067949
 31
0.0
  0
LINE
  5
1224
100
AcDbEntity
  8
10000_FRONT
370
    25
390
0
  6
CONTINUOUS
 62
     7
100
AcDbLine
 10
162.875
 20
196.300001
 30
0.0
 11
162.875
 21
213.6
 31
0.0
  0
LINE
  5
1225
100
AcDbEntity
  8
10000_FRONT
370
    25
390
0
  6
CONTINUOUS
 62
     7
100
AcDbLine
 10
169.875
 20
97.400003
 30
0.0
 11
169.875
 21
111.067949
 31
0.0
  0
LINE
  5
1226
100
AcDbEntity
  8
10000_FRONT
370
    25
390
0
  6
CONTINUOUS
 62
     7
100
AcDbLine
 10
180.375
 20
196.300001
 30
0.0
 11
180.375
 21
213.6
 31
0.0
  0
LINE
  5
1227
100
AcDbEntity
  8
10000_FRONT
370
    25
390
0
  6
CONTINUOUS
 62
     7
100
AcDbLine
 10
183.375
 20
97.400003
 30
0.0
 11
183.375
 21
111.067949
 31
0.0
  0
LINE
  5
1228
100
AcDbEntity
  8
10000_FRONT
370
    25
390
0
  6
CONTINUOUS
 62
     7
100
AcDbLine
 10
185.375
 20
196.300001
 30
0.0
 11
185.375
 21
213.6
 31
0.0
  0
LINE
  5
1229
100
AcDbEntity
  8
10000_FRONT
370
    25
390
0
  6
CONTINUOUS
 62
     7
100
AcDbLine
 10
186.875
 20
225.1
 30
0.0
 11
186.875
 21
232.6
 31
0.0
  0
LINE
  5
122A
100
AcDbEntity
  8
10000_FRONT
370
    25
390
0
  6
CONTINUOUS
 62
     7
100
AcDbLine
 10
192.375
 20
97.400003
 30
0.0
 11
192.375
 21
111.067949
 31
0.0
  0
LINE
  5
122B
100
AcDbEntity
  8
10000_FRONT
370
    25
390
0
  6
CONTINUOUS
 62
     7
100
AcDbLine
 10
202.875
 20
196.300001
 30
0.0
 11
202.875
 21
213.6
 31
0.0
  0
LINE
  5
122C
100
AcDbEntity
  8
10000_FRONT
370
    25
390
0
  6
CONTINUOUS
 62
     7
100
AcDbLine
 10
205.875
 20
97.400003
 30
0.0
 11
205.875
 21
111.067949
 31
0.0
  0
LINE
  5
122D
100
AcDbEntity
  8
10000_FRONT
370
    25
390
0
  6
CONTINUOUS
 62
     7
100
AcDbLine
 10
207.875
 20
196.300001
 30
0.0
 11
207.875
 21
213.6
 31
0.0
  0
LINE
  5
122E
100
AcDbEntity
  8
10000_FRONT
370
    25
390
0
  6
CONTINUOUS
 62
     7
100
AcDbLine
 10
211.974998
 20
213.2
 30
0.0
 11
211.974998
 21
214.6
 31
0.0
  0
LINE
  5
122F
100
AcDbEntity
  8
10000_FRONT
370
    25
390
0
  6
CONTINUOUS
 62
     7
100
AcDbLine
 10
213.474998
 20
213.2
 30
0.0
 11
213.474998
 21
225.1
 31
0.0
  0
LINE
  5
1230
100
AcDbEntity
  8
10000_FRONT
370
    25
390
0
  6
CONTINUOUS
 62
     7
100
AcDbLine
 10
214.875
 20
97.400003
 30
0.0
 11
214.875
 21
111.067949
 31
0.0
  0
LINE
  5
1231
100
AcDbEntity
  8
10000_FRONT
370
    25
390
0
  6
CONTINUOUS
 62
     7
100
AcDbLine
 10
222.875
 20
81.400003
 30
0.0
 11
222.875
 21
97.400003
 31
0.0
  0
LINE
  5
1232
100
AcDbEntity
  8
10000_FRONT
370
    25
390
0
  6
CONTINUOUS
 62
     7
100
AcDbLine
 10
224.824997
 20
102.6
 30
0.0
 11
224.824997
 21
105.799997
 31
0.0
  0
LINE
  5
1233
100
AcDbEntity
  8
10000_FRONT
370
    25
390
0
  6
CONTINUOUS
 62
     7
100
AcDbLine
 10
224.824997
 20
188.6
 30
0.0
 11
224.824997
 21
191.800001
 31
0.0
  0
LINE
  5
1234
100
AcDbEntity
  8
10000_FRONT
370
    25
390
0
  6
CONTINUOUS
 62
     7
100
AcDbLine
 10
225.125
 20
106.1
 30
0.0
 11
225.125
 21
106.899339
 31
0.0
  0
LINE
  5
1235
100
AcDbEntity
  8
10000_FRONT
370
    25
390
0
  6
CONTINUOUS
 62
     7
100
AcDbLine
 10
225.125
 20
101.525262
 30
0.0
 11
225.125
 21
102.299997
 31
0.0
  0
LINE
  5
1236
100
AcDbEntity
  8
10000_FRONT
370
    25
390
0
  6
CONTINUOUS
 62
     7
100
AcDbLine
 10
225.125
 20
101.500658
 30
0.0
 11
225.125
 21
101.525262
 31
0.0
  0
LINE
  5
1237
100
AcDbEntity
  8
10000_FRONT
370
    25
390
0
  6
CONTINUOUS
 62
     7
100
AcDbLine
 10
225.125
 20
192.1
 30
0.0
 11
225.125
 21
192.874738
 31
0.0
  0
LINE
  5
1238
100
AcDbEntity
  8
10000_FRONT
370
    25
390
0
  6
CONTINUOUS
 62
     7
100
AcDbLine
 10
225.125
 20
192.874738
 30
0.0
 11
225.125
 21
192.899341
 31
0.0
  0
LINE
  5
1239
100
AcDbEntity
  8
10000_FRONT
370
    25
390
0
  6
CONTINUOUS
 62
     7
100
AcDbLine
 10
225.125
 20
187.525262
 30
0.0
 11
225.125
 21
188.300001
 31
0.0
  0
LINE
  5
123A
100
AcDbEntity
  8
10000_FRONT
370
    25
390
0
  6
CONTINUOUS
 62
     7
100
AcDbLine
 10
225.125
 20
187.500658
 30
0.0
 11
225.125
 21
187.525262
 31
0.0
  0
LINE
  5
123B
100
AcDbEntity
  8
10000_FRONT
370
    25
390
0
  6
CONTINUOUS
 62
     7
100
AcDbLine
 10
225.224998
 20
102.765688
 30
0.0
 11
225.224998
 21
105.634317
 31
0.0
  0
LINE
  5
123C
100
AcDbEntity
  8
10000_FRONT
370
    25
390
0
  6
CONTINUOUS
 62
     7
100
AcDbLine
 10
225.224998
 20
188.765686
 30
0.0
 11
225.224998
 21
191.634315
 31
0.0
  0
LINE
  5
123D
100
AcDbEntity
  8
10000_FRONT
370
    25
390
0
  6
CONTINUOUS
 62
     7
100
AcDbLine
 10
226.125
 20
106.1
 30
0.0
 11
226.125
 21
106.899339
 31
0.0
  0
LINE
  5
123E
100
AcDbEntity
  8
10000_FRONT
370
    25
390
0
  6
CONTINUOUS
 62
     7
100
AcDbLine
 10
226.125
 20
101.525262
 30
0.0
 11
226.125
 21
102.299997
 31
0.0
  0
LINE
  5
123F
100
AcDbEntity
  8
10000_FRONT
370
    25
390
0
  6
CONTINUOUS
 62
     7
100
AcDbLine
 10
226.125
 20
101.500658
 30
0.0
 11
226.125
 21
101.525262
 31
0.0
  0
LINE
  5
1240
100
AcDbEntity
  8
10000_FRONT
370
    25
390
0
  6
CONTINUOUS
 62
     7
100
AcDbLine
 10
226.125
 20
192.1
 30
0.0
 11
226.125
 21
192.874738
 31
0.0
  0
LINE
  5
1241
100
AcDbEntity
  8
10000_FRONT
370
    25
390
0
  6
CONTINUOUS
 62
     7
100
AcDbLine
 10
226.125
 20
192.874738
 30
0.0
 11
226.125
 21
192.899341
 31
0.0
  0
LINE
  5
1242
100
AcDbEntity
  8
10000_FRONT
370
    25
390
0
  6
CONTINUOUS
 62
     7
100
AcDbLine
 10
226.125
 20
187.525262
 30
0.0
 11
226.125
 21
188.300001
 31
0.0
  0
LINE
  5
1243
100
AcDbEntity
  8
10000_FRONT
370
    25
390
0
  6
CONTINUOUS
 62
     7
100
AcDbLine
 10
226.125
 20
187.500658
 30
0.0
 11
226.125
 21
187.525262
 31
0.0
  0
LINE
  5
1244
100
AcDbEntity
  8
10000_FRONT
370
    25
390
0
  6
CONTINUOUS
 62
     7
100
AcDbLine
 10
227.875
 20
146.6
 30
0.0
 11
227.875
 21
147.6
 31
0.0
  0
LINE
  5
1245
100
AcDbEntity
  8
10000_FRONT
370
    25
390
0
  6
CONTINUOUS
 62
     7
100
AcDbLine
 10
227.875
 20
101.500002
 30
0.0
 11
227.875
 21
102.299997
 31
0.0
  0
LINE
  5
1246
100
AcDbEntity
  8
10000_FRONT
370
    25
390
0
  6
CONTINUOUS
 62
     7
100
AcDbLine
 10
227.875
 20
106.1
 30
0.0
 11
227.875
 21
106.900003
 31
0.0
  0
LINE
  5
1247
100
AcDbEntity
  8
10000_FRONT
370
    25
390
0
  6
CONTINUOUS
 62
     7
100
AcDbLine
 10
227.875
 20
187.5
 30
0.0
 11
227.875
 21
188.300001
 31
0.0
  0
LINE
  5
1248
100
AcDbEntity
  8
10000_FRONT
370
    25
390
0
  6
CONTINUOUS
 62
     7
100
AcDbLine
 10
227.875
 20
192.1
 30
0.0
 11
227.875
 21
192.899999
 31
0.0
  0
LINE
  5
1249
100
AcDbEntity
  8
10000_FRONT
370
    25
390
0
  6
CONTINUOUS
 62
     7
100
AcDbLine
 10
228.275002
 20
101.665689
 30
0.0
 11
228.275002
 21
102.699998
 31
0.0
  0
LINE
  5
124A
100
AcDbEntity
  8
10000_FRONT
370
    25
390
0
  6
CONTINUOUS
 62
     7
100
AcDbLine
 10
228.275002
 20
105.699998
 30
0.0
 11
228.275002
 21
106.734315
 31
0.0
  0
LINE
  5
124B
100
AcDbEntity
  8
10000_FRONT
370
    25
390
0
  6
CONTINUOUS
 62
     7
100
AcDbLine
 10
228.275002
 20
187.665685
 30
0.0
 11
228.275002
 21
188.7
 31
0.0
  0
LINE
  5
124C
100
AcDbEntity
  8
10000_FRONT
370
    25
390
0
  6
CONTINUOUS
 62
     7
100
AcDbLine
 10
228.275002
 20
191.7
 30
0.0
 11
228.275002
 21
192.734315
 31
0.0
  0
LINE
  5
124D
100
AcDbEntity
  8
10000_FRONT
370
    25
390
0
  6
CONTINUOUS
 62
     7
100
AcDbLine
 10
229.375
 20
102.699998
 30
0.0
 11
229.375
 21
105.699998
 31
0.0
  0
LINE
  5
124E
100
AcDbEntity
  8
10000_FRONT
370
    25
390
0
  6
CONTINUOUS
 62
     7
100
AcDbLine
 10
229.375
 20
188.7
 30
0.0
 11
229.375
 21
191.7
 31
0.0
  0
LINE
  5
124F
100
AcDbEntity
  8
10000_FRONT
370
    25
390
0
  6
CONTINUOUS
 62
     7
100
AcDbLine
 10
232.875
 20
146.1
 30
0.0
 11
232.875
 21
148.1
 31
0.0
  0
LINE
  5
1250
100
AcDbEntity
  8
10000_FRONT
370
    25
390
0
  6
CONTINUOUS
 62
     7
100
AcDbLine
 10
235.625
 20
167.1
 30
0.0
 11
235.625
 21
181.300001
 31
0.0
  0
LINE
  5
1251
100
AcDbEntity
  8
10000_FRONT
370
    25
390
0
  6
CONTINUOUS
 62
     7
100
AcDbLine
 10
235.625
 20
115.6
 30
0.0
 11
235.625
 21
127.1
 31
0.0
  0
LINE
  5
1252
100
AcDbEntity
  8
10000_FRONT
370
    25
390
0
  6
CONTINUOUS
 62
     7
100
AcDbLine
 10
236.375
 20
102.699998
 30
0.0
 11
236.375
 21
105.699998
 31
0.0
  0
LINE
  5
1253
100
AcDbEntity
  8
10000_FRONT
370
    25
390
0
  6
CONTINUOUS
 62
     7
100
AcDbLine
 10
236.375
 20
188.7
 30
0.0
 11
236.375
 21
191.7
 31
0.0
  0
LINE
  5
1254
100
AcDbEntity
  8
10000_FRONT
370
    25
390
0
  6
CONTINUOUS
 62
     7
100
AcDbLine
 10
237.474998
 20
101.665689
 30
0.0
 11
237.474998
 21
102.699998
 31
0.0
  0
LINE
  5
1255
100
AcDbEntity
  8
10000_FRONT
370
    25
390
0
  6
CONTINUOUS
 62
     7
100
AcDbLine
 10
237.474998
 20
105.699998
 30
0.0
 11
237.474998
 21
106.734315
 31
0.0
  0
LINE
  5
1256
100
AcDbEntity
  8
10000_FRONT
370
    25
390
0
  6
CONTINUOUS
 62
     7
100
AcDbLine
 10
237.474998
 20
187.665685
 30
0.0
 11
237.474998
 21
188.7
 31
0.0
  0
LINE
  5
1257
100
AcDbEntity
  8
10000_FRONT
370
    25
390
0
  6
CONTINUOUS
 62
     7
100
AcDbLine
 10
237.474998
 20
191.7
 30
0.0
 11
237.474998
 21
192.734315
 31
0.0
  0
LINE
  5
1258
100
AcDbEntity
  8
10000_FRONT
370
    25
390
0
  6
CONTINUOUS
 62
     7
100
AcDbLine
 10
237.875
 20
106.1
 30
0.0
 11
237.875
 21
106.900003
 31
0.0
  0
LINE
  5
1259
100
AcDbEntity
  8
10000_FRONT
370
    25
390
0
  6
CONTINUOUS
 62
     7
100
AcDbLine
 10
237.875
 20
101.500002
 30
0.0
 11
237.875
 21
102.299997
 31
0.0
  0
LINE
  5
125A
100
AcDbEntity
  8
10000_FRONT
370
    25
390
0
  6
CONTINUOUS
 62
     7
100
AcDbLine
 10
237.875
 20
192.1
 30
0.0
 11
237.875
 21
192.899999
 31
0.0
  0
LINE
  5
125B
100
AcDbEntity
  8
10000_FRONT
370
    25
390
0
  6
CONTINUOUS
 62
     7
100
AcDbLine
 10
237.875
 20
187.5
 30
0.0
 11
237.875
 21
188.300001
 31
0.0
  0
LINE
  5
125C
100
AcDbEntity
  8
10000_FRONT
370
    25
390
0
  6
CONTINUOUS
 62
     7
100
AcDbLine
 10
239.625
 20
106.1
 30
0.0
 11
239.625
 21
106.899339
 31
0.0
  0
LINE
  5
125D
100
AcDbEntity
  8
10000_FRONT
370
    25
390
0
  6
CONTINUOUS
 62
     7
100
AcDbLine
 10
239.625
 20
101.525262
 30
0.0
 11
239.625
 21
102.299997
 31
0.0
  0
LINE
  5
125E
100
AcDbEntity
  8
10000_FRONT
370
    25
390
0
  6
CONTINUOUS
 62
     7
100
AcDbLine
 10
239.625
 20
101.500658
 30
0.0
 11
239.625
 21
101.525262
 31
0.0
  0
LINE
  5
125F
100
AcDbEntity
  8
10000_FRONT
370
    25
390
0
  6
CONTINUOUS
 62
     7
100
AcDbLine
 10
239.625
 20
192.1
 30
0.0
 11
239.625
 21
192.874738
 31
0.0
  0
LINE
  5
1260
100
AcDbEntity
  8
10000_FRONT
370
    25
390
0
  6
CONTINUOUS
 62
     7
100
AcDbLine
 10
239.625
 20
192.874738
 30
0.0
 11
239.625
 21
192.899341
 31
0.0
  0
LINE
  5
1261
100
AcDbEntity
  8
10000_FRONT
370
    25
390
0
  6
CONTINUOUS
 62
     7
100
AcDbLine
 10
239.625
 20
187.525262
 30
0.0
 11
239.625
 21
188.300001
 31
0.0
  0
LINE
  5
1262
100
AcDbEntity
  8
10000_FRONT
370
    25
390
0
  6
CONTINUOUS
 62
     7
100
AcDbLine
 10
239.625
 20
187.500658
 30
0.0
 11
239.625
 21
187.525262
 31
0.0
  0
LINE
  5
1263
100
AcDbEntity
  8
10000_FRONT
370
    25
390
0
  6
CONTINUOUS
 62
     7
100
AcDbLine
 10
240.275002
 20
202.8
 30
0.0
 11
240.275002
 21
210.297056
 31
0.0
  0
LINE
  5
1264
100
AcDbEntity
  8
10000_FRONT
370
    25
390
0
  6
CONTINUOUS
 62
     7
100
AcDbLine
 10
240.525002
 20
102.765688
 30
0.0
 11
240.525002
 21
105.634317
 31
0.0
  0
LINE
  5
1265
100
AcDbEntity
  8
10000_FRONT
370
    25
390
0
  6
CONTINUOUS
 62
     7
100
AcDbLine
 10
240.525002
 20
188.765686
 30
0.0
 11
240.525002
 21
191.634315
 31
0.0
  0
LINE
  5
1266
100
AcDbEntity
  8
10000_FRONT
370
    25
390
0
  6
CONTINUOUS
 62
     7
100
AcDbLine
 10
240.625
 20
106.1
 30
0.0
 11
240.625
 21
106.899339
 31
0.0
  0
LINE
  5
1267
100
AcDbEntity
  8
10000_FRONT
370
    25
390
0
  6
CONTINUOUS
 62
     7
100
AcDbLine
 10
240.625
 20
101.525262
 30
0.0
 11
240.625
 21
102.299997
 31
0.0
  0
LINE
  5
1268
100
AcDbEntity
  8
10000_FRONT
370
    25
390
0
  6
CONTINUOUS
 62
     7
100
AcDbLine
 10
240.625
 20
101.500658
 30
0.0
 11
240.625
 21
101.525262
 31
0.0
  0
LINE
  5
1269
100
AcDbEntity
  8
10000_FRONT
370
    25
390
0
  6
CONTINUOUS
 62
     7
100
AcDbLine
 10
240.625
 20
192.1
 30
0.0
 11
240.625
 21
192.874738
 31
0.0
  0
LINE
  5
126A
100
AcDbEntity
  8
10000_FRONT
370
    25
390
0
  6
CONTINUOUS
 62
     7
100
AcDbLine
 10
240.625
 20
192.874738
 30
0.0
 11
240.625
 21
192.899341
 31
0.0
  0
LINE
  5
126B
100
AcDbEntity
  8
10000_FRONT
370
    25
390
0
  6
CONTINUOUS
 62
     7
100
AcDbLine
 10
240.625
 20
187.525262
 30
0.0
 11
240.625
 21
188.300001
 31
0.0
  0
LINE
  5
126C
100
AcDbEntity
  8
10000_FRONT
370
    25
390
0
  6
CONTINUOUS
 62
     7
100
AcDbLine
 10
240.625
 20
187.500658
 30
0.0
 11
240.625
 21
187.525262
 31
0.0
  0
LINE
  5
126D
100
AcDbEntity
  8
10000_FRONT
370
    25
390
0
  6
CONTINUOUS
 62
     7
100
AcDbLine
 10
240.925003
 20
102.6
 30
0.0
 11
240.925003
 21
105.799997
 31
0.0
  0
LINE
  5
126E
100
AcDbEntity
  8
10000_FRONT
370
    25
390
0
  6
CONTINUOUS
 62
     7
100
AcDbLine
 10
240.925003
 20
188.6
 30
0.0
 11
240.925003
 21
191.800001
 31
0.0
  0
LINE
  5
126F
100
AcDbEntity
  8
10000_FRONT
370
    25
390
0
  6
CONTINUOUS
 62
     7
100
AcDbLine
 10
241.875
 20
127.1
 30
0.0
 11
241.875
 21
127.6
 31
0.0
  0
LINE
  5
1270
100
AcDbEntity
  8
10000_FRONT
370
    25
390
0
  6
CONTINUOUS
 62
     7
100
AcDbLine
 10
242.375
 20
128.1
 30
0.0
 11
242.375
 21
141.1
 31
0.0
  0
LINE
  5
1271
100
AcDbEntity
  8
10000_FRONT
370
    25
390
0
  6
CONTINUOUS
 62
     7
100
AcDbLine
 10
243.875
 20
128.1
 30
0.0
 11
243.875
 21
141.1
 31
0.0
  0
LINE
  5
1272
100
AcDbEntity
  8
10000_FRONT
370
    25
390
0
  6
CONTINUOUS
 62
     7
100
AcDbLine
 10
244.375
 20
127.1
 30
0.0
 11
244.375
 21
127.6
 31
0.0
  0
LINE
  5
1273
100
AcDbEntity
  8
10000_FRONT
370
    25
390
0
  6
CONTINUOUS
 62
     7
100
AcDbLine
 10
245.474998
 20
184.1
 30
0.0
 11
245.474998
 21
202.8
 31
0.0
  0
LINE
  5
1274
100
AcDbEntity
  8
10000_FRONT
370
    25
390
0
  6
CONTINUOUS
 62
     7
100
AcDbLine
 10
256.474998
 20
184.1
 30
0.0
 11
256.474998
 21
202.8
 31
0.0
  0
LINE
  5
1275
100
AcDbEntity
  8
10000_FRONT
370
    25
390
0
  6
CONTINUOUS
 62
     7
100
AcDbLine
 10
258.775002
 20
169.1
 30
0.0
 11
258.775002
 21
175.597116
 31
0.0
  0
LINE
  5
1276
100
AcDbEntity
  8
10000_FRONT
370
    25
390
0
  6
CONTINUOUS
 62
     7
100
AcDbLine
 10
259.275002
 20
168.6
 30
0.0
 11
259.275002
 21
169.1
 31
0.0
  0
LINE
  5
1277
100
AcDbEntity
  8
10000_FRONT
370
    25
390
0
  6
CONTINUOUS
 62
     7
100
AcDbLine
 10
259.775002
 20
155.1
 30
0.0
 11
259.775002
 21
168.1
 31
0.0
  0
LINE
  5
1278
100
AcDbEntity
  8
10000_FRONT
370
    25
390
0
  6
CONTINUOUS
 62
     7
100
AcDbLine
 10
261.275002
 20
155.1
 30
0.0
 11
261.275002
 21
168.1
 31
0.0
  0
LINE
  5
1279
100
AcDbEntity
  8
10000_FRONT
370
    25
390
0
  6
CONTINUOUS
 62
     7
100
AcDbLine
 10
261.775002
 20
168.6
 30
0.0
 11
261.775002
 21
169.1
 31
0.0
  0
LINE
  5
127A
100
AcDbEntity
  8
10000_FRONT
370
    25
390
0
  6
CONTINUOUS
 62
     7
100
AcDbLine
 10
262.275002
 20
169.1
 30
0.0
 11
262.275002
 21
175.597116
 31
0.0
  0
LINE
  5
127B
100
AcDbEntity
  8
10000_FRONT
370
    25
390
0
  6
CONTINUOUS
 62
     7
100
AcDbLine
 10
267.974998
 20
184.1
 30
0.0
 11
267.974998
 21
202.8
 31
0.0
  0
LINE
  5
127C
100
AcDbEntity
  8
10000_FRONT
370
    25
390
0
  6
CONTINUOUS
 62
     7
100
AcDbLine
 10
276.274994
 20
168.6
 30
0.0
 11
276.274994
 21
169.1
 31
0.0
  0
LINE
  5
127D
100
AcDbEntity
  8
10000_FRONT
370
    25
390
0
  6
CONTINUOUS
 62
     7
100
AcDbLine
 10
276.774994
 20
155.1
 30
0.0
 11
276.774994
 21
168.1
 31
0.0
  0
LINE
  5
127E
100
AcDbEntity
  8
10000_FRONT
370
    25
390
0
  6
CONTINUOUS
 62
     7
100
AcDbLine
 10
278.274994
 20
155.1
 30
0.0
 11
278.274994
 21
168.1
 31
0.0
  0
LINE
  5
127F
100
AcDbEntity
  8
10000_FRONT
370
    25
390
0
  6
CONTINUOUS
 62
     7
100
AcDbLine
 10
278.774994
 20
168.6
 30
0.0
 11
278.774994
 21
169.1
 31
0.0
  0
LINE
  5
1280
100
AcDbEntity
  8
10000_FRONT
370
    25
390
0
  6
CONTINUOUS
 62
     7
100
AcDbLine
 10
278.975006
 20
184.1
 30
0.0
 11
278.975006
 21
202.8
 31
0.0
  0
LINE
  5
1281
100
AcDbEntity
  8
10000_FRONT
370
    25
390
0
  6
CONTINUOUS
 62
     7
100
AcDbLine
 10
278.975006
 20
214.2
 30
0.0
 11
278.975006
 21
214.5
 31
0.0
  0
LINE
  5
1282
100
AcDbEntity
  8
10000_FRONT
370
    25
390
0
  6
CONTINUOUS
 62
     7
100
AcDbLine
 10
279.975006
 20
214.2
 30
0.0
 11
279.975006
 21
214.5
 31
0.0
  0
LINE
  5
1283
100
AcDbEntity
  8
10000_FRONT
370
    25
390
0
  6
CONTINUOUS
 62
     7
100
AcDbLine
 10
282.875
 20
146.1
 30
0.0
 11
282.875
 21
148.1
 31
0.0
  0
LINE
  5
1284
100
AcDbEntity
  8
10000_FRONT
370
    25
390
0
  6
CONTINUOUS
 62
     7
100
AcDbLine
 10
287.875
 20
146.6
 30
0.0
 11
287.875
 21
147.6
 31
0.0
  0
LINE
  5
1285
100
AcDbEntity
  8
10000_FRONT
370
    25
390
0
  6
CONTINUOUS
 62
     7
100
AcDbLine
 10
290.475006
 20
184.1
 30
0.0
 11
290.475006
 21
202.8
 31
0.0
  0
LINE
  5
1286
100
AcDbEntity
  8
10000_FRONT
370
    25
390
0
  6
CONTINUOUS
 62
     7
100
AcDbLine
 10
301.475006
 20
184.1
 30
0.0
 11
301.475006
 21
202.8
 31
0.0
  0
LINE
  5
1287
100
AcDbEntity
  8
10000_FRONT
370
    25
390
0
  6
CONTINUOUS
 62
     7
100
AcDbLine
 10
306.675003
 20
202.8
 30
0.0
 11
306.675003
 21
210.297056
 31
0.0
  0
LINE
  5
1288
100
AcDbEntity
  8
10000_FRONT
370
    25
390
0
  6
CONTINUOUS
 62
     7
100
AcDbLine
 10
316.975006
 20
127.1
 30
0.0
 11
316.975006
 21
127.6
 31
0.0
  0
LINE
  5
1289
100
AcDbEntity
  8
10000_FRONT
370
    25
390
0
  6
CONTINUOUS
 62
     7
100
AcDbLine
 10
317.475006
 20
128.1
 30
0.0
 11
317.475006
 21
141.1
 31
0.0
  0
LINE
  5
128A
100
AcDbEntity
  8
10000_FRONT
370
    25
390
0
  6
CONTINUOUS
 62
     7
100
AcDbLine
 10
318.975006
 20
128.1
 30
0.0
 11
318.975006
 21
141.1
 31
0.0
  0
LINE
  5
128B
100
AcDbEntity
  8
10000_FRONT
370
    25
390
0
  6
CONTINUOUS
 62
     7
100
AcDbLine
 10
319.475006
 20
127.1
 30
0.0
 11
319.475006
 21
127.6
 31
0.0
  0
LINE
  5
128C
100
AcDbEntity
  8
10000_FRONT
370
    25
390
0
  6
CONTINUOUS
 62
     7
100
AcDbLine
 10
333.475006
 20
169.1
 30
0.0
 11
333.475006
 21
175.597116
 31
0.0
  0
LINE
  5
128D
100
AcDbEntity
  8
10000_FRONT
370
    25
390
0
  6
CONTINUOUS
 62
     7
100
AcDbLine
 10
333.975006
 20
168.6
 30
0.0
 11
333.975006
 21
169.1
 31
0.0
  0
LINE
  5
128E
100
AcDbEntity
  8
10000_FRONT
370
    25
390
0
  6
CONTINUOUS
 62
     7
100
AcDbLine
 10
334.475006
 20
155.1
 30
0.0
 11
334.475006
 21
168.1
 31
0.0
  0
LINE
  5
128F
100
AcDbEntity
  8
10000_FRONT
370
    25
390
0
  6
CONTINUOUS
 62
     7
100
AcDbLine
 10
335.975006
 20
155.1
 30
0.0
 11
335.975006
 21
168.1
 31
0.0
  0
LINE
  5
1290
100
AcDbEntity
  8
10000_FRONT
370
    25
390
0
  6
CONTINUOUS
 62
     7
100
AcDbLine
 10
336.475006
 20
168.6
 30
0.0
 11
336.475006
 21
169.1
 31
0.0
  0
LINE
  5
1291
100
AcDbEntity
  8
10000_FRONT
370
    25
390
0
  6
CONTINUOUS
 62
     7
100
AcDbLine
 10
336.975006
 20
169.1
 30
0.0
 11
336.975006
 21
175.597116
 31
0.0
  0
LINE
  5
1292
100
AcDbEntity
  8
10000_FRONT
370
    25
390
0
  6
CONTINUOUS
 62
     7
100
AcDbLine
 10
351.375
 20
168.6
 30
0.0
 11
351.375
 21
169.1
 31
0.0
  0
LINE
  5
1293
100
AcDbEntity
  8
10000_FRONT
370
    25
390
0
  6
CONTINUOUS
 62
     7
100
AcDbLine
 10
351.875
 20
155.1
 30
0.0
 11
351.875
 21
168.1
 31
0.0
  0
LINE
  5
1294
100
AcDbEntity
  8
10000_FRONT
370
    25
390
0
  6
CONTINUOUS
 62
     7
100
AcDbLine
 10
353.375
 20
155.1
 30
0.0
 11
353.375
 21
168.1
 31
0.0
  0
LINE
  5
1295
100
AcDbEntity
  8
10000_FRONT
370
    25
390
0
  6
CONTINUOUS
 62
     7
100
AcDbLine
 10
353.875
 20
168.6
 30
0.0
 11
353.875
 21
169.1
 31
0.0
  0
LINE
  5
1296
100
AcDbEntity
  8
10000_FRONT
370
    25
390
0
  6
CONTINUOUS
 62
     7
100
AcDbLine
 10
360.125
 20
167.1
 30
0.0
 11
360.125
 21
181.300001
 31
0.0
  0
LINE
  5
1297
100
AcDbEntity
  8
10000_FRONT
370
    25
390
0
  6
CONTINUOUS
 62
     7
100
AcDbLine
 10
360.125
 20
115.6
 30
0.0
 11
360.125
 21
125.900003
 31
0.0
  0
ARC
  5
1298
100
AcDbEntity
  8
10000_FRONT
370
    25
390
0
  6
CONTINUOUS
 62
     7
100
AcDbCircle
 10
229.875
 20
102.7
 30
0.0
 40
0.5
100
AcDbArc
 50
180.000175
 51
270.0
  0
ARC
  5
1299
100
AcDbEntity
  8
10000_FRONT
370
    25
390
0
  6
CONTINUOUS
 62
     7
100
AcDbCircle
 10
229.875
 20
105.7
 30
0.0
 40
0.5
100
AcDbArc
 50
90.0
 51
180.000175
  0
ARC
  5
129A
100
AcDbEntity
  8
10000_FRONT
370
    25
390
0
  6
CONTINUOUS
 62
     7
100
AcDbCircle
 10
229.875
 20
188.7
 30
0.0
 40
0.5
100
AcDbArc
 50
180.0
 51
270.0
  0
ARC
  5
129B
100
AcDbEntity
  8
10000_FRONT
370
    25
390
0
  6
CONTINUOUS
 62
     7
100
AcDbCircle
 10
229.875
 20
191.7
 30
0.0
 40
0.5
100
AcDbArc
 50
90.0
 51
180.0
  0
ARC
  5
129C
100
AcDbEntity
  8
10000_FRONT
370
    25
390
0
  6
CONTINUOUS
 62
     7
100
AcDbCircle
 10
235.875
 20
102.7
 30
0.0
 40
0.5
100
AcDbArc
 50
270.0
 51
359.999825
  0
ARC
  5
129D
100
AcDbEntity
  8
10000_FRONT
370
    25
390
0
  6
CONTINUOUS
 62
     7
100
AcDbCircle
 10
235.875
 20
105.7
 30
0.0
 40
0.5
100
AcDbArc
 50
359.999825
 51
90.0
  0
ARC
  5
129E
100
AcDbEntity
  8
10000_FRONT
370
    25
390
0
  6
CONTINUOUS
 62
     7
100
AcDbCircle
 10
235.875
 20
188.7
 30
0.0
 40
0.5
100
AcDbArc
 50
270.0
 51
0.0
  0
ARC
  5
129F
100
AcDbEntity
  8
10000_FRONT
370
    25
390
0
  6
CONTINUOUS
 62
     7
100
AcDbCircle
 10
235.875
 20
191.7
 30
0.0
 40
0.5
100
AcDbArc
 50
0.0
 51
90.0
  0
ARC
  5
12A0
100
AcDbEntity
  8
10000_FRONT
370
    25
390
0
  6
CONTINUOUS
 62
     7
100
AcDbCircle
 10
246.275
 20
184.1
 30
0.0
 40
0.8
100
AcDbArc
 50
180.0
 51
270.000108
  0
CIRCLE
  5
12A1
100
AcDbEntity
  8
10000_FRONT
370
    25
390
0
  6
CONTINUOUS
 62
     7
100
AcDbCircle
 10
250.975
 20
190.8
 30
0.0
 40
3.3
  0
ARC
  5
12A2
100
AcDbEntity
  8
10000_FRONT
370
    25
390
0
  6
CONTINUOUS
 62
     7
100
AcDbCircle
 10
255.675
 20
184.1
 30
0.0
 40
0.8
100
AcDbArc
 50
270.00022
 51
0.0
  0
ARC
  5
12A3
100
AcDbEntity
  8
10000_FRONT
370
    25
390
0
  6
CONTINUOUS
 62
     7
100
AcDbCircle
 10
268.775
 20
184.1
 30
0.0
 40
0.8
100
AcDbArc
 50
180.0
 51
270.000108
  0
CIRCLE
  5
12A4
100
AcDbEntity
  8
10000_FRONT
370
    25
390
0
  6
CONTINUOUS
 62
     7
100
AcDbCircle
 10
273.475
 20
190.8
 30
0.0
 40
3.3
  0
ARC
  5
12A5
100
AcDbEntity
  8
10000_FRONT
370
    25
390
0
  6
CONTINUOUS
 62
     7
100
AcDbCircle
 10
278.175
 20
184.1
 30
0.0
 40
0.8
100
AcDbArc
 50
270.00022
 51
0.0
  0
ARC
  5
12A6
100
AcDbEntity
  8
10000_FRONT
370
    25
390
0
  6
CONTINUOUS
 62
     7
100
AcDbCircle
 10
291.275
 20
184.1
 30
0.0
 40
0.8
100
AcDbArc
 50
180.0
 51
269.999562
  0
CIRCLE
  5
12A7
100
AcDbEntity
  8
10000_FRONT
370
    25
390
0
  6
CONTINUOUS
 62
     7
100
AcDbCircle
 10
295.975
 20
190.8
 30
0.0
 40
3.3
  0
ARC
  5
12A8
100
AcDbEntity
  8
10000_FRONT
370
    25
390
0
  6
CONTINUOUS
 62
     7
100
AcDbCircle
 10
300.675
 20
184.1
 30
0.0
 40
0.8
100
AcDbArc
 50
270.00022
 51
0.0
  0
LINE
  5
12A9
100
AcDbEntity
  8
10100_FRONT_DIM
370
    13
390
0
  6
CONTINUOUS
 62
     7
100
AcDbLine
 10
82.275
 20
232.6
 30
0.0
 11
82.275
 21
243.6
 31
0.0
  0
LINE
  5
12AA
100
AcDbEntity
  8
10100_FRONT_DIM
370
    13
390
0
  6
CONTINUOUS
 62
     7
100
AcDbLine
 10
213.475
 20
243.6
 30
0.0
 11
213.475
 21
225.1
 31
0.0
  0
LINE
  5
12AB
100
AcDbEntity
  8
10100_FRONT_DIM
370
    13
390
0
  6
CONTINUOUS
 62
     7
100
AcDbLine
 10
82.275
 20
242.6
 30
0.0
 11
213.475
 21
242.6
 31
0.0
  0
TEXT
  5
12AC
100
AcDbEntity
  8
10100_FRONT_DIM
370
    13
390
0
  6
CONTINUOUS
 62
     7
100
AcDbText
 10
144.541667
 20
243.6
 30
0.0
 40
2.0
  1
131.2
 72
     1
 11
147.875
 21
243.6
 31
0.0
100
AcDbText
  0
LINE
  5
12AD
100
AcDbEntity
  8
10100_FRONT_DIM
370
    13
390
0
  6
CONTINUOUS
 62
     7
100
AcDbLine
 10
87.875
 20
196.3
 30
0.0
 11
71.275
 21
196.3
 31
0.0
  0
LINE
  5
12AE
100
AcDbEntity
  8
10100_FRONT_DIM
370
    13
390
0
  6
CONTINUOUS
 62
     7
100
AcDbLine
 10
71.275
 20
232.6
 30
0.0
 11
82.275
 21
232.6
 31
0.0
  0
LINE
  5
12AF
100
AcDbEntity
  8
10100_FRONT_DIM
370
    13
390
0
  6
CONTINUOUS
 62
     7
100
AcDbLine
 10
72.275
 20
196.3
 30
0.0
 11
72.275
 21
232.6
 31
0.0
  0
TEXT
  5
12B0
100
AcDbEntity
  8
10100_FRONT_DIM
370
    13
390
0
  6
CONTINUOUS
 62
     7
100
AcDbText
 10
71.275
 20
211.45
 30
0.0
 40
2.0
  1
36.3
 50
90.0
 72
     1
 11
71.275
 21
214.45
 31
0.0
100
AcDbText
  0
LINE
  5
12B1
100
AcDbEntity
  8
10100_FRONT_DIM
370
    13
390
0
  6
CONTINUOUS
 62
     7
100
AcDbLine
 10
72.875
 20
97.4
 30
0.0
 11
72.875
 21
123.8
 31
0.0
  0
LINE
  5
12B2
100
AcDbEntity
  8
10100_FRONT_DIM
370
    13
390
0
  6
CONTINUOUS
 62
     7
100
AcDbLine
 10
222.875
 20
123.8
 30
0.0
 11
222.875
 21
97.4
 31
0.0
  0
LINE
  5
12B3
100
AcDbEntity
  8
10100_FRONT_DIM
370
    13
390
0
  6
CONTINUOUS
 62
     7
100
AcDbLine
 10
72.875
 20
122.8
 30
0.0
 11
222.875
 21
122.8
 31
0.0
  0
TEXT
  5
12B4
100
AcDbEntity
  8
10100_FRONT_DIM
370
    13
390
0
  6
CONTINUOUS
 62
     7
100
AcDbText
 10
145.708333
 20
123.8
 30
0.0
 40
2.0
  1
150
 72
     1
 11
147.875
 21
123.8
 31
0.0
100
AcDbText
  0
LINE
  5
12B5
100
AcDbEntity
  8
10100_FRONT_DIM
370
    13
390
0
  6
CONTINUOUS
 62
     7
100
AcDbLine
 10
72.875
 20
81.4
 30
0.0
 11
61.875
 21
81.4
 31
0.0
  0
LINE
  5
12B6
100
AcDbEntity
  8
10100_FRONT_DIM
370
    13
390
0
  6
CONTINUOUS
 62
     7
100
AcDbLine
 10
61.875
 20
112.8
 30
0.0
 11
81.875
 21
112.8
 31
0.0
  0
LINE
  5
12B7
100
AcDbEntity
  8
10100_FRONT_DIM
370
    13
390
0
  6
CONTINUOUS
 62
     7
100
AcDbLine
 10
62.875
 20
81.4
 30
0.0
 11
62.875
 21
112.8
 31
0.0
  0
TEXT
  5
12B8
100
AcDbEntity
  8
10100_FRONT_DIM
370
    13
390
0
  6
CONTINUOUS
 62
     7
100
AcDbText
 10
61.875
 20
94.433333
 30
0.0
 40
2.0
  1
31.4
 50
90.0
 72
     1
 11
61.875
 21
97.1
 31
0.0
100
AcDbText
  0
SOLID
  5
12B9
100
AcDbEntity
  8
10100_FRONT_DIM
370
    13
390
0
  6
CONTINUOUS
 62
     7
100
AcDbTrace
 10
86.275
 20
243.12661
 30
0.0
 11
82.275
 21
242.6
 31
0.0
 12
86.275
 22
242.07339
 32
0.0
 13
82.275
 23
242.6
 33
0.0
  0
SOLID
  5
12BA
100
AcDbEntity
  8
10100_FRONT_DIM
370
    13
390
0
  6
CONTINUOUS
 62
     7
100
AcDbTrace
 10
209.475
 20
242.07339
 30
0.0
 11
213.475
 21
242.6
 31
0.0
 12
209.475
 22
243.12661
 32
0.0
 13
213.475
 23
242.6
 33
0.0
  0
SOLID
  5
12BB
100
AcDbEntity
  8
10100_FRONT_DIM
370
    13
390
0
  6
CONTINUOUS
 62
     7
100
AcDbTrace
 10
71.74839
 20
200.3
 30
0.0
 11
72.275
 21
196.3
 31
0.0
 12
72.80161
 22
200.3
 32
0.0
 13
72.275
 23
196.3
 33
0.0
  0
SOLID
  5
12BC
100
AcDbEntity
  8
10100_FRONT_DIM
370
    13
390
0
  6
CONTINUOUS
 62
     7
100
AcDbTrace
 10
72.80161
 20
228.6
 30
0.0
 11
72.275
 21
232.6
 31
0.0
 12
71.74839
 22
228.6
 32
0.0
 13
72.275
 23
232.6
 33
0.0
  0
SOLID
  5
12BD
100
AcDbEntity
  8
10100_FRONT_DIM
370
    13
390
0
  6
CONTINUOUS
 62
     7
100
AcDbTrace
 10
76.875
 20
123.32661
 30
0.0
 11
72.875
 21
122.8
 31
0.0
 12
76.875
 22
122.27339
 32
0.0
 13
72.875
 23
122.8
 33
0.0
  0
SOLID
  5
12BE
100
AcDbEntity
  8
10100_FRONT_DIM
370
    13
390
0
  6
CONTINUOUS
 62
     7
100
AcDbTrace
 10
218.875
 20
122.27339
 30
0.0
 11
222.875
 21
122.8
 31
0.0
 12
218.875
 22
123.32661
 32
0.0
 13
222.875
 23
122.8
 33
0.0
  0
SOLID
  5
12BF
100
AcDbEntity
  8
10100_FRONT_DIM
370
    13
390
0
  6
CONTINUOUS
 62
     7
100
AcDbTrace
 10
62.34839
 20
85.4
 30
0.0
 11
62.875
 21
81.4
 31
0.0
 12
63.40161
 22
85.4
 32
0.0
 13
62.875
 23
81.4
 33
0.0
  0
SOLID
  5
12C0
100
AcDbEntity
  8
10100_FRONT_DIM
370
    13
390
0
  6
CONTINUOUS
 62
     7
100
AcDbTrace
 10
63.40161
 20
108.8
 30
0.0
 11
62.875
 21
112.8
 31
0.0
 12
62.34839
 22
108.8
 32
0.0
 13
62.875
 23
112.8
 33
0.0
  0
LINE
  5
12C1
100
AcDbEntity
  8
91000_TIP
370
    13
  6
CONTINUOUS
 62
     7
100
AcDbLine
 10
246.379461
 20
21.210091
 30
0.0
 11
256.379461
 21
23.710091
 31
0.0
  0
LINE
  5
12C2
100
AcDbEntity
  8
91000_TIP
370
    13
  6
CONTINUOUS
 62
     7
100
AcDbLine
 10
245.09995
 20
18.710091
 30
0.0
 11
268.70194
 21
18.710091
 31
0.0
  0
LINE
  5
12C3
100
AcDbEntity
  8
91000_TIP
370
    13
  6
CONTINUOUS
 62
     7
100
AcDbLine
 10
246.379461
 20
16.210091
 30
0.0
 11
256.379461
 21
13.710091
 31
0.0
  0
LINE
  5
12C4
100
AcDbEntity
  8
91000_TIP
370
    13
  6
CONTINUOUS
 62
     7
100
AcDbLine
 10
246.379461
 20
21.210091
 30
0.0
 11
246.379461
 21
16.210091
 31
0.0
  0
LINE
  5
12C5
100
AcDbEntity
  8
91000_TIP
370
    13
  6
CONTINUOUS
 62
     7
100
AcDbLine
 10
256.379461
 20
23.710091
 30
0.0
 11
256.379461
 21
13.710091
 31
0.0
  0
LINE
  5
12C6
100
AcDbEntity
  8
91000_TIP
370
    13
  6
CONTINUOUS
 62
     7
100
AcDbLine
 10
262.87946
 20
12.98861
 30
0.0
 11
262.87946
 21
24.271996
 31
0.0
  0
CIRCLE
  5
12C7
100
AcDbEntity
  8
91000_TIP
370
    13
  6
CONTINUOUS
 62
     7
100
AcDbCircle
 10
262.87946
 20
18.710091
 30
0.0
 40
5.0
  0
CIRCLE
  5
12C8
100
AcDbEntity
  8
91000_TIP
370
    13
  6
CONTINUOUS
 62
     7
100
AcDbCircle
 10
262.87946
 20
18.710091
 30
0.0
 40
2.5
  0
TEXT
  5
12CA
100
AcDbEntity
  8
90000_FRAME
370
    13
  6
CONTINUOUS
 62
     7
100
AcDbText
 10
275.559541
 20
29.777704
 30
0.0
 40
2.2
  1
All dimensions are in millimeters (mm)
 41
0.961374
  7
TFONT1
 72
     5
 11
342.53525
 21
29.777704
 31
0.0
100
AcDbText
  0
TEXT
  5
12CB
100
AcDbEntity
  8
90000_FRAME
370
    13
  6
CONTINUOUS
 62
     7
100
AcDbText
 10
275.559541
 20
32.906727
 30
0.0
 40
2.2
  1
Alle Bemassungswerte sind in Millimeter (mm) angegeben.
 41
0.825144
  7
TFONT1
 72
     5
 11
363.904976
 21
32.906727
 31
0.0
100
AcDbText
  0
TEXT
  5
12CC
100
AcDbEntity
  8
90000_FRAME
370
    13
  6
CONTINUOUS
 62
     7
100
AcDbText
 10
326.448083
 20
22.703142
 30
0.0
 40
3.0
  1
3RA2943-2BB1
 41
1.034336
 72
     5
 11
362.64986
 21
22.703142
 31
0.0
100
AcDbText
  0
TEXT
  5
12CD
100
AcDbEntity
  8
90000_FRAME
370
    13
  6
CONTINUOUS
 62
     7
100
AcDbText
 10
368.16
 20
11.9
 30
0.0
 40
2.2
  1
Massstab/Scale: 1:1
 41
0.736364
  7
TFONT1
 72
     5
 11
394.89
 21
11.9
 31
0.0
100
AcDbText
  0
TEXT
  5
12CE
100
AcDbEntity
  8
90000_FRAME
370
    13
  6
CONTINUOUS
 62
     7
100
AcDbText
 10
326.295928
 20
11.9
 30
0.0
 40
2.2
  1
Format/Size: DIN A3
 41
0.803258
  7
TFONT1
 72
     5
 11
356.337783
 21
11.9
 31
0.0
100
AcDbText
  0
LINE
  5
12CF
100
AcDbEntity
  8
90000_FRAME
370
    13
  6
CONTINUOUS
 62
     7
100
AcDbLine
 10
410.0
 20
10.0
 30
0.0
 11
410.0
 21
28.0
 31
0.0
  0
LINE
  5
12D0
100
AcDbEntity
  8
90000_FRAME
370
    13
  6
CONTINUOUS
 62
     7
100
AcDbLine
 10
367.5
 20
10.0
 30
0.0
 11
367.5
 21
16.0
 31
0.0
  0
LINE
  5
12D1
100
AcDbEntity
  8
90000_FRAME
370
    13
  6
CONTINUOUS
 62
     7
100
AcDbLine
 10
325.0
 20
10.0
 30
0.0
 11
325.0
 21
28.0
 31
0.0
  0
LINE
  5
12D2
100
AcDbEntity
  8
90000_FRAME
370
    13
  6
CONTINUOUS
 62
     7
100
AcDbLine
 10
275.0
 20
28.0
 30
0.0
 11
410.0
 21
28.0
 31
0.0
  0
LINE
  5
12D3
100
AcDbEntity
  8
90000_FRAME
370
    13
  6
CONTINUOUS
 62
     7
100
AcDbLine
 10
325.0
 20
16.0
 30
0.0
 11
410.0
 21
16.0
 31
0.0
  0
LINE
  5
12D4
100
AcDbEntity
  8
90000_FRAME
370
    13
  6
CONTINUOUS
 62
     7
100
AcDbLine
 10
275.0
 20
10.0
 30
0.0
 11
275.0
 21
28.0
 31
0.0
  0
LINE
  5
12D5
100
AcDbEntity
  8
90000_FRAME
370
    13
  6
CONTINUOUS
 62
     7
100
AcDbLine
 10
275.0
 20
10.0
 30
0.0
 11
410.0
 21
10.0
 31
0.0
  0
LINE
  5
12D6
100
AcDbEntity
  8
90000_FRAME
370
    13
  6
CONTINUOUS
 62
     7
100
AcDbLine
 10
289.186201
 20
21.414548
 30
0.0
 11
289.186201
 21
16.661279
 31
0.0
  0
LINE
  5
12D7
100
AcDbEntity
  8
90000_FRAME
370
    13
  6
CONTINUOUS
 62
     7
100
AcDbLine
 10
290.612181
 20
21.414548
 30
0.0
 11
290.612181
 21
16.661279
 31
0.0
  0
LINE
  5
12D8
100
AcDbEntity
  8
90000_FRAME
370
    13
  6
CONTINUOUS
 62
     7
100
AcDbLine
 10
289.186201
 20
16.661279
 30
0.0
 11
290.612181
 21
16.661279
 31
0.0
  0
LINE
  5
12D9
100
AcDbEntity
  8
90000_FRAME
370
    13
  6
CONTINUOUS
 62
     7
100
AcDbLine
 10
289.186201
 20
21.414548
 30
0.0
 11
290.612181
 21
21.414548
 31
0.0
  0
LINE
  5
12DA
100
AcDbEntity
  8
90000_FRAME
370
    13
  6
CONTINUOUS
 62
     7
100
AcDbLine
 10
291.705433
 20
21.414548
 30
0.0
 11
291.705433
 21
16.661279
 31
0.0
  0
LINE
  5
12DB
100
AcDbEntity
  8
90000_FRAME
370
    13
  6
CONTINUOUS
 62
     7
100
AcDbLine
 10
291.705433
 20
16.661279
 30
0.0
 11
295.270385
 21
16.661279
 31
0.0
  0
LINE
  5
12DC
100
AcDbEntity
  8
90000_FRAME
370
    13
  6
CONTINUOUS
 62
     7
100
AcDbLine
 10
295.270385
 20
17.5644
 30
0.0
 11
293.083881
 21
17.5644
 31
0.0
  0
LINE
  5
12DD
100
AcDbEntity
  8
90000_FRAME
370
    13
  6
CONTINUOUS
 62
     7
100
AcDbLine
 10
295.270385
 20
17.5644
 30
0.0
 11
295.270385
 21
16.661279
 31
0.0
  0
LINE
  5
12DE
100
AcDbEntity
  8
90000_FRAME
370
    13
  6
CONTINUOUS
 62
     7
100
AcDbLine
 10
295.222852
 20
21.414548
 30
0.0
 11
291.705433
 21
21.414548
 31
0.0
  0
LINE
  5
12DF
100
AcDbEntity
  8
90000_FRAME
370
    13
  6
CONTINUOUS
 62
     7
100
AcDbLine
 10
295.222852
 20
20.535193
 30
0.0
 11
293.083881
 21
20.535193
 31
0.0
  0
LINE
  5
12E0
100
AcDbEntity
  8
90000_FRAME
370
    13
  6
CONTINUOUS
 62
     7
100
AcDbLine
 10
295.222852
 20
21.414548
 30
0.0
 11
295.222852
 21
20.535193
 31
0.0
  0
LINE
  5
12E1
100
AcDbEntity
  8
90000_FRAME
370
    13
  6
CONTINUOUS
 62
     7
100
AcDbLine
 10
294.937656
 20
18.681418
 30
0.0
 11
293.083881
 21
18.681418
 31
0.0
  0
LINE
  5
12E2
100
AcDbEntity
  8
90000_FRAME
370
    13
  6
CONTINUOUS
 62
     7
100
AcDbLine
 10
294.937656
 20
19.465708
 30
0.0
 11
294.937656
 21
18.681418
 31
0.0
  0
LINE
  5
12E3
100
AcDbEntity
  8
90000_FRAME
370
    13
  6
CONTINUOUS
 62
     7
100
AcDbLine
 10
294.937656
 20
19.465708
 30
0.0
 11
293.083881
 21
19.465708
 31
0.0
  0
LINE
  5
12E4
100
AcDbEntity
  8
90000_FRAME
370
    13
  6
CONTINUOUS
 62
     7
100
AcDbLine
 10
293.083881
 20
20.535193
 30
0.0
 11
293.083881
 21
19.465708
 31
0.0
  0
LINE
  5
12E5
100
AcDbEntity
  8
90000_FRAME
370
    13
  6
CONTINUOUS
 62
     7
100
AcDbLine
 10
293.083881
 20
18.681418
 30
0.0
 11
293.083881
 21
17.5644
 31
0.0
  0
LINE
  5
12E6
100
AcDbEntity
  8
90000_FRAME
370
    13
  6
CONTINUOUS
 62
     7
100
AcDbLine
 10
296.078441
 20
16.661279
 30
0.0
 11
296.078441
 21
21.414548
 31
0.0
  0
LINE
  5
12E7
100
AcDbEntity
  8
90000_FRAME
370
    13
  6
CONTINUOUS
 62
     7
100
AcDbLine
 10
296.078441
 20
16.661279
 30
0.0
 11
297.029094
 21
16.661279
 31
0.0
  0
LINE
  5
12E8
100
AcDbEntity
  8
90000_FRAME
370
    13
  6
CONTINUOUS
 62
     7
100
AcDbLine
 10
301.924962
 20
21.414548
 30
0.0
 11
301.924962
 21
16.661279
 31
0.0
  0
LINE
  5
12E9
100
AcDbEntity
  8
90000_FRAME
370
    13
  6
CONTINUOUS
 62
     7
100
AcDbLine
 10
301.924962
 20
16.661279
 30
0.0
 11
300.546514
 21
16.661279
 31
0.0
  0
LINE
  5
12EA
100
AcDbEntity
  8
90000_FRAME
370
    13
  6
CONTINUOUS
 62
     7
100
AcDbLine
 10
298.36001
 20
16.613746
 30
0.0
 11
299.215598
 21
16.613746
 31
0.0
  0
LINE
  5
12EB
100
AcDbEntity
  8
90000_FRAME
370
    13
  6
CONTINUOUS
 62
     7
100
AcDbLine
 10
298.36001
 20
16.613746
 30
0.0
 11
297.029094
 21
19.703371
 31
0.0
  0
LINE
  5
12EC
100
AcDbEntity
  8
90000_FRAME
370
    13
  6
CONTINUOUS
 62
     7
100
AcDbLine
 10
297.029094
 20
16.661279
 30
0.0
 11
297.029094
 21
19.703371
 31
0.0
  0
LINE
  5
12ED
100
AcDbEntity
  8
90000_FRAME
370
    13
  6
CONTINUOUS
 62
     7
100
AcDbLine
 10
300.546514
 20
19.750904
 30
0.0
 11
299.215598
 21
16.613746
 31
0.0
  0
LINE
  5
12EE
100
AcDbEntity
  8
90000_FRAME
370
    13
  6
CONTINUOUS
 62
     7
100
AcDbLine
 10
297.789618
 20
21.414548
 30
0.0
 11
296.078441
 21
21.414548
 31
0.0
  0
LINE
  5
12EF
100
AcDbEntity
  8
90000_FRAME
370
    13
  6
CONTINUOUS
 62
     7
100
AcDbLine
 10
301.924962
 20
21.414548
 30
0.0
 11
300.213785
 21
21.414548
 31
0.0
  0
LINE
  5
12F0
100
AcDbEntity
  8
90000_FRAME
370
    13
  6
CONTINUOUS
 62
     7
100
AcDbLine
 10
297.789618
 20
21.414548
 30
0.0
 11
299.025468
 21
18.515054
 31
0.0
  0
LINE
  5
12F1
100
AcDbEntity
  8
90000_FRAME
370
    13
  6
CONTINUOUS
 62
     7
100
AcDbLine
 10
300.213785
 20
21.414548
 30
0.0
 11
299.025468
 21
18.515054
 31
0.0
  0
LINE
  5
12F2
100
AcDbEntity
  8
90000_FRAME
370
    13
  6
CONTINUOUS
 62
     7
100
AcDbLine
 10
300.546514
 20
19.750904
 30
0.0
 11
300.546514
 21
16.661279
 31
0.0
  0
LINE
  5
12F3
100
AcDbEntity
  8
90000_FRAME
370
    13
  6
CONTINUOUS
 62
     7
100
AcDbLine
 10
303.018214
 20
21.414548
 30
0.0
 11
303.018214
 21
16.661279
 31
0.0
  0
LINE
  5
12F4
100
AcDbEntity
  8
90000_FRAME
370
    13
  6
CONTINUOUS
 62
     7
100
AcDbLine
 10
303.018214
 20
16.661279
 30
0.0
 11
306.583165
 21
16.661279
 31
0.0
  0
LINE
  5
12F5
100
AcDbEntity
  8
90000_FRAME
370
    13
  6
CONTINUOUS
 62
     7
100
AcDbLine
 10
306.583165
 20
17.5644
 30
0.0
 11
304.396662
 21
17.5644
 31
0.0
  0
LINE
  5
12F6
100
AcDbEntity
  8
90000_FRAME
370
    13
  6
CONTINUOUS
 62
     7
100
AcDbLine
 10
306.583165
 20
17.5644
 30
0.0
 11
306.583165
 21
16.661279
 31
0.0
  0
LINE
  5
12F7
100
AcDbEntity
  8
90000_FRAME
370
    13
  6
CONTINUOUS
 62
     7
100
AcDbLine
 10
306.535633
 20
21.414548
 30
0.0
 11
303.018214
 21
21.414548
 31
0.0
  0
LINE
  5
12F8
100
AcDbEntity
  8
90000_FRAME
370
    13
  6
CONTINUOUS
 62
     7
100
AcDbLine
 10
306.535633
 20
20.535193
 30
0.0
 11
304.396662
 21
20.535193
 31
0.0
  0
LINE
  5
12F9
100
AcDbEntity
  8
90000_FRAME
370
    13
  6
CONTINUOUS
 62
     7
100
AcDbLine
 10
306.535633
 20
21.414548
 30
0.0
 11
306.535633
 21
20.535193
 31
0.0
  0
LINE
  5
12FA
100
AcDbEntity
  8
90000_FRAME
370
    13
  6
CONTINUOUS
 62
     7
100
AcDbLine
 10
306.250437
 20
18.681418
 30
0.0
 11
304.396662
 21
18.681418
 31
0.0
  0
LINE
  5
12FB
100
AcDbEntity
  8
90000_FRAME
370
    13
  6
CONTINUOUS
 62
     7
100
AcDbLine
 10
306.250437
 20
19.465708
 30
0.0
 11
306.250437
 21
18.681418
 31
0.0
  0
LINE
  5
12FC
100
AcDbEntity
  8
90000_FRAME
370
    13
  6
CONTINUOUS
 62
     7
100
AcDbLine
 10
306.250437
 20
19.465708
 30
0.0
 11
304.396662
 21
19.465708
 31
0.0
  0
LINE
  5
12FD
100
AcDbEntity
  8
90000_FRAME
370
    13
  6
CONTINUOUS
 62
     7
100
AcDbLine
 10
304.396662
 20
20.535193
 30
0.0
 11
304.396662
 21
19.465708
 31
0.0
  0
LINE
  5
12FE
100
AcDbEntity
  8
90000_FRAME
370
    13
  6
CONTINUOUS
 62
     7
100
AcDbLine
 10
304.396662
 20
18.681418
 30
0.0
 11
304.396662
 21
17.5644
 31
0.0
  0
LINE
  5
12FF
100
AcDbEntity
  8
90000_FRAME
370
    13
  6
CONTINUOUS
 62
     7
100
AcDbLine
 10
307.367455
 20
16.661279
 30
0.0
 11
307.367455
 21
21.414548
 31
0.0
  0
LINE
  5
1300
100
AcDbEntity
  8
90000_FRAME
370
    13
  6
CONTINUOUS
 62
     7
100
AcDbLine
 10
311.550332
 20
21.414548
 30
0.0
 11
311.550332
 21
16.661279
 31
0.0
  0
LINE
  5
1301
100
AcDbEntity
  8
90000_FRAME
370
    13
  6
CONTINUOUS
 62
     7
100
AcDbLine
 10
307.367455
 20
16.661279
 30
0.0
 11
308.318109
 21
16.661279
 31
0.0
  0
LINE
  5
1302
100
AcDbEntity
  8
90000_FRAME
370
    13
  6
CONTINUOUS
 62
     7
100
AcDbLine
 10
311.550332
 20
21.414548
 30
0.0
 11
310.599678
 21
21.414548
 31
0.0
  0
LINE
  5
1303
100
AcDbEntity
  8
90000_FRAME
370
    13
  6
CONTINUOUS
 62
     7
100
AcDbLine
 10
308.912267
 20
21.414548
 30
0.0
 11
307.367455
 21
21.414548
 31
0.0
  0
LINE
  5
1304
100
AcDbEntity
  8
90000_FRAME
370
    13
  6
CONTINUOUS
 62
     7
100
AcDbLine
 10
311.550332
 20
16.661279
 30
0.0
 11
310.029285
 21
16.661279
 31
0.0
  0
LINE
  5
1305
100
AcDbEntity
  8
90000_FRAME
370
    13
  6
CONTINUOUS
 62
     7
100
AcDbLine
 10
310.029285
 20
16.661279
 30
0.0
 11
308.318109
 21
19.703371
 31
0.0
  0
LINE
  5
1306
100
AcDbEntity
  8
90000_FRAME
370
    13
  6
CONTINUOUS
 62
     7
100
AcDbLine
 10
308.912267
 20
21.414548
 30
0.0
 11
310.599678
 21
18.467521
 31
0.0
  0
LINE
  5
1307
100
AcDbEntity
  8
90000_FRAME
370
    13
  6
CONTINUOUS
 62
     7
100
AcDbLine
 10
310.599678
 20
21.414548
 30
0.0
 11
310.599678
 21
18.467521
 31
0.0
  0
LINE
  5
1308
100
AcDbEntity
  8
90000_FRAME
370
    13
  6
CONTINUOUS
 62
     7
100
AcDbLine
 10
308.318109
 20
16.661279
 30
0.0
 11
308.318109
 21
19.703371
 31
0.0
  0
LINE
  5
1309
100
AcDbEntity
  8
90000_FRAME
370
    13
  6
CONTINUOUS
 62
     7
100
AcDbLine
 10
312.358387
 20
16.756344
 30
0.0
 11
312.358387
 21
17.706998
 31
0.0
  0
LINE
  5
130A
100
AcDbEntity
  8
90000_FRAME
370
    13
  6
CONTINUOUS
 62
     7
100
AcDbLine
 10
315.685676
 20
20.416361
 30
0.0
 11
315.685676
 21
21.367015
 31
0.0
  0
ARC
  5
130B
100
AcDbEntity
  8
90000_FRAME
370
    13
  6
CONTINUOUS
 62
     7
100
AcDbCircle
 10
314.063028
 20
18.618437
 30
0.0
 40
1.111619
100
AcDbArc
 50
277.709996
 51
295.688493
  0
ARC
  5
130C
100
AcDbEntity
  8
90000_FRAME
370
    13
  6
CONTINUOUS
 62
     7
100
AcDbCircle
 10
314.347338
 20
17.893612
 30
0.0
 40
0.340169
100
AcDbArc
 50
305.503221
 51
72.46529
  0
ARC
  5
130D
100
AcDbEntity
  8
90000_FRAME
370
    13
  6
CONTINUOUS
 62
     7
100
AcDbCircle
 10
313.781345
 20
21.295319
 30
0.0
 40
4.756795
100
AcDbArc
 50
252.59392
 51
280.98166
  0
ARC
  5
130E
100
AcDbEntity
  8
90000_FRAME
370
    13
  6
CONTINUOUS
 62
     7
100
AcDbCircle
 10
314.23618
 20
18.677305
 30
0.0
 40
2.100727
100
AcDbArc
 50
282.405836
 51
311.864443
  0
ARC
  5
130F
100
AcDbEntity
  8
90000_FRAME
370
    13
  6
CONTINUOUS
 62
     7
100
AcDbCircle
 10
313.962616
 20
20.285646
 30
0.0
 40
0.302963
100
AcDbArc
 50
154.440035
 51
221.82017
  0
ARC
  5
1310
100
AcDbEntity
  8
90000_FRAME
370
    13
  6
CONTINUOUS
 62
     7
100
AcDbCircle
 10
314.041837
 20
20.206425
 30
0.0
 40
0.410309
100
AcDbArc
 50
102.828783
 51
149.225964
  0
ARC
  5
1311
100
AcDbEntity
  8
90000_FRAME
370
    13
  6
CONTINUOUS
 62
     7
100
AcDbCircle
 10
314.458864
 20
18.46409
 30
0.0
 40
2.201837
100
AcDbArc
 50
84.040006
 51
103.342766
  0
ARC
  5
1312
100
AcDbEntity
  8
90000_FRAME
370
    13
  6
CONTINUOUS
 62
     7
100
AcDbCircle
 10
314.1179
 20
16.046726
 30
0.0
 40
4.642374
100
AcDbArc
 50
70.262586
 51
82.952419
  0
ARC
  5
1313
100
AcDbEntity
  8
90000_FRAME
370
    13
  6
CONTINUOUS
 62
     7
100
AcDbCircle
 10
313.603882
 20
20.718349
 30
0.0
 40
3.258756
100
AcDbArc
 50
247.530021
 51
280.757952
  0
ARC
  5
1314
100
AcDbEntity
  8
90000_FRAME
370
    13
  6
CONTINUOUS
 62
     7
100
AcDbCircle
 10
307.218915
 20
2.466829
 30
0.0
 40
17.331608
100
AcDbArc
 50
65.341467
 51
67.399777
  0
ARC
  5
1315
100
AcDbEntity
  8
90000_FRAME
370
    13
  6
CONTINUOUS
 62
     7
100
AcDbCircle
 10
318.014777
 20
28.259255
 30
0.0
 40
10.629164
100
AcDbArc
 50
242.86201
 51
247.104203
  0
ARC
  5
1316
100
AcDbEntity
  8
90000_FRAME
370
    13
  6
CONTINUOUS
 62
     7
100
AcDbCircle
 10
314.159876
 20
20.725324
 30
0.0
 40
2.166292
100
AcDbArc
 50
227.311928
 51
242.704032
  0
ARC
  5
1317
100
AcDbEntity
  8
90000_FRAME
370
    13
  6
CONTINUOUS
 62
     7
100
AcDbCircle
 10
313.555845
 20
20.019646
 30
0.0
 40
1.238522
100
AcDbArc
 50
194.795219
 51
225.717655
  0
ARC
  5
1318
100
AcDbEntity
  8
90000_FRAME
370
    13
  6
CONTINUOUS
 62
     7
100
AcDbCircle
 10
313.618004
 20
20.059866
 30
0.0
 40
1.309092
100
AcDbArc
 50
164.197486
 51
195.802514
  0
ARC
  5
1319
100
AcDbEntity
  8
90000_FRAME
370
    13
  6
CONTINUOUS
 62
     7
100
AcDbCircle
 10
314.175027
 20
19.171599
 30
0.0
 40
2.366925
100
AcDbArc
 50
86.221802
 51
120.42726
  0
ARC
  5
131A
100
AcDbEntity
  8
90000_FRAME
370
    13
  6
CONTINUOUS
 62
     7
100
AcDbCircle
 10
313.906171
 20
12.475431
 30
0.0
 40
9.067905
100
AcDbArc
 50
78.682705
 51
87.31476
  0
ARC
  5
131B
100
AcDbEntity
  8
90000_FRAME
370
    13
  6
CONTINUOUS
 62
     7
100
AcDbCircle
 10
313.450101
 20
20.167374
 30
0.0
 40
1.119747
100
AcDbArc
 50
142.813918
 51
167.152295
  0
ARC
  5
131C
100
AcDbEntity
  8
90000_FRAME
370
    13
  6
CONTINUOUS
 62
     7
100
AcDbCircle
 10
313.795411
 20
19.860792
 30
0.0
 40
1.580547
100
AcDbArc
 50
121.214095
 51
141.525477
  0
ARC
  5
131D
100
AcDbEntity
  8
90000_FRAME
370
    13
  6
CONTINUOUS
 62
     7
100
AcDbCircle
 10
314.372585
 20
20.67185
 30
0.0
 40
0.866128
100
AcDbArc
 50
222.776039
 51
239.036243
  0
ARC
  5
131E
100
AcDbEntity
  8
90000_FRAME
370
    13
  6
CONTINUOUS
 62
     7
100
AcDbCircle
 10
311.865875
 20
13.341577
 30
0.0
 40
6.858774
100
AcDbArc
 50
59.902027
 51
68.203648
  0
ARC
  5
131F
100
AcDbEntity
  8
90000_FRAME
370
    13
  6
CONTINUOUS
 62
     7
100
AcDbCircle
 10
315.27437
 20
22.267464
 30
0.0
 40
2.698741
100
AcDbArc
 50
240.0482
 51
251.377967
  0
ARC
  5
1320
100
AcDbEntity
  8
90000_FRAME
370
    13
  6
CONTINUOUS
 62
     7
100
AcDbCircle
 10
314.608913
 20
18.110565
 30
0.0
 40
1.433447
100
AcDbArc
 50
315.890455
 51
333.522926
  0
ARC
  5
1321
100
AcDbEntity
  8
90000_FRAME
370
    13
  6
CONTINUOUS
 62
     7
100
AcDbCircle
 10
314.613551
 20
18.057158
 30
0.0
 40
1.406229
100
AcDbArc
 50
335.386797
 51
24.391512
  0
ARC
  5
1322
100
AcDbEntity
  8
90000_FRAME
370
    13
  6
CONTINUOUS
 62
     7
100
AcDbCircle
 10
314.541346
 20
17.979301
 30
0.0
 40
1.504703
100
AcDbArc
 50
25.956292
 51
59.483483
  0
LINE
  5
1323
100
AcDbEntity
  8
90000_FRAME
370
    13
  6
CONTINUOUS
 62
     7
100
AcDbLine
 10
284.76566
 20
16.756344
 30
0.0
 11
284.76566
 21
17.706998
 31
0.0
  0
LINE
  5
1324
100
AcDbEntity
  8
90000_FRAME
370
    13
  6
CONTINUOUS
 62
     7
100
AcDbLine
 10
288.092949
 20
20.416361
 30
0.0
 11
288.092949
 21
21.367015
 31
0.0
  0
ARC
  5
1325
100
AcDbEntity
  8
90000_FRAME
370
    13
  6
CONTINUOUS
 62
     7
100
AcDbCircle
 10
286.470301
 20
18.618437
 30
0.0
 40
1.111619
100
AcDbArc
 50
277.709996
 51
295.688493
  0
ARC
  5
1326
100
AcDbEntity
  8
90000_FRAME
370
    13
  6
CONTINUOUS
 62
     7
100
AcDbCircle
 10
286.754611
 20
17.893612
 30
0.0
 40
0.340169
100
AcDbArc
 50
305.503221
 51
72.46529
  0
ARC
  5
1327
100
AcDbEntity
  8
90000_FRAME
370
    13
  6
CONTINUOUS
 62
     7
100
AcDbCircle
 10
286.188618
 20
21.295319
 30
0.0
 40
4.756795
100
AcDbArc
 50
252.59392
 51
280.98166
  0
ARC
  5
1328
100
AcDbEntity
  8
90000_FRAME
370
    13
  6
CONTINUOUS
 62
     7
100
AcDbCircle
 10
286.643453
 20
18.677305
 30
0.0
 40
2.100727
100
AcDbArc
 50
282.405836
 51
311.864443
  0
ARC
  5
1329
100
AcDbEntity
  8
90000_FRAME
370
    13
  6
CONTINUOUS
 62
     7
100
AcDbCircle
 10
286.369889
 20
20.285646
 30
0.0
 40
0.302963
100
AcDbArc
 50
154.440035
 51
221.82017
  0
ARC
  5
132A
100
AcDbEntity
  8
90000_FRAME
370
    13
  6
CONTINUOUS
 62
     7
100
AcDbCircle
 10
286.44911
 20
20.206425
 30
0.0
 40
0.410309
100
AcDbArc
 50
102.828783
 51
149.225964
  0
ARC
  5
132B
100
AcDbEntity
  8
90000_FRAME
370
    13
  6
CONTINUOUS
 62
     7
100
AcDbCircle
 10
286.866137
 20
18.46409
 30
0.0
 40
2.201837
100
AcDbArc
 50
84.040006
 51
103.342766
  0
ARC
  5
132C
100
AcDbEntity
  8
90000_FRAME
370
    13
  6
CONTINUOUS
 62
     7
100
AcDbCircle
 10
286.525173
 20
16.046726
 30
0.0
 40
4.642374
100
AcDbArc
 50
70.262586
 51
82.952419
  0
ARC
  5
132D
100
AcDbEntity
  8
90000_FRAME
370
    13
  6
CONTINUOUS
 62
     7
100
AcDbCircle
 10
286.011155
 20
20.718349
 30
0.0
 40
3.258756
100
AcDbArc
 50
247.530021
 51
280.757952
  0
ARC
  5
132E
100
AcDbEntity
  8
90000_FRAME
370
    13
  6
CONTINUOUS
 62
     7
100
AcDbCircle
 10
279.626188
 20
2.466829
 30
0.0
 40
17.331608
100
AcDbArc
 50
65.341467
 51
67.399777
  0
ARC
  5
132F
100
AcDbEntity
  8
90000_FRAME
370
    13
  6
CONTINUOUS
 62
     7
100
AcDbCircle
 10
290.42205
 20
28.259255
 30
0.0
 40
10.629164
100
AcDbArc
 50
242.86201
 51
247.104203
  0
ARC
  5
1330
100
AcDbEntity
  8
90000_FRAME
370
    13
  6
CONTINUOUS
 62
     7
100
AcDbCircle
 10
286.567149
 20
20.725324
 30
0.0
 40
2.166292
100
AcDbArc
 50
227.311928
 51
242.704032
  0
ARC
  5
1331
100
AcDbEntity
  8
90000_FRAME
370
    13
  6
CONTINUOUS
 62
     7
100
AcDbCircle
 10
285.963118
 20
20.019646
 30
0.0
 40
1.238522
100
AcDbArc
 50
194.795219
 51
225.717655
  0
ARC
  5
1332
100
AcDbEntity
  8
90000_FRAME
370
    13
  6
CONTINUOUS
 62
     7
100
AcDbCircle
 10
286.5823
 20
19.171599
 30
0.0
 40
2.366925
100
AcDbArc
 50
86.221802
 51
120.42726
  0
ARC
  5
1333
100
AcDbEntity
  8
90000_FRAME
370
    13
  6
CONTINUOUS
 62
     7
100
AcDbCircle
 10
286.313444
 20
12.475431
 30
0.0
 40
9.067905
100
AcDbArc
 50
78.682705
 51
87.31476
  0
ARC
  5
1334
100
AcDbEntity
  8
90000_FRAME
370
    13
  6
CONTINUOUS
 62
     7
100
AcDbCircle
 10
286.202684
 20
19.860792
 30
0.0
 40
1.580547
100
AcDbArc
 50
121.214095
 51
141.525477
  0
ARC
  5
1335
100
AcDbEntity
  8
90000_FRAME
370
    13
  6
CONTINUOUS
 62
     7
100
AcDbCircle
 10
286.779858
 20
20.67185
 30
0.0
 40
0.866128
100
AcDbArc
 50
222.776039
 51
239.036243
  0
ARC
  5
1336
100
AcDbEntity
  8
90000_FRAME
370
    13
  6
CONTINUOUS
 62
     7
100
AcDbCircle
 10
284.273148
 20
13.341577
 30
0.0
 40
6.858774
100
AcDbArc
 50
59.902027
 51
68.203648
  0
ARC
  5
1337
100
AcDbEntity
  8
90000_FRAME
370
    13
  6
CONTINUOUS
 62
     7
100
AcDbCircle
 10
287.681643
 20
22.267464
 30
0.0
 40
2.698741
100
AcDbArc
 50
240.0482
 51
251.377967
  0
ARC
  5
1338
100
AcDbEntity
  8
90000_FRAME
370
    13
  6
CONTINUOUS
 62
     7
100
AcDbCircle
 10
287.016186
 20
18.110565
 30
0.0
 40
1.433447
100
AcDbArc
 50
315.890455
 51
333.522926
  0
ARC
  5
1339
100
AcDbEntity
  8
90000_FRAME
370
    13
  6
CONTINUOUS
 62
     7
100
AcDbCircle
 10
287.020824
 20
18.057158
 30
0.0
 40
1.406229
100
AcDbArc
 50
335.386797
 51
24.391512
  0
ARC
  5
133A
100
AcDbEntity
  8
90000_FRAME
370
    13
  6
CONTINUOUS
 62
     7
100
AcDbCircle
 10
286.948619
 20
17.979301
 30
0.0
 40
1.504703
100
AcDbArc
 50
25.956292
 51
59.483483
  0
LINE
  5
133B
100
AcDbEntity
  8
90000_FRAME
370
    13
  6
CONTINUOUS
 62
     7
100
AcDbLine
 10
284.957489
 20
20.833742
 30
0.0
 11
285.231555
 21
21.107815
 31
0.0
  0
ARC
  5
133C
100
AcDbEntity
  8
90000_FRAME
370
    13
  6
CONTINUOUS
 62
     7
100
AcDbCircle
 10
286.025277
 20
20.059866
 30
0.0
 40
1.309092
100
AcDbArc
 50
164.197486
 51
195.802514
  0
ARC
  5
133D
100
AcDbEntity
  8
90000_FRAME
370
    13
  6
CONTINUOUS
 62
     7
100
AcDbCircle
 10
285.857374
 20
20.167374
 30
0.0
 40
1.119747
100
AcDbArc
 50
142.813918
 51
167.152295
  0
LINE
  5
133E
100
AcDbEntity
  8
90000_FRAME
370
    13
  6
CONTINUOUS
 62
     7
100
AcDbLine
 10
415.0
 20
5.0
 30
0.0
 11
415.0
 21
292.0
 31
0.0
  0
LINE
  5
133F
100
AcDbEntity
  8
90000_FRAME
370
    13
  6
CONTINUOUS
 62
     7
100
AcDbLine
 10
5.0
 20
5.0
 30
0.0
 11
5.0
 21
292.0
 31
0.0
  0
LINE
  5
1340
100
AcDbEntity
  8
90000_FRAME
370
    13
  6
CONTINUOUS
 62
     7
100
AcDbLine
 10
420.0
 20
0.0
 30
0.0
 11
420.0
 21
297.0
 31
0.0
  0
LINE
  5
1341
100
AcDbEntity
  8
90000_FRAME
370
    13
  6
CONTINUOUS
 62
     7
100
AcDbLine
 10
0.0
 20
0.0
 30
0.0
 11
0.0
 21
297.0
 31
0.0
  0
LINE
  5
1342
100
AcDbEntity
  8
90000_FRAME
370
    13
  6
CONTINUOUS
 62
     7
100
AcDbLine
 10
415.0
 20
292.0
 30
0.0
 11
5.0
 21
292.0
 31
0.0
  0
LINE
  5
1343
100
AcDbEntity
  8
90000_FRAME
370
    13
  6
CONTINUOUS
 62
     7
100
AcDbLine
 10
420.0
 20
297.0
 30
0.0
 11
0.0
 21
297.0
 31
0.0
  0
LINE
  5
1344
100
AcDbEntity
  8
90000_FRAME
370
    13
  6
CONTINUOUS
 62
     7
100
AcDbLine
 10
415.0
 20
5.0
 30
0.0
 11
5.0
 21
5.0
 31
0.0
  0
LINE
  5
1345
100
AcDbEntity
  8
90000_FRAME
370
    13
  6
CONTINUOUS
 62
     7
100
AcDbLine
 10
420.0
 20
0.0
 30
0.0
 11
0.0
 21
0.0
 31
0.0
  0
ENDSEC
  0
SECTION
  2
OBJECTS
  0
DICTIONARY
  5
10CF
100
AcDbDictionary
280
     0
281
     1
  3
ACAD_GROUP
350
10D0
  3
ACAD_MLINESTYLE
350
10D1
  0
DICTIONARY
  5
10D0
102
{ACAD_REACTORS
330
10CF
102
}
100
AcDbDictionary
280
     0
281
     1
  0
DICTIONARY
  5
10D1
102
{ACAD_REACTORS
330
10CF
102
}
100
AcDbDictionary
280
     0
281
     1
  3
Standard
350
10D2
  0
MLINESTYLE
  5
10D2
102
{ACAD_REACTORS
330
10D1
102
}
100
AcDbMlineStyle
  2
Standard
 70
     0
  3

 62
     0
 51
90.0
 52
90.0
 71
     2
 49
0.5
 62
   256
  6
ByLayer
 49
-0.5
 62
   256
  6
ByLayer
  0
ENDSEC
  0
EOF
