  0
SECTION
  2
HEADER
  9
$ACADVER
  1
AC1015
  9
$ACADMAINTVER
 70
     6
  9
$DWGCODEPAGE
  3
ANSI_1252
  9
$INSBASE
 10
0.0
 20
0.0
 30
0.0
  9
$EXTMIN
 10
69.395417
 20
287.976483
 30
-1.0
  9
$EXTMAX
 10
1026.514554
 20
492.804657
 30
0.7
  9
$LIMMIN
 10
0.0
 20
0.0
  9
$LIMMAX
 10
12.0
 20
9.0
  9
$ORTHOMODE
 70
     0
  9
$REGENMODE
 70
     1
  9
$FILLMODE
 70
     1
  9
$QTEXTMODE
 70
     0
  9
$MIRRTEXT
 70
     0
  9
$LTSCALE
 40
5.0
  9
$ATTMODE
 70
     1
  9
$TEXTSIZE
 40
0.2
  9
$TRACEWID
 40
0.05
  9
$TEXTSTYLE
  7
STANDARD
  9
$CLAYER
  8
0
  9
$CELTYPE
  6
ByLayer
  9
$CECOLOR
 62
   256
  9
$CELTSCALE
 40
1.0
  9
$DISPSILH
 70
     0
  9
$DIMSCALE
 40
1.0
  9
$DIMASZ
 40
0.18
  9
$DIMEXO
 40
0.0625
  9
$DIMDLI
 40
0.38
  9
$DIMRND
 40
0.0
  9
$DIMDLE
 40
0.0
  9
$DIMEXE
 40
0.18
  9
$DIMTP
 40
0.0
  9
$DIMTM
 40
0.0
  9
$DIMTXT
 40
0.18
  9
$DIMCEN
 40
0.09
  9
$DIMTSZ
 40
0.0
  9
$DIMTOL
 70
     0
  9
$DIMLIM
 70
     0
  9
$DIMTIH
 70
     1
  9
$DIMTOH
 70
     1
  9
$DIMSE1
 70
     0
  9
$DIMSE2
 70
     0
  9
$DIMTAD
 70
     0
  9
$DIMZIN
 70
     0
  9
$DIMBLK
  1

  9
$DIMASO
 70
     1
  9
$DIMSHO
 70
     1
  9
$DIMPOST
  1

  9
$DIMAPOST
  1

  9
$DIMALT
 70
     0
  9
$DIMALTD
 70
     2
  9
$DIMALTF
 40
25.4
  9
$DIMLFAC
 40
1.0
  9
$DIMTOFL
 70
     0
  9
$DIMTVP
 40
0.0
  9
$DIMTIX
 70
     0
  9
$DIMSOXD
 70
     0
  9
$DIMSAH
 70
     0
  9
$DIMBLK1
  1

  9
$DIMBLK2
  1

  9
$DIMSTYLE
  2
STANDARD
  9
$DIMCLRD
 70
     0
  9
$DIMCLRE
 70
     0
  9
$DIMCLRT
 70
     0
  9
$DIMTFAC
 40
1.0
  9
$DIMGAP
 40
0.09
  9
$DIMJUST
 70
     0
  9
$DIMSD1
 70
     0
  9
$DIMSD2
 70
     0
  9
$DIMTOLJ
 70
     1
  9
$DIMTZIN
 70
     0
  9
$DIMALTZ
 70
     0
  9
$DIMALTTZ
 70
     0
  9
$DIMUPT
 70
     0
  9
$DIMDEC
 70
     4
  9
$DIMTDEC
 70
     4
  9
$DIMALTU
 70
     2
  9
$DIMALTTD
 70
     2
  9
$DIMTXSTY
  7
STANDARD
  9
$DIMAUNIT
 70
     0
  9
$DIMADEC
 70
     0
  9
$DIMALTRND
 40
0.0
  9
$DIMAZIN
 70
     0
  9
$DIMDSEP
 70
     0
  9
$DIMATFIT
 70
     3
  9
$DIMFRAC
 70
     0
  9
$DIMLDRBLK
  1

  9
$DIMLUNIT
 70
     2
  9
$DIMLWD
 70
     0
  9
$DIMLWE
 70
     0
  9
$DIMTMOVE
 70
     0
  9
$LUNITS
 70
     2
  9
$LUPREC
 70
     4
  9
$SKETCHINC
 40
0.1
  9
$FILLETRAD
 40
0.0
  9
$AUNITS
 70
     0
  9
$AUPREC
 70
     0
  9
$MENU
  1
.
  9
$ELEVATION
 40
0.0
  9
$PELEVATION
 40
0.0
  9
$THICKNESS
 40
0.0
  9
$LIMCHECK
 70
     0
  9
$CHAMFERA
 40
0.0
  9
$CHAMFERB
 40
0.0
  9
$CHAMFERC
 40
0.0
  9
$CHAMFERD
 40
0.0
  9
$SKPOLY
 70
     0
  9
$TDCREATE
 40
2453353.758792454
  9
$TDUCREATE
 40
0.000000000
  9
$TDUPDATE
 40
0.000000000
  9
$TDUUPDATE
 40
2447892.958333334
  9
$TDINDWG
 40
19583144.0627810880
  9
$TDUSRTIMER
 40
0.0000000000
  9
$USRTIMER
 70
     1
  9
$ANGBASE
 50
0.0
  9
$ANGDIR
 70
     0
  9
$PDMODE
 70
     0
  9
$PDSIZE
 40
0.0
  9
$PLINEWID
 40
0.0
  9
$SPLFRAME
 70
     0
  9
$SPLINETYPE
 70
     6
  9
$SPLINESEGS
 70
     8
  9
$HANDSEED
  5
14E8
  9
$SURFTAB1
 70
     6
  9
$SURFTAB2
 70
     6
  9
$SURFTYPE
 70
     6
  9
$SURFU
 70
     6
  9
$SURFV
 70
     6
  9
$UCSBASE
  2

  9
$UCSNAME
  2

  9
$UCSORG
 10
0.0
 20
0.0
 30
0.0
  9
$UCSXDIR
 10
1.0
 20
0.0
 30
0.0
  9
$UCSYDIR
 10
0.0
 20
1.0
 30
0.0
  9
$UCSORTHOREF
  2

  9
$UCSORTHOVIEW
 70
     0
  9
$UCSORGTOP
 10
0.0
 20
0.0
 30
0.0
  9
$UCSORGBOTTOM
 10
0.0
 20
0.0
 30
0.0
  9
$UCSORGLEFT
 10
0.0
 20
0.0
 30
0.0
  9
$UCSORGRIGHT
 10
0.0
 20
0.0
 30
0.0
  9
$UCSORGFRONT
 10
0.0
 20
0.0
 30
0.0
  9
$UCSORGBACK
 10
0.0
 20
0.0
 30
0.0
  9
$PUCSBASE
  2

  9
$PUCSNAME
  2

  9
$PUCSORG
 10
0.0
 20
0.0
 30
0.0
  9
$PUCSXDIR
 10
1.0
 20
0.0
 30
0.0
  9
$PUCSYDIR
 10
0.0
 20
1.0
 30
0.0
  9
$PUCSORTHOREF
  2

  9
$PUCSORTHOVIEW
 70
     0
  9
$PUCSORGTOP
 10
0.0
 20
0.0
 30
0.0
  9
$PUCSORGBOTTOM
 10
0.0
 20
0.0
 30
0.0
  9
$PUCSORGLEFT
 10
0.0
 20
0.0
 30
0.0
  9
$PUCSORGRIGHT
 10
0.0
 20
0.0
 30
0.0
  9
$PUCSORGFRONT
 10
0.0
 20
0.0
 30
0.0
  9
$PUCSORGBACK
 10
0.0
 20
0.0
 30
0.0
  9
$USERI1
 70
     0
  9
$USERI2
 70
     0
  9
$USERI3
 70
     0
  9
$USERI4
 70
     0
  9
$USERI5
 70
     0
  9
$USERR1
 40
0.0
  9
$USERR2
 40
0.0
  9
$USERR3
 40
0.0
  9
$USERR4
 40
0.0
  9
$USERR5
 40
0.0
  9
$WORLDVIEW
 70
     1
  9
$SHADEDGE
 70
     3
  9
$SHADEDIF
 70
    70
  9
$TILEMODE
 70
     1
  9
$MAXACTVP
 70
    64
  9
$PINSBASE
 10
0.0
 20
0.0
 30
0.0
  9
$PLIMCHECK
 70
     0
  9
$PEXTMIN
 10
0.0
 20
0.0
 30
0.0
  9
$PEXTMAX
 10
0.0
 20
0.0
 30
0.0
  9
$PLIMMIN
 10
0.0
 20
0.0
  9
$PLIMMAX
 10
0.0
 20
0.0
  9
$UNITMODE
 70
     0
  9
$VISRETAIN
 70
     1
  9
$PLINEGEN
 70
     0
  9
$PSLTSCALE
 70
     1
  9
$TREEDEPTH
 70
  3020
  9
$CMLSTYLE
  2
Standard
  9
$CMLJUST
 70
     0
  9
$CMLSCALE
 40
1.0
  9
$PROXYGRAPHICS
 70
     0
  9
$MEASUREMENT
 70
     0
  9
$CELWEIGHT
370
     0
  9
$ENDCAPS
280
     0
  9
$JOINSTYLE
280
     0
  9
$LWDISPLAY
290
     0
  9
$INSUNITS
 70
     0
  9
$HYPERLINKBASE
  1

  9
$STYLESHEET
  1

  9
$XEDIT
290
     1
  9
$CEPSNTYPE
380
     0
  9
$PSTYLEMODE
290
     1
  9
$FINGERPRINTGUID
  2

  9
$VERSIONGUID
  2

  9
$EXTNAMES
290
     1
  9
$PSVPSCALE
 40
0.0
  0
ENDSEC
  0
SECTION
  2
CLASSES
  0
CLASS
  1
LWPOLYLINE
  2
AcDbPolyline
  3
AutoCAD 2000
 90
        0
280
     0
281
     1
  0
CLASS
  1
IMAGE
  2
AcDbRasterImage
  3
ISM
 90
      127
280
     0
281
     1
  0
CLASS
  1
OLE2FRAME
  2
AcDbOle2Frame
  3
AutoCAD 2000
 90
        0
280
     0
281
     1
  0
CLASS
  1
HATCH
  2
AcDbHatch
  3
AutoCAD 2000
 90
        0
280
     0
281
     1
  0
CLASS
  1
DICTIONARYVAR
  2
AcDbDictionaryVar
  3
AutoCAD 2000
 90
        0
280
     0
281
     0
  0
CLASS
  1
RASTERVARIABLES
  2
AcDbRasterVariables
  3
ISM
 90
        0
280
     0
281
     0
  0
CLASS
  1
IMAGEDEF
  2
AcDbRasterImageDef
  3
ISM
 90
        0
280
     0
281
     0
  0
CLASS
  1
IMAGEDEF_REACTOR
  2
AcDbRasterImageDefReactor
  3
ISM
 90
        1
280
     0
281
     0
  0
CLASS
  1
IDBUFFER
  2
AcDbIdBuffer
  3
AutoCAD 2000
 90
        0
280
     0
281
     0
  0
CLASS
  1
SPATIAL_FILTER
  2
AcDbSpatialFilter
  3
AutoCAD 2000
 90
        0
280
     0
281
     0
  0
CLASS
  1
XRECORD
  2
AcDbXrecord
  3
AutoCAD 2000
 90
        0
280
     0
281
     0
  0
CLASS
  1
SORTENTSTABLE
  2
AcDbSortentsTable
  3
AutoCAD 2000
 90
        0
280
     0
281
     0
  0
CLASS
  1
LAYER_INDEX
  2
AcDbLayerIndex
  3
AutoCAD 2000
 90
        0
280
     0
281
     0
  0
CLASS
  1
SPATIAL_INDEX
  2
AcDbSpatialIndex
  3
AutoCAD 2000
 90
        0
280
     0
281
     0
  0
CLASS
  1
OBJECT_PTR
  2
CAseDLPNTableRecord
  3
"ASE-LPNTableRecord"
 90
        1
280
     0
281
     0
  0
CLASS
  1
LAYOUT
  2
AcDbLayout
  3
AutoCAD 2000
 90
        0
280
     0
281
     0
  0
CLASS
  1
PLOTSETTINGS
  2
AcDbPlotSettings
  3
AutoCAD 2000
 90
        0
280
     0
281
     0
  0
CLASS
  1
ACDBDICTIONARYWDFLT
  2
AcDbDictionaryWithDefault
  3
AutoCAD 2000
 90
        0
280
     0
281
     0
  0
CLASS
  1
ACDBPLACEHOLDER
  2
AcDbPlaceHolder
  3
AutoCAD 2000
 90
        0
280
     0
281
     0
  0
CLASS
  1
VBA_PROJECT
  2
AcDbVbaProject
  3
acadvba
 90
        0
280
     0
281
     0
  0
CLASS
  1
WIPEOUT
  2
AcDbWipeout
  3
WipeOut|AutoCAD Express Tool|expresstools@autodesk.com
 90
      127
280
     0
281
     1
  0
CLASS
  1
WIPEOUTVARIABLES
  2
AcDbWipeoutVariables
  3
WipeOut|AutoCAD Express Tool|expresstools@autodesk.com
 90
        0
280
     0
281
     0
  0
CLASS
  1
RTEXT
  2
RText
  3
RText|AutoCAD Express Tool|expresstools@autodesk.com
 90
        0
280
     0
281
     1
  0
CLASS
  1
ARCALIGNEDTEXT
  2
AcDbArcAlignedText
  3
ATEXT|AutoCAD Express Tool|expresstools@autodesk.com
 90
        0
280
     0
281
     1
  0
ENDSEC
  0
SECTION
  2
TABLES
  0
TABLE
  2
VPORT
  5
FB2
100
AcDbSymbolTable
 70
     1
  0
VPORT
  5
FD1
100
AcDbSymbolTableRecord
100
AcDbViewportTableRecord
  2
*ACTIVE
 70
     0
 10
0.0
 20
0.0
 11
1.0
 21
1.0
 12
450.328833
 22
266.374849
 13
0.0
 23
0.0
 14
0.5
 24
0.5
 15
0.5
 25
0.5
 16
0.0
 26
0.0
 36
1.0
 17
0.0
 27
0.0
 37
0.0
 40
620.078606
 41
1.701534
 42
50.0
 43
0.0
 44
0.0
 50
0.0
 51
0.0
 71
    16
 72
  1000
 73
     1
 74
     3
 75
     0
 76
     0
 77
     0
 78
     0
281
     0
 65
     0
110
0.0
120
0.0
130
0.0
111
1.0
121
0.0
131
0.0
112
0.0
122
1.0
132
0.0
345
0
346
0
 79
     0
146
0.0
  0
ENDTAB
  0
TABLE
  2
LTYPE
  5
FAF
100
AcDbSymbolTable
 70
     6
  0
LTYPE
  5
FB8
100
AcDbSymbolTableRecord
100
AcDbLinetypeTableRecord
  2
ByBlock
 70
    64
  3

 72
    65
 73
     0
 40
0.0
  0
LTYPE
  5
FB9
100
AcDbSymbolTableRecord
100
AcDbLinetypeTableRecord
  2
ByLayer
 70
    64
  3

 72
    65
 73
     0
 40
0.0
  0
LTYPE
  5
FBA
100
AcDbSymbolTableRecord
100
AcDbLinetypeTableRecord
  2
CONTINUOUS
 70
     0
  3
Solid line
 72
    65
 73
     0
 40
0.0
  0
LTYPE
  5
FBB
100
AcDbSymbolTableRecord
100
AcDbLinetypeTableRecord
  2
CENTER
 70
     0
  3
____ _ ____ _ ____ _ ____ _ ____ _ ____ _ ____
 72
    65
 73
     4
 40
0.6
 49
0.375
 74
     0
 49
-0.075
 74
     0
 49
0.075
 74
     0
 49
-0.075
 74
     0
  0
LTYPE
  5
FBC
100
AcDbSymbolTableRecord
100
AcDbLinetypeTableRecord
  2
ACAD_ISO02W100
 70
     0
  3
ISO Strichlinie __ __ __ __ __ __ __ __ __ __ _
 72
    65
 73
     2
 40
15.0
 49
12.0
 74
     0
 49
-3.0
 74
     0
  0
LTYPE
  5
FBD
100
AcDbSymbolTableRecord
100
AcDbLinetypeTableRecord
  2
DASHED
 70
     0
  3
_ _ _ _ _ _ _ _ _ _ _ _ _ _ _ _ _ _ _ _ _ _ _ _
 72
    65
 73
     2
 40
0.375
 49
0.25
 74
     0
 49
-0.125
 74
     0
  0
ENDTAB
  0
TABLE
  2
LAYER
  5
FAD
100
AcDbSymbolTable
 70
     5
  0
LAYER
  5
FBE
100
AcDbSymbolTableRecord
100
AcDbLayerTableRecord
  2
0
 70
     0
 62
     7
  6
CONTINUOUS
290
     1
370
    -3
390
0
  0
LAYER
  5
FBF
100
AcDbSymbolTableRecord
100
AcDbLayerTableRecord
  2
90000_FRAME
 70
     0
 62
     7
  6
CONTINUOUS
290
     1
370
    -3
390
0
  0
LAYER
  5
FC0
100
AcDbSymbolTableRecord
100
AcDbLayerTableRecord
  2
91000_TIP
 70
     0
 62
     7
  6
CONTINUOUS
290
     1
370
    -3
390
0
  0
LAYER
  5
FC1
100
AcDbSymbolTableRecord
100
AcDbLayerTableRecord
  2
10000_FRONT
 70
     0
 62
     7
  6
CONTINUOUS
290
     1
370
    -3
390
0
  0
LAYER
  5
FC5
100
AcDbSymbolTableRecord
100
AcDbLayerTableRecord
  2
DEFPOINTS
 70
     0
 62
     7
  6
CONTINUOUS
290
     0
370
    -3
390
0
  0
ENDTAB
  0
TABLE
  2
STYLE
  5
FAE
100
AcDbSymbolTable
 70
     1
  0
STYLE
  5
FD5
100
AcDbSymbolTableRecord
100
AcDbTextStyleTableRecord
  2
STANDARD
 70
     0
 40
0.0
 41
1.0
 50
0.0
 71
     0
 42
0.2
  3
txt.shx
  4

  0
ENDTAB
  0
TABLE
  2
VIEW
  5
FB0
100
AcDbSymbolTable
 70
     0
  0
ENDTAB
  0
TABLE
  2
UCS
  5
FB1
100
AcDbSymbolTable
 70
     0
  0
ENDTAB
  0
TABLE
  2
APPID
  5
FB3
100
AcDbSymbolTable
 70
     3
  0
APPID
  5
FD2
100
AcDbSymbolTableRecord
100
AcDbRegAppTableRecord
  2
ACAD
 70
     0
  0
APPID
  5
FD3
100
AcDbSymbolTableRecord
100
AcDbRegAppTableRecord
  2
AUSTER_ANSICHT
 70
     0
  0
APPID
  5
FD4
100
AcDbSymbolTableRecord
100
AcDbRegAppTableRecord
  2
AUSTER_FOLIE
 70
     0
  0
ENDTAB
  0
TABLE
  2
DIMSTYLE
  5
FB4
100
AcDbSymbolTable
 70
     3
100
AcDbDimStyleTable
 71
     0
  0
DIMSTYLE
105
FDF
100
AcDbSymbolTableRecord
100
AcDbDimStyleTableRecord
  2
STANDARD
 70
     0
  3

  4

 40
1.0
 41
0.18
 42
0.0625
 43
0.38
 44
0.18
 45
0.0
 46
0.0
 47
0.0
 48
0.0
 71
     0
 72
     0
 73
     1
 74
     1
 75
     0
 76
     0
 77
     0
 78
     0
 79
     0
140
0.18
141
0.09
142
0.0
143
25.4
144
1.0
145
0.0
146
1.0
147
0.09
148
0.0
170
     0
171
     2
172
     0
173
     0
174
     0
175
     0
176
     0
177
     0
178
     0
179
     0
271
     4
272
     4
273
     2
274
     2
275
     0
276
     0
277
     2
278
    46
279
     0
280
     0
281
     0
282
     0
283
     1
284
     0
285
     0
286
     0
288
     0
289
     3
340
FD5
341
0
342
0
343
0
344
0
371
    -2
372
    -2
  0
DIMSTYLE
105
FE0
100
AcDbSymbolTableRecord
100
AcDbDimStyleTableRecord
  2
DSTYLE1
 70
     0
  3

  4

 40
1.0
 41
3.0
 42
0.0
 43
0.38
 44
1.0
 45
0.0
 46
0.0
 47
0.0
 48
0.0
 71
     0
 72
     0
 73
     0
 74
     0
 75
     0
 76
     0
 77
     1
 78
     3
 79
     0
140
2.5
141
0.09
142
0.0
143
0.03937
144
1.0
145
0.0
146
1.0
147
1.0
148
0.0
170
     0
171
     2
172
     0
173
     0
174
     0
175
     0
176
     0
177
     0
178
     0
179
     0
271
     4
272
     4
273
     2
274
     2
275
     0
276
     0
277
     2
278
    46
279
     0
280
     0
281
     0
282
     0
283
     1
284
     0
285
     0
286
     0
288
     0
289
     3
340
FD5
341
0
342
0
343
0
344
0
371
    -2
372
    -2
  0
DIMSTYLE
105
FE1
100
AcDbSymbolTableRecord
100
AcDbDimStyleTableRecord
  2
H035
 70
     0
  3

  4

 40
0.0
 41
3.5
 42
0.0
 43
3.75
 44
2.0
 45
0.0
 46
0.0
 47
0.0
 48
0.0
 71
     0
 72
     0
 73
     0
 74
     0
 75
     0
 76
     0
 77
     1
 78
     8
 79
     0
140
3.5
141
2.5
142
0.0
143
0.039
144
1.0
145
0.0
146
1.0
147
0.5
148
0.0
170
     0
171
     4
172
     1
173
     0
174
     0
175
     0
176
   256
177
     7
178
     7
179
     0
271
     4
272
     4
273
     2
274
     2
275
     0
276
     0
277
     2
278
    46
279
     0
280
     0
281
     0
282
     0
283
     1
284
     0
285
     0
286
     0
288
     0
289
     3
340
FD5
341
0
342
0
343
0
344
0
371
    -2
372
    -2
  0
ENDTAB
  0
TABLE
  2
BLOCK_RECORD
  5
FDA
100
AcDbSymbolTable
 70
     2
  0
BLOCK_RECORD
  5
FD8
100
AcDbSymbolTableRecord
100
AcDbBlockTableRecord
  2
*Model_Space
340
0
  0
BLOCK_RECORD
  5
FD9
100
AcDbSymbolTableRecord
100
AcDbBlockTableRecord
  2
*Paper_Space
340
0
  0
BLOCK_RECORD
  5
FD6
100
AcDbSymbolTableRecord
100
AcDbBlockTableRecord
  2
$MODEL_SPACE
340
0
  0
BLOCK_RECORD
  5
FD7
100
AcDbSymbolTableRecord
100
AcDbBlockTableRecord
  2
$PAPER_SPACE
340
0
  0
ENDTAB
  0
ENDSEC
  0
SECTION
  2
BLOCKS
  0
BLOCK
  5
FDB
100
AcDbEntity
  8
0
390
0
100
AcDbBlockBegin
  2
*Model_Space
 70
     0
 10
0.0
 20
0.0
 30
0.0
  3
*Model_Space
  1

  0
ENDBLK
  5
FDC
100
AcDbEntity
  8
0
390
0
100
AcDbBlockEnd
  0
BLOCK
  5
FDD
100
AcDbEntity
 67
     1
  8
0
390
0
100
AcDbBlockBegin
  2
*Paper_Space
 70
     0
 10
0.0
 20
0.0
 30
0.0
  3
*Paper_Space
  1

  0
ENDBLK
  5
FDE
100
AcDbEntity
 67
     1
  8
0
390
0
100
AcDbBlockEnd
  0
BLOCK
  5
FE2
100
AcDbEntity
  8
0
100
AcDbBlockBegin
  2
$MODEL_SPACE
 70
     0
 10
0.0
 20
0.0
 30
0.0
  3
$MODEL_SPACE
  1

  0
ENDBLK
  5
21
100
AcDbEntity
  8
0
100
AcDbBlockEnd
  0
BLOCK
  5
FE3
100
AcDbEntity
  8
0
100
AcDbBlockBegin
  2
$PAPER_SPACE
 70
     0
 10
0.0
 20
0.0
 30
0.0
  3
$PAPER_SPACE
  1

  0
ENDBLK
  5
76
100
AcDbEntity
  8
0
100
AcDbBlockEnd
  0
ENDSEC
  0
SECTION
  2
ENTITIES
  0
LINE
  5
FE9
100
AcDbEntity
  8
10000_FRONT
370
    25
390
0
  6
CONTINUOUS
 62
     7
100
AcDbLine
 10
138.712461
 20
201.3936
 30
0.0
 11
139.399226
 21
202.165089
 31
0.0
  0
LINE
  5
FEA
100
AcDbEntity
  8
10000_FRONT
370
    25
390
0
  6
CONTINUOUS
 62
     7
100
AcDbLine
 10
139.399226
 20
202.165089
 30
0.0
 11
139.643844
 21
202.491114
 31
0.0
  0
LINE
  5
FEB
100
AcDbEntity
  8
10000_FRONT
370
    25
390
0
  6
CONTINUOUS
 62
     7
100
AcDbLine
 10
139.643844
 20
202.491114
 30
0.0
 11
139.723086
 21
202.652025
 31
0.0
  0
LINE
  5
FEC
100
AcDbEntity
  8
10000_FRONT
370
    25
390
0
  6
CONTINUOUS
 62
     7
100
AcDbLine
 10
139.723086
 20
202.652025
 30
0.0
 11
139.723086
 21
202.8069
 31
0.0
  0
LINE
  5
FED
100
AcDbEntity
  8
10000_FRONT
370
    25
390
0
  6
CONTINUOUS
 62
     7
100
AcDbLine
 10
139.723086
 20
202.8069
 30
0.0
 11
139.64614
 21
202.962038
 31
0.0
  0
LINE
  5
FEE
100
AcDbEntity
  8
10000_FRONT
370
    25
390
0
  6
CONTINUOUS
 62
     7
100
AcDbLine
 10
139.64614
 20
202.962038
 30
0.0
 11
139.489953
 21
203.040001
 31
0.0
  0
LINE
  5
FEF
100
AcDbEntity
  8
10000_FRONT
370
    25
390
0
  6
CONTINUOUS
 62
     7
100
AcDbLine
 10
139.489953
 20
203.040001
 30
0.0
 11
139.170688
 21
203.040001
 31
0.0
  0
LINE
  5
FF0
100
AcDbEntity
  8
10000_FRONT
370
    25
390
0
  6
CONTINUOUS
 62
     7
100
AcDbLine
 10
139.170688
 20
203.040001
 30
0.0
 11
139.015649
 21
202.961775
 31
0.0
  0
LINE
  5
FF1
100
AcDbEntity
  8
10000_FRONT
370
    25
390
0
  6
CONTINUOUS
 62
     7
100
AcDbLine
 10
139.015649
 20
202.961775
 30
0.0
 11
138.937554
 21
202.8069
 31
0.0
  0
LINE
  5
FF2
100
AcDbEntity
  8
10000_FRONT
370
    25
390
0
  6
CONTINUOUS
 62
     7
100
AcDbLine
 10
138.937554
 20
202.8069
 30
0.0
 11
138.937554
 21
202.7103
 31
0.0
  0
LINE
  5
FF3
100
AcDbEntity
  8
10000_FRONT
370
    25
390
0
  6
CONTINUOUS
 62
     7
100
AcDbLine
 10
138.937554
 20
202.7103
 30
0.0
 11
138.818117
 21
202.7103
 31
0.0
  0
LINE
  5
FF4
100
AcDbEntity
  8
10000_FRONT
370
    25
390
0
  6
CONTINUOUS
 62
     7
100
AcDbLine
 10
138.818117
 20
202.7103
 30
0.0
 11
138.818117
 21
202.816088
 31
0.0
  0
LINE
  5
FF5
100
AcDbEntity
  8
10000_FRONT
370
    25
390
0
  6
CONTINUOUS
 62
     7
100
AcDbLine
 10
138.818117
 20
202.816088
 30
0.0
 11
138.901953
 21
202.988287
 31
0.0
  0
LINE
  5
FF6
100
AcDbEntity
  8
10000_FRONT
370
    25
390
0
  6
CONTINUOUS
 62
     7
100
AcDbLine
 10
138.901953
 20
202.988287
 30
0.0
 11
138.989235
 21
203.073862
 31
0.0
  0
LINE
  5
FF7
100
AcDbEntity
  8
10000_FRONT
370
    25
390
0
  6
CONTINUOUS
 62
     7
100
AcDbLine
 10
138.989235
 20
203.073862
 30
0.0
 11
139.1615
 21
203.1576
 31
0.0
  0
LINE
  5
FF8
100
AcDbEntity
  8
10000_FRONT
370
    25
390
0
  6
CONTINUOUS
 62
     7
100
AcDbLine
 10
139.1615
 20
203.1576
 30
0.0
 11
139.500289
 21
203.1576
 31
0.0
  0
LINE
  5
FF9
100
AcDbEntity
  8
10000_FRONT
370
    25
390
0
  6
CONTINUOUS
 62
     7
100
AcDbLine
 10
139.500289
 20
203.1576
 30
0.0
 11
139.671407
 21
203.07255
 31
0.0
  0
LINE
  5
FFA
100
AcDbEntity
  8
10000_FRONT
370
    25
390
0
  6
CONTINUOUS
 62
     7
100
AcDbLine
 10
139.671407
 20
203.07255
 30
0.0
 11
139.758688
 21
202.98645
 31
0.0
  0
LINE
  5
FFB
100
AcDbEntity
  8
10000_FRONT
370
    25
390
0
  6
CONTINUOUS
 62
     7
100
AcDbLine
 10
139.758688
 20
202.98645
 30
0.0
 11
139.843672
 21
202.814251
 31
0.0
  0
LINE
  5
FFC
100
AcDbEntity
  8
10000_FRONT
370
    25
390
0
  6
CONTINUOUS
 62
     7
100
AcDbLine
 10
139.843672
 20
202.814251
 30
0.0
 11
139.843672
 21
202.639688
 31
0.0
  0
LINE
  5
FFD
100
AcDbEntity
  8
10000_FRONT
370
    25
390
0
  6
CONTINUOUS
 62
     7
100
AcDbLine
 10
139.843672
 20
202.639688
 30
0.0
 11
139.758688
 21
202.4709
 31
0.0
  0
LINE
  5
FFE
100
AcDbEntity
  8
10000_FRONT
370
    25
390
0
  6
CONTINUOUS
 62
     7
100
AcDbLine
 10
139.758688
 20
202.4709
 30
0.0
 11
139.509477
 21
202.139099
 31
0.0
  0
LINE
  5
FFF
100
AcDbEntity
  8
10000_FRONT
370
    25
390
0
  6
CONTINUOUS
 62
     7
100
AcDbLine
 10
139.509477
 20
202.139099
 30
0.0
 11
138.961672
 21
201.5112
 31
0.0
  0
LINE
  5
1000
100
AcDbEntity
  8
10000_FRONT
370
    25
390
0
  6
CONTINUOUS
 62
     7
100
AcDbLine
 10
138.961672
 20
201.5112
 30
0.0
 11
139.925211
 21
201.5112
 31
0.0
  0
LINE
  5
1001
100
AcDbEntity
  8
10000_FRONT
370
    25
390
0
  6
CONTINUOUS
 62
     7
100
AcDbLine
 10
139.925211
 20
201.5112
 30
0.0
 11
139.925211
 21
201.3936
 31
0.0
  0
LINE
  5
1002
100
AcDbEntity
  8
10000_FRONT
370
    25
390
0
  6
CONTINUOUS
 62
     7
100
AcDbLine
 10
139.925211
 20
201.3936
 30
0.0
 11
138.712461
 21
201.3936
 31
0.0
  0
LINE
  5
1003
100
AcDbEntity
  8
10000_FRONT
370
    25
390
0
  6
CONTINUOUS
 62
     7
100
AcDbLine
 10
147.412461
 20
201.3936
 30
0.0
 11
148.099227
 21
202.165089
 31
0.0
  0
LINE
  5
1004
100
AcDbEntity
  8
10000_FRONT
370
    25
390
0
  6
CONTINUOUS
 62
     7
100
AcDbLine
 10
148.099227
 20
202.165089
 30
0.0
 11
148.343844
 21
202.491114
 31
0.0
  0
LINE
  5
1005
100
AcDbEntity
  8
10000_FRONT
370
    25
390
0
  6
CONTINUOUS
 62
     7
100
AcDbLine
 10
148.343844
 20
202.491114
 30
0.0
 11
148.423086
 21
202.652025
 31
0.0
  0
LINE
  5
1006
100
AcDbEntity
  8
10000_FRONT
370
    25
390
0
  6
CONTINUOUS
 62
     7
100
AcDbLine
 10
148.423086
 20
202.652025
 30
0.0
 11
148.423086
 21
202.8069
 31
0.0
  0
LINE
  5
1007
100
AcDbEntity
  8
10000_FRONT
370
    25
390
0
  6
CONTINUOUS
 62
     7
100
AcDbLine
 10
148.423086
 20
202.8069
 30
0.0
 11
148.34614
 21
202.962038
 31
0.0
  0
LINE
  5
1008
100
AcDbEntity
  8
10000_FRONT
370
    25
390
0
  6
CONTINUOUS
 62
     7
100
AcDbLine
 10
148.34614
 20
202.962038
 30
0.0
 11
148.189953
 21
203.040001
 31
0.0
  0
LINE
  5
1009
100
AcDbEntity
  8
10000_FRONT
370
    25
390
0
  6
CONTINUOUS
 62
     7
100
AcDbLine
 10
148.189953
 20
203.040001
 30
0.0
 11
147.870688
 21
203.040001
 31
0.0
  0
LINE
  5
100A
100
AcDbEntity
  8
10000_FRONT
370
    25
390
0
  6
CONTINUOUS
 62
     7
100
AcDbLine
 10
147.870688
 20
203.040001
 30
0.0
 11
147.715648
 21
202.961775
 31
0.0
  0
LINE
  5
100B
100
AcDbEntity
  8
10000_FRONT
370
    25
390
0
  6
CONTINUOUS
 62
     7
100
AcDbLine
 10
147.715648
 20
202.961775
 30
0.0
 11
147.637555
 21
202.8069
 31
0.0
  0
LINE
  5
100C
100
AcDbEntity
  8
10000_FRONT
370
    25
390
0
  6
CONTINUOUS
 62
     7
100
AcDbLine
 10
147.637555
 20
202.8069
 30
0.0
 11
147.637555
 21
202.7103
 31
0.0
  0
LINE
  5
100D
100
AcDbEntity
  8
10000_FRONT
370
    25
390
0
  6
CONTINUOUS
 62
     7
100
AcDbLine
 10
147.637555
 20
202.7103
 30
0.0
 11
147.518117
 21
202.7103
 31
0.0
  0
LINE
  5
100E
100
AcDbEntity
  8
10000_FRONT
370
    25
390
0
  6
CONTINUOUS
 62
     7
100
AcDbLine
 10
147.518117
 20
202.7103
 30
0.0
 11
147.518117
 21
202.816088
 31
0.0
  0
LINE
  5
100F
100
AcDbEntity
  8
10000_FRONT
370
    25
390
0
  6
CONTINUOUS
 62
     7
100
AcDbLine
 10
147.518117
 20
202.816088
 30
0.0
 11
147.601953
 21
202.988287
 31
0.0
  0
LINE
  5
1010
100
AcDbEntity
  8
10000_FRONT
370
    25
390
0
  6
CONTINUOUS
 62
     7
100
AcDbLine
 10
147.601953
 20
202.988287
 30
0.0
 11
147.689234
 21
203.073862
 31
0.0
  0
LINE
  5
1011
100
AcDbEntity
  8
10000_FRONT
370
    25
390
0
  6
CONTINUOUS
 62
     7
100
AcDbLine
 10
147.689234
 20
203.073862
 30
0.0
 11
147.8615
 21
203.1576
 31
0.0
  0
LINE
  5
1012
100
AcDbEntity
  8
10000_FRONT
370
    25
390
0
  6
CONTINUOUS
 62
     7
100
AcDbLine
 10
147.8615
 20
203.1576
 30
0.0
 11
148.200289
 21
203.1576
 31
0.0
  0
LINE
  5
1013
100
AcDbEntity
  8
10000_FRONT
370
    25
390
0
  6
CONTINUOUS
 62
     7
100
AcDbLine
 10
148.200289
 20
203.1576
 30
0.0
 11
148.371406
 21
203.07255
 31
0.0
  0
LINE
  5
1014
100
AcDbEntity
  8
10000_FRONT
370
    25
390
0
  6
CONTINUOUS
 62
     7
100
AcDbLine
 10
148.371406
 20
203.07255
 30
0.0
 11
148.458688
 21
202.98645
 31
0.0
  0
LINE
  5
1015
100
AcDbEntity
  8
10000_FRONT
370
    25
390
0
  6
CONTINUOUS
 62
     7
100
AcDbLine
 10
148.458688
 20
202.98645
 30
0.0
 11
148.543672
 21
202.814251
 31
0.0
  0
LINE
  5
1016
100
AcDbEntity
  8
10000_FRONT
370
    25
390
0
  6
CONTINUOUS
 62
     7
100
AcDbLine
 10
148.543672
 20
202.814251
 30
0.0
 11
148.543672
 21
202.639688
 31
0.0
  0
LINE
  5
1017
100
AcDbEntity
  8
10000_FRONT
370
    25
390
0
  6
CONTINUOUS
 62
     7
100
AcDbLine
 10
148.543672
 20
202.639688
 30
0.0
 11
148.458688
 21
202.4709
 31
0.0
  0
LINE
  5
1018
100
AcDbEntity
  8
10000_FRONT
370
    25
390
0
  6
CONTINUOUS
 62
     7
100
AcDbLine
 10
148.458688
 20
202.4709
 30
0.0
 11
148.209477
 21
202.139099
 31
0.0
  0
LINE
  5
1019
100
AcDbEntity
  8
10000_FRONT
370
    25
390
0
  6
CONTINUOUS
 62
     7
100
AcDbLine
 10
148.209477
 20
202.139099
 30
0.0
 11
147.661672
 21
201.5112
 31
0.0
  0
LINE
  5
101A
100
AcDbEntity
  8
10000_FRONT
370
    25
390
0
  6
CONTINUOUS
 62
     7
100
AcDbLine
 10
147.661672
 20
201.5112
 30
0.0
 11
148.625211
 21
201.5112
 31
0.0
  0
LINE
  5
101B
100
AcDbEntity
  8
10000_FRONT
370
    25
390
0
  6
CONTINUOUS
 62
     7
100
AcDbLine
 10
148.625211
 20
201.5112
 30
0.0
 11
148.625211
 21
201.3936
 31
0.0
  0
LINE
  5
101C
100
AcDbEntity
  8
10000_FRONT
370
    25
390
0
  6
CONTINUOUS
 62
     7
100
AcDbLine
 10
148.625211
 20
201.3936
 30
0.0
 11
147.412461
 21
201.3936
 31
0.0
  0
LINE
  5
101D
100
AcDbEntity
  8
10000_FRONT
370
    25
390
0
  6
CONTINUOUS
 62
     7
100
AcDbLine
 10
155.712461
 20
201.3936
 30
0.0
 11
156.399227
 21
202.165089
 31
0.0
  0
LINE
  5
101E
100
AcDbEntity
  8
10000_FRONT
370
    25
390
0
  6
CONTINUOUS
 62
     7
100
AcDbLine
 10
156.399227
 20
202.165089
 30
0.0
 11
156.643844
 21
202.491114
 31
0.0
  0
LINE
  5
101F
100
AcDbEntity
  8
10000_FRONT
370
    25
390
0
  6
CONTINUOUS
 62
     7
100
AcDbLine
 10
156.643844
 20
202.491114
 30
0.0
 11
156.723086
 21
202.652025
 31
0.0
  0
LINE
  5
1020
100
AcDbEntity
  8
10000_FRONT
370
    25
390
0
  6
CONTINUOUS
 62
     7
100
AcDbLine
 10
156.723086
 20
202.652025
 30
0.0
 11
156.723086
 21
202.8069
 31
0.0
  0
LINE
  5
1021
100
AcDbEntity
  8
10000_FRONT
370
    25
390
0
  6
CONTINUOUS
 62
     7
100
AcDbLine
 10
156.723086
 20
202.8069
 30
0.0
 11
156.646141
 21
202.962038
 31
0.0
  0
LINE
  5
1022
100
AcDbEntity
  8
10000_FRONT
370
    25
390
0
  6
CONTINUOUS
 62
     7
100
AcDbLine
 10
156.646141
 20
202.962038
 30
0.0
 11
156.489953
 21
203.040001
 31
0.0
  0
LINE
  5
1023
100
AcDbEntity
  8
10000_FRONT
370
    25
390
0
  6
CONTINUOUS
 62
     7
100
AcDbLine
 10
156.489953
 20
203.040001
 30
0.0
 11
156.170688
 21
203.040001
 31
0.0
  0
LINE
  5
1024
100
AcDbEntity
  8
10000_FRONT
370
    25
390
0
  6
CONTINUOUS
 62
     7
100
AcDbLine
 10
156.170688
 20
203.040001
 30
0.0
 11
156.015648
 21
202.961775
 31
0.0
  0
LINE
  5
1025
100
AcDbEntity
  8
10000_FRONT
370
    25
390
0
  6
CONTINUOUS
 62
     7
100
AcDbLine
 10
156.015648
 20
202.961775
 30
0.0
 11
155.937555
 21
202.8069
 31
0.0
  0
LINE
  5
1026
100
AcDbEntity
  8
10000_FRONT
370
    25
390
0
  6
CONTINUOUS
 62
     7
100
AcDbLine
 10
155.937555
 20
202.8069
 30
0.0
 11
155.937555
 21
202.7103
 31
0.0
  0
LINE
  5
1027
100
AcDbEntity
  8
10000_FRONT
370
    25
390
0
  6
CONTINUOUS
 62
     7
100
AcDbLine
 10
155.937555
 20
202.7103
 30
0.0
 11
155.818117
 21
202.7103
 31
0.0
  0
LINE
  5
1028
100
AcDbEntity
  8
10000_FRONT
370
    25
390
0
  6
CONTINUOUS
 62
     7
100
AcDbLine
 10
155.818117
 20
202.7103
 30
0.0
 11
155.818117
 21
202.816088
 31
0.0
  0
LINE
  5
1029
100
AcDbEntity
  8
10000_FRONT
370
    25
390
0
  6
CONTINUOUS
 62
     7
100
AcDbLine
 10
155.818117
 20
202.816088
 30
0.0
 11
155.901953
 21
202.988287
 31
0.0
  0
LINE
  5
102A
100
AcDbEntity
  8
10000_FRONT
370
    25
390
0
  6
CONTINUOUS
 62
     7
100
AcDbLine
 10
155.901953
 20
202.988287
 30
0.0
 11
155.989234
 21
203.073862
 31
0.0
  0
LINE
  5
102B
100
AcDbEntity
  8
10000_FRONT
370
    25
390
0
  6
CONTINUOUS
 62
     7
100
AcDbLine
 10
155.989234
 20
203.073862
 30
0.0
 11
156.1615
 21
203.1576
 31
0.0
  0
LINE
  5
102C
100
AcDbEntity
  8
10000_FRONT
370
    25
390
0
  6
CONTINUOUS
 62
     7
100
AcDbLine
 10
156.1615
 20
203.1576
 30
0.0
 11
156.500289
 21
203.1576
 31
0.0
  0
LINE
  5
102D
100
AcDbEntity
  8
10000_FRONT
370
    25
390
0
  6
CONTINUOUS
 62
     7
100
AcDbLine
 10
156.500289
 20
203.1576
 30
0.0
 11
156.671406
 21
203.07255
 31
0.0
  0
LINE
  5
102E
100
AcDbEntity
  8
10000_FRONT
370
    25
390
0
  6
CONTINUOUS
 62
     7
100
AcDbLine
 10
156.671406
 20
203.07255
 30
0.0
 11
156.758688
 21
202.98645
 31
0.0
  0
LINE
  5
102F
100
AcDbEntity
  8
10000_FRONT
370
    25
390
0
  6
CONTINUOUS
 62
     7
100
AcDbLine
 10
156.758688
 20
202.98645
 30
0.0
 11
156.843672
 21
202.814251
 31
0.0
  0
LINE
  5
1030
100
AcDbEntity
  8
10000_FRONT
370
    25
390
0
  6
CONTINUOUS
 62
     7
100
AcDbLine
 10
156.843672
 20
202.814251
 30
0.0
 11
156.843672
 21
202.639688
 31
0.0
  0
LINE
  5
1031
100
AcDbEntity
  8
10000_FRONT
370
    25
390
0
  6
CONTINUOUS
 62
     7
100
AcDbLine
 10
156.843672
 20
202.639688
 30
0.0
 11
156.758688
 21
202.4709
 31
0.0
  0
LINE
  5
1032
100
AcDbEntity
  8
10000_FRONT
370
    25
390
0
  6
CONTINUOUS
 62
     7
100
AcDbLine
 10
156.758688
 20
202.4709
 30
0.0
 11
156.509477
 21
202.139099
 31
0.0
  0
LINE
  5
1033
100
AcDbEntity
  8
10000_FRONT
370
    25
390
0
  6
CONTINUOUS
 62
     7
100
AcDbLine
 10
156.509477
 20
202.139099
 30
0.0
 11
155.961672
 21
201.5112
 31
0.0
  0
LINE
  5
1034
100
AcDbEntity
  8
10000_FRONT
370
    25
390
0
  6
CONTINUOUS
 62
     7
100
AcDbLine
 10
155.961672
 20
201.5112
 30
0.0
 11
156.925211
 21
201.5112
 31
0.0
  0
LINE
  5
1035
100
AcDbEntity
  8
10000_FRONT
370
    25
390
0
  6
CONTINUOUS
 62
     7
100
AcDbLine
 10
156.925211
 20
201.5112
 30
0.0
 11
156.925211
 21
201.3936
 31
0.0
  0
LINE
  5
1036
100
AcDbEntity
  8
10000_FRONT
370
    25
390
0
  6
CONTINUOUS
 62
     7
100
AcDbLine
 10
156.925211
 20
201.3936
 30
0.0
 11
155.712461
 21
201.3936
 31
0.0
  0
LINE
  5
1037
100
AcDbEntity
  8
10000_FRONT
370
    25
390
0
  6
CONTINUOUS
 62
     7
100
AcDbLine
 10
164.412461
 20
201.3936
 30
0.0
 11
165.099227
 21
202.165089
 31
0.0
  0
LINE
  5
1038
100
AcDbEntity
  8
10000_FRONT
370
    25
390
0
  6
CONTINUOUS
 62
     7
100
AcDbLine
 10
165.099227
 20
202.165089
 30
0.0
 11
165.343843
 21
202.491114
 31
0.0
  0
LINE
  5
1039
100
AcDbEntity
  8
10000_FRONT
370
    25
390
0
  6
CONTINUOUS
 62
     7
100
AcDbLine
 10
165.343843
 20
202.491114
 30
0.0
 11
165.423086
 21
202.652025
 31
0.0
  0
LINE
  5
103A
100
AcDbEntity
  8
10000_FRONT
370
    25
390
0
  6
CONTINUOUS
 62
     7
100
AcDbLine
 10
165.423086
 20
202.652025
 30
0.0
 11
165.423086
 21
202.8069
 31
0.0
  0
LINE
  5
103B
100
AcDbEntity
  8
10000_FRONT
370
    25
390
0
  6
CONTINUOUS
 62
     7
100
AcDbLine
 10
165.423086
 20
202.8069
 30
0.0
 11
165.346141
 21
202.962038
 31
0.0
  0
LINE
  5
103C
100
AcDbEntity
  8
10000_FRONT
370
    25
390
0
  6
CONTINUOUS
 62
     7
100
AcDbLine
 10
165.346141
 20
202.962038
 30
0.0
 11
165.189953
 21
203.040001
 31
0.0
  0
LINE
  5
103D
100
AcDbEntity
  8
10000_FRONT
370
    25
390
0
  6
CONTINUOUS
 62
     7
100
AcDbLine
 10
165.189953
 20
203.040001
 30
0.0
 11
164.870687
 21
203.040001
 31
0.0
  0
LINE
  5
103E
100
AcDbEntity
  8
10000_FRONT
370
    25
390
0
  6
CONTINUOUS
 62
     7
100
AcDbLine
 10
164.870687
 20
203.040001
 30
0.0
 11
164.715649
 21
202.961775
 31
0.0
  0
LINE
  5
103F
100
AcDbEntity
  8
10000_FRONT
370
    25
390
0
  6
CONTINUOUS
 62
     7
100
AcDbLine
 10
164.715649
 20
202.961775
 30
0.0
 11
164.637555
 21
202.8069
 31
0.0
  0
LINE
  5
1040
100
AcDbEntity
  8
10000_FRONT
370
    25
390
0
  6
CONTINUOUS
 62
     7
100
AcDbLine
 10
164.637555
 20
202.8069
 30
0.0
 11
164.637555
 21
202.7103
 31
0.0
  0
LINE
  5
1041
100
AcDbEntity
  8
10000_FRONT
370
    25
390
0
  6
CONTINUOUS
 62
     7
100
AcDbLine
 10
164.637555
 20
202.7103
 30
0.0
 11
164.518117
 21
202.7103
 31
0.0
  0
LINE
  5
1042
100
AcDbEntity
  8
10000_FRONT
370
    25
390
0
  6
CONTINUOUS
 62
     7
100
AcDbLine
 10
164.518117
 20
202.7103
 30
0.0
 11
164.518117
 21
202.816088
 31
0.0
  0
LINE
  5
1043
100
AcDbEntity
  8
10000_FRONT
370
    25
390
0
  6
CONTINUOUS
 62
     7
100
AcDbLine
 10
164.518117
 20
202.816088
 30
0.0
 11
164.601954
 21
202.988287
 31
0.0
  0
LINE
  5
1044
100
AcDbEntity
  8
10000_FRONT
370
    25
390
0
  6
CONTINUOUS
 62
     7
100
AcDbLine
 10
164.601954
 20
202.988287
 30
0.0
 11
164.689235
 21
203.073862
 31
0.0
  0
LINE
  5
1045
100
AcDbEntity
  8
10000_FRONT
370
    25
390
0
  6
CONTINUOUS
 62
     7
100
AcDbLine
 10
164.689235
 20
203.073862
 30
0.0
 11
164.8615
 21
203.1576
 31
0.0
  0
LINE
  5
1046
100
AcDbEntity
  8
10000_FRONT
370
    25
390
0
  6
CONTINUOUS
 62
     7
100
AcDbLine
 10
164.8615
 20
203.1576
 30
0.0
 11
165.200289
 21
203.1576
 31
0.0
  0
LINE
  5
1047
100
AcDbEntity
  8
10000_FRONT
370
    25
390
0
  6
CONTINUOUS
 62
     7
100
AcDbLine
 10
165.200289
 20
203.1576
 30
0.0
 11
165.371407
 21
203.07255
 31
0.0
  0
LINE
  5
1048
100
AcDbEntity
  8
10000_FRONT
370
    25
390
0
  6
CONTINUOUS
 62
     7
100
AcDbLine
 10
165.371407
 20
203.07255
 30
0.0
 11
165.458688
 21
202.98645
 31
0.0
  0
LINE
  5
1049
100
AcDbEntity
  8
10000_FRONT
370
    25
390
0
  6
CONTINUOUS
 62
     7
100
AcDbLine
 10
165.458688
 20
202.98645
 30
0.0
 11
165.543672
 21
202.814251
 31
0.0
  0
LINE
  5
104A
100
AcDbEntity
  8
10000_FRONT
370
    25
390
0
  6
CONTINUOUS
 62
     7
100
AcDbLine
 10
165.543672
 20
202.814251
 30
0.0
 11
165.543672
 21
202.639688
 31
0.0
  0
LINE
  5
104B
100
AcDbEntity
  8
10000_FRONT
370
    25
390
0
  6
CONTINUOUS
 62
     7
100
AcDbLine
 10
165.543672
 20
202.639688
 30
0.0
 11
165.458688
 21
202.4709
 31
0.0
  0
LINE
  5
104C
100
AcDbEntity
  8
10000_FRONT
370
    25
390
0
  6
CONTINUOUS
 62
     7
100
AcDbLine
 10
165.458688
 20
202.4709
 30
0.0
 11
165.209476
 21
202.139099
 31
0.0
  0
LINE
  5
104D
100
AcDbEntity
  8
10000_FRONT
370
    25
390
0
  6
CONTINUOUS
 62
     7
100
AcDbLine
 10
165.209476
 20
202.139099
 30
0.0
 11
164.661672
 21
201.5112
 31
0.0
  0
LINE
  5
104E
100
AcDbEntity
  8
10000_FRONT
370
    25
390
0
  6
CONTINUOUS
 62
     7
100
AcDbLine
 10
164.661672
 20
201.5112
 30
0.0
 11
165.625211
 21
201.5112
 31
0.0
  0
LINE
  5
104F
100
AcDbEntity
  8
10000_FRONT
370
    25
390
0
  6
CONTINUOUS
 62
     7
100
AcDbLine
 10
165.625211
 20
201.5112
 30
0.0
 11
165.625211
 21
201.3936
 31
0.0
  0
LINE
  5
1050
100
AcDbEntity
  8
10000_FRONT
370
    25
390
0
  6
CONTINUOUS
 62
     7
100
AcDbLine
 10
165.625211
 20
201.3936
 30
0.0
 11
164.412461
 21
201.3936
 31
0.0
  0
LINE
  5
1051
100
AcDbEntity
  8
10000_FRONT
370
    25
390
0
  6
CONTINUOUS
 62
     7
100
AcDbLine
 10
163.000719
 20
202.62315
 30
0.0
 11
162.937554
 21
202.752825
 31
0.0
  0
LINE
  5
1052
100
AcDbEntity
  8
10000_FRONT
370
    25
390
0
  6
CONTINUOUS
 62
     7
100
AcDbLine
 10
162.937554
 20
202.752825
 30
0.0
 11
162.937554
 21
202.8699
 31
0.0
  0
LINE
  5
1053
100
AcDbEntity
  8
10000_FRONT
370
    25
390
0
  6
CONTINUOUS
 62
     7
100
AcDbLine
 10
162.937554
 20
202.8699
 30
0.0
 11
162.989235
 21
202.975687
 31
0.0
  0
LINE
  5
1054
100
AcDbEntity
  8
10000_FRONT
370
    25
390
0
  6
CONTINUOUS
 62
     7
100
AcDbLine
 10
162.989235
 20
202.975687
 30
0.0
 11
163.182172
 21
203.040001
 31
0.0
  0
LINE
  5
1055
100
AcDbEntity
  8
10000_FRONT
370
    25
390
0
  6
CONTINUOUS
 62
     7
100
AcDbLine
 10
163.182172
 20
203.040001
 30
0.0
 11
163.478469
 21
203.040001
 31
0.0
  0
LINE
  5
1056
100
AcDbEntity
  8
10000_FRONT
370
    25
390
0
  6
CONTINUOUS
 62
     7
100
AcDbLine
 10
163.478469
 20
203.040001
 30
0.0
 11
163.671407
 21
202.975687
 31
0.0
  0
LINE
  5
1057
100
AcDbEntity
  8
10000_FRONT
370
    25
390
0
  6
CONTINUOUS
 62
     7
100
AcDbLine
 10
163.671407
 20
202.975687
 30
0.0
 11
163.723086
 21
202.8699
 31
0.0
  0
LINE
  5
1058
100
AcDbEntity
  8
10000_FRONT
370
    25
390
0
  6
CONTINUOUS
 62
     7
100
AcDbLine
 10
163.723086
 20
202.8699
 30
0.0
 11
163.723086
 21
202.752825
 31
0.0
  0
LINE
  5
1059
100
AcDbEntity
  8
10000_FRONT
370
    25
390
0
  6
CONTINUOUS
 62
     7
100
AcDbLine
 10
163.723086
 20
202.752825
 30
0.0
 11
163.659922
 21
202.62315
 31
0.0
  0
LINE
  5
105A
100
AcDbEntity
  8
10000_FRONT
370
    25
390
0
  6
CONTINUOUS
 62
     7
100
AcDbLine
 10
163.659922
 20
202.62315
 30
0.0
 11
163.601352
 21
202.564613
 31
0.0
  0
LINE
  5
105B
100
AcDbEntity
  8
10000_FRONT
370
    25
390
0
  6
CONTINUOUS
 62
     7
100
AcDbLine
 10
163.601352
 20
202.564613
 30
0.0
 11
163.379704
 21
202.456463
 31
0.0
  0
LINE
  5
105C
100
AcDbEntity
  8
10000_FRONT
370
    25
390
0
  6
CONTINUOUS
 62
     7
100
AcDbLine
 10
163.379704
 20
202.456463
 30
0.0
 11
163.280938
 21
202.456463
 31
0.0
  0
LINE
  5
105D
100
AcDbEntity
  8
10000_FRONT
370
    25
390
0
  6
CONTINUOUS
 62
     7
100
AcDbLine
 10
163.280938
 20
202.456463
 30
0.0
 11
163.060438
 21
202.564613
 31
0.0
  0
LINE
  5
105E
100
AcDbEntity
  8
10000_FRONT
370
    25
390
0
  6
CONTINUOUS
 62
     7
100
AcDbLine
 10
163.060438
 20
202.564613
 30
0.0
 11
163.000719
 21
202.62315
 31
0.0
  0
LINE
  5
105F
100
AcDbEntity
  8
10000_FRONT
370
    25
390
0
  6
CONTINUOUS
 62
     7
100
AcDbLine
 10
162.8528
 20
201.763988
 30
0.0
 11
162.8528
 21
201.963751
 31
0.0
  0
LINE
  5
1060
100
AcDbEntity
  8
10000_FRONT
370
    25
390
0
  6
CONTINUOUS
 62
     7
100
AcDbLine
 10
162.8528
 20
201.963751
 30
0.0
 11
162.917342
 21
202.092375
 31
0.0
  0
LINE
  5
1061
100
AcDbEntity
  8
10000_FRONT
370
    25
390
0
  6
CONTINUOUS
 62
     7
100
AcDbLine
 10
162.917342
 20
202.092375
 30
0.0
 11
163.059289
 21
202.233601
 31
0.0
  0
LINE
  5
1062
100
AcDbEntity
  8
10000_FRONT
370
    25
390
0
  6
CONTINUOUS
 62
     7
100
AcDbLine
 10
163.059289
 20
202.233601
 30
0.0
 11
163.294719
 21
202.349625
 31
0.0
  0
LINE
  5
1063
100
AcDbEntity
  8
10000_FRONT
370
    25
390
0
  6
CONTINUOUS
 62
     7
100
AcDbLine
 10
163.294719
 20
202.349625
 30
0.0
 11
163.366382
 21
202.349625
 31
0.0
  0
LINE
  5
1064
100
AcDbEntity
  8
10000_FRONT
370
    25
390
0
  6
CONTINUOUS
 62
     7
100
AcDbLine
 10
163.366382
 20
202.349625
 30
0.0
 11
163.60296
 21
202.233601
 31
0.0
  0
LINE
  5
1065
100
AcDbEntity
  8
10000_FRONT
370
    25
390
0
  6
CONTINUOUS
 62
     7
100
AcDbLine
 10
163.60296
 20
202.233601
 30
0.0
 11
163.744906
 21
202.092375
 31
0.0
  0
LINE
  5
1066
100
AcDbEntity
  8
10000_FRONT
370
    25
390
0
  6
CONTINUOUS
 62
     7
100
AcDbLine
 10
163.744906
 20
202.092375
 30
0.0
 11
163.8083
 21
201.963751
 31
0.0
  0
LINE
  5
1067
100
AcDbEntity
  8
10000_FRONT
370
    25
390
0
  6
CONTINUOUS
 62
     7
100
AcDbLine
 10
163.8083
 20
201.963751
 30
0.0
 11
163.8083
 21
201.763988
 31
0.0
  0
LINE
  5
1068
100
AcDbEntity
  8
10000_FRONT
370
    25
390
0
  6
CONTINUOUS
 62
     7
100
AcDbLine
 10
163.8083
 20
201.763988
 30
0.0
 11
163.744906
 21
201.63405
 31
0.0
  0
LINE
  5
1069
100
AcDbEntity
  8
10000_FRONT
370
    25
390
0
  6
CONTINUOUS
 62
     7
100
AcDbLine
 10
163.744906
 20
201.63405
 30
0.0
 11
163.689551
 21
201.582338
 31
0.0
  0
LINE
  5
106A
100
AcDbEntity
  8
10000_FRONT
370
    25
390
0
  6
CONTINUOUS
 62
     7
100
AcDbLine
 10
163.689551
 20
201.582338
 30
0.0
 11
163.479388
 21
201.5112
 31
0.0
  0
LINE
  5
106B
100
AcDbEntity
  8
10000_FRONT
370
    25
390
0
  6
CONTINUOUS
 62
     7
100
AcDbLine
 10
163.479388
 20
201.5112
 30
0.0
 11
163.181713
 21
201.5112
 31
0.0
  0
LINE
  5
106C
100
AcDbEntity
  8
10000_FRONT
370
    25
390
0
  6
CONTINUOUS
 62
     7
100
AcDbLine
 10
163.181713
 20
201.5112
 30
0.0
 11
162.971548
 21
201.582338
 31
0.0
  0
LINE
  5
106D
100
AcDbEntity
  8
10000_FRONT
370
    25
390
0
  6
CONTINUOUS
 62
     7
100
AcDbLine
 10
162.971548
 20
201.582338
 30
0.0
 11
162.917342
 21
201.63405
 31
0.0
  0
LINE
  5
106E
100
AcDbEntity
  8
10000_FRONT
370
    25
390
0
  6
CONTINUOUS
 62
     7
100
AcDbLine
 10
162.917342
 20
201.63405
 30
0.0
 11
162.8528
 21
201.763988
 31
0.0
  0
LINE
  5
106F
100
AcDbEntity
  8
10000_FRONT
370
    25
390
0
  6
CONTINUOUS
 62
     7
100
AcDbLine
 10
162.820185
 20
201.565538
 30
0.0
 11
162.7352
 21
201.736425
 31
0.0
  0
LINE
  5
1070
100
AcDbEntity
  8
10000_FRONT
370
    25
390
0
  6
CONTINUOUS
 62
     7
100
AcDbLine
 10
162.7352
 20
201.736425
 30
0.0
 11
162.7352
 21
201.992363
 31
0.0
  0
LINE
  5
1071
100
AcDbEntity
  8
10000_FRONT
370
    25
390
0
  6
CONTINUOUS
 62
     7
100
AcDbLine
 10
162.7352
 20
201.992363
 30
0.0
 11
162.820185
 21
202.164301
 31
0.0
  0
LINE
  5
1072
100
AcDbEntity
  8
10000_FRONT
370
    25
390
0
  6
CONTINUOUS
 62
     7
100
AcDbLine
 10
162.820185
 20
202.164301
 30
0.0
 11
162.989235
 21
202.332825
 31
0.0
  0
LINE
  5
1073
100
AcDbEntity
  8
10000_FRONT
370
    25
390
0
  6
CONTINUOUS
 62
     7
100
AcDbLine
 10
162.989235
 20
202.332825
 30
0.0
 11
163.123602
 21
202.3995
 31
0.0
  0
LINE
  5
1074
100
AcDbEntity
  8
10000_FRONT
370
    25
390
0
  6
CONTINUOUS
 62
     7
100
AcDbLine
 10
163.123602
 20
202.3995
 30
0.0
 11
162.989235
 21
202.464863
 31
0.0
  0
LINE
  5
1075
100
AcDbEntity
  8
10000_FRONT
370
    25
390
0
  6
CONTINUOUS
 62
     7
100
AcDbLine
 10
162.989235
 20
202.464863
 30
0.0
 11
162.901953
 21
202.552013
 31
0.0
  0
LINE
  5
1076
100
AcDbEntity
  8
10000_FRONT
370
    25
390
0
  6
CONTINUOUS
 62
     7
100
AcDbLine
 10
162.901953
 20
202.552013
 30
0.0
 11
162.817888
 21
202.7229
 31
0.0
  0
LINE
  5
1077
100
AcDbEntity
  8
10000_FRONT
370
    25
390
0
  6
CONTINUOUS
 62
     7
100
AcDbLine
 10
162.817888
 20
202.7229
 30
0.0
 11
162.817888
 21
202.8972
 31
0.0
  0
LINE
  5
1078
100
AcDbEntity
  8
10000_FRONT
370
    25
390
0
  6
CONTINUOUS
 62
     7
100
AcDbLine
 10
162.817888
 20
202.8972
 30
0.0
 11
162.90425
 21
203.072813
 31
0.0
  0
LINE
  5
1079
100
AcDbEntity
  8
10000_FRONT
370
    25
390
0
  6
CONTINUOUS
 62
     7
100
AcDbLine
 10
162.90425
 20
203.072813
 30
0.0
 11
163.163796
 21
203.1576
 31
0.0
  0
LINE
  5
107A
100
AcDbEntity
  8
10000_FRONT
370
    25
390
0
  6
CONTINUOUS
 62
     7
100
AcDbLine
 10
163.163796
 20
203.1576
 30
0.0
 11
163.498451
 21
203.1576
 31
0.0
  0
LINE
  5
107B
100
AcDbEntity
  8
10000_FRONT
370
    25
390
0
  6
CONTINUOUS
 62
     7
100
AcDbLine
 10
163.498451
 20
203.1576
 30
0.0
 11
163.75685
 21
203.072813
 31
0.0
  0
LINE
  5
107C
100
AcDbEntity
  8
10000_FRONT
370
    25
390
0
  6
CONTINUOUS
 62
     7
100
AcDbLine
 10
163.75685
 20
203.072813
 30
0.0
 11
163.844361
 21
202.8972
 31
0.0
  0
LINE
  5
107D
100
AcDbEntity
  8
10000_FRONT
370
    25
390
0
  6
CONTINUOUS
 62
     7
100
AcDbLine
 10
163.844361
 20
202.8972
 30
0.0
 11
163.844361
 21
202.7229
 31
0.0
  0
LINE
  5
107E
100
AcDbEntity
  8
10000_FRONT
370
    25
390
0
  6
CONTINUOUS
 62
     7
100
AcDbLine
 10
163.844361
 20
202.7229
 30
0.0
 11
163.759147
 21
202.552013
 31
0.0
  0
LINE
  5
107F
100
AcDbEntity
  8
10000_FRONT
370
    25
390
0
  6
CONTINUOUS
 62
     7
100
AcDbLine
 10
163.759147
 20
202.552013
 30
0.0
 11
163.671865
 21
202.464863
 31
0.0
  0
LINE
  5
1080
100
AcDbEntity
  8
10000_FRONT
370
    25
390
0
  6
CONTINUOUS
 62
     7
100
AcDbLine
 10
163.671865
 20
202.464863
 30
0.0
 11
163.537498
 21
202.3995
 31
0.0
  0
LINE
  5
1081
100
AcDbEntity
  8
10000_FRONT
370
    25
390
0
  6
CONTINUOUS
 62
     7
100
AcDbLine
 10
163.537498
 20
202.3995
 30
0.0
 11
163.671865
 21
202.332825
 31
0.0
  0
LINE
  5
1082
100
AcDbEntity
  8
10000_FRONT
370
    25
390
0
  6
CONTINUOUS
 62
     7
100
AcDbLine
 10
163.671865
 20
202.332825
 30
0.0
 11
163.842064
 21
202.164301
 31
0.0
  0
LINE
  5
1083
100
AcDbEntity
  8
10000_FRONT
370
    25
390
0
  6
CONTINUOUS
 62
     7
100
AcDbLine
 10
163.842064
 20
202.164301
 30
0.0
 11
163.9259
 21
201.992363
 31
0.0
  0
LINE
  5
1084
100
AcDbEntity
  8
10000_FRONT
370
    25
390
0
  6
CONTINUOUS
 62
     7
100
AcDbLine
 10
163.9259
 20
201.992363
 30
0.0
 11
163.9259
 21
201.736425
 31
0.0
  0
LINE
  5
1085
100
AcDbEntity
  8
10000_FRONT
370
    25
390
0
  6
CONTINUOUS
 62
     7
100
AcDbLine
 10
163.9259
 20
201.736425
 30
0.0
 11
163.842064
 21
201.565538
 31
0.0
  0
LINE
  5
1086
100
AcDbEntity
  8
10000_FRONT
370
    25
390
0
  6
CONTINUOUS
 62
     7
100
AcDbLine
 10
163.842064
 20
201.565538
 30
0.0
 11
163.752256
 21
201.478388
 31
0.0
  0
LINE
  5
1087
100
AcDbEntity
  8
10000_FRONT
370
    25
390
0
  6
CONTINUOUS
 62
     7
100
AcDbLine
 10
163.752256
 20
201.478388
 30
0.0
 11
163.498451
 21
201.3936
 31
0.0
  0
LINE
  5
1088
100
AcDbEntity
  8
10000_FRONT
370
    25
390
0
  6
CONTINUOUS
 62
     7
100
AcDbLine
 10
163.498451
 20
201.3936
 30
0.0
 11
163.163796
 21
201.3936
 31
0.0
  0
LINE
  5
1089
100
AcDbEntity
  8
10000_FRONT
370
    25
390
0
  6
CONTINUOUS
 62
     7
100
AcDbLine
 10
163.163796
 20
201.3936
 30
0.0
 11
162.909992
 21
201.478388
 31
0.0
  0
LINE
  5
108A
100
AcDbEntity
  8
10000_FRONT
370
    25
390
0
  6
CONTINUOUS
 62
     7
100
AcDbLine
 10
162.909992
 20
201.478388
 30
0.0
 11
162.820185
 21
201.565538
 31
0.0
  0
LINE
  5
108B
100
AcDbEntity
  8
10000_FRONT
370
    25
390
0
  6
CONTINUOUS
 62
     7
100
AcDbLine
 10
154.27086
 20
201.3936
 30
0.0
 11
155.05639
 21
203.040001
 31
0.0
  0
LINE
  5
108C
100
AcDbEntity
  8
10000_FRONT
370
    25
390
0
  6
CONTINUOUS
 62
     7
100
AcDbLine
 10
155.05639
 20
203.040001
 30
0.0
 11
154.03543
 21
203.040001
 31
0.0
  0
LINE
  5
108D
100
AcDbEntity
  8
10000_FRONT
370
    25
390
0
  6
CONTINUOUS
 62
     7
100
AcDbLine
 10
154.03543
 20
203.040001
 30
0.0
 11
154.03543
 21
203.1576
 31
0.0
  0
LINE
  5
108E
100
AcDbEntity
  8
10000_FRONT
370
    25
390
0
  6
CONTINUOUS
 62
     7
100
AcDbLine
 10
154.03543
 20
203.1576
 30
0.0
 11
155.251625
 21
203.1576
 31
0.0
  0
LINE
  5
108F
100
AcDbEntity
  8
10000_FRONT
370
    25
390
0
  6
CONTINUOUS
 62
     7
100
AcDbLine
 10
155.251625
 20
203.1576
 30
0.0
 11
155.222914
 21
203.126625
 31
0.0
  0
LINE
  5
1090
100
AcDbEntity
  8
10000_FRONT
370
    25
390
0
  6
CONTINUOUS
 62
     7
100
AcDbLine
 10
155.222914
 20
203.126625
 30
0.0
 11
154.39489
 21
201.3936
 31
0.0
  0
LINE
  5
1091
100
AcDbEntity
  8
10000_FRONT
370
    25
390
0
  6
CONTINUOUS
 62
     7
100
AcDbLine
 10
154.39489
 20
201.3936
 30
0.0
 11
154.27086
 21
201.3936
 31
0.0
  0
LINE
  5
1092
100
AcDbEntity
  8
10000_FRONT
370
    25
390
0
  6
CONTINUOUS
 62
     7
100
AcDbLine
 10
146.000719
 20
201.732489
 30
0.0
 11
145.937555
 21
201.986324
 31
0.0
  0
LINE
  5
1093
100
AcDbEntity
  8
10000_FRONT
370
    25
390
0
  6
CONTINUOUS
 62
     7
100
AcDbLine
 10
145.937555
 20
201.986324
 30
0.0
 11
146.076515
 21
202.26405
 31
0.0
  0
LINE
  5
1094
100
AcDbEntity
  8
10000_FRONT
370
    25
390
0
  6
CONTINUOUS
 62
     7
100
AcDbLine
 10
146.076515
 20
202.26405
 30
0.0
 11
146.175282
 21
202.327312
 31
0.0
  0
LINE
  5
1095
100
AcDbEntity
  8
10000_FRONT
370
    25
390
0
  6
CONTINUOUS
 62
     7
100
AcDbLine
 10
146.175282
 20
202.327312
 30
0.0
 11
146.332617
 21
202.381388
 31
0.0
  0
LINE
  5
1096
100
AcDbEntity
  8
10000_FRONT
370
    25
390
0
  6
CONTINUOUS
 62
     7
100
AcDbLine
 10
146.332617
 20
202.381388
 30
0.0
 11
146.410711
 21
202.381388
 31
0.0
  0
LINE
  5
1097
100
AcDbEntity
  8
10000_FRONT
370
    25
390
0
  6
CONTINUOUS
 62
     7
100
AcDbLine
 10
146.410711
 20
202.381388
 30
0.0
 11
146.568047
 21
202.327312
 31
0.0
  0
LINE
  5
1098
100
AcDbEntity
  8
10000_FRONT
370
    25
390
0
  6
CONTINUOUS
 62
     7
100
AcDbLine
 10
146.568047
 20
202.327312
 30
0.0
 11
146.666813
 21
202.26405
 31
0.0
  0
LINE
  5
1099
100
AcDbEntity
  8
10000_FRONT
370
    25
390
0
  6
CONTINUOUS
 62
     7
100
AcDbLine
 10
146.666813
 20
202.26405
 30
0.0
 11
146.805773
 21
201.983963
 31
0.0
  0
LINE
  5
109A
100
AcDbEntity
  8
10000_FRONT
370
    25
390
0
  6
CONTINUOUS
 62
     7
100
AcDbLine
 10
146.805773
 20
201.983963
 30
0.0
 11
146.805773
 21
201.911512
 31
0.0
  0
LINE
  5
109B
100
AcDbEntity
  8
10000_FRONT
370
    25
390
0
  6
CONTINUOUS
 62
     7
100
AcDbLine
 10
146.805773
 20
201.911512
 30
0.0
 11
146.666813
 21
201.631426
 31
0.0
  0
LINE
  5
109C
100
AcDbEntity
  8
10000_FRONT
370
    25
390
0
  6
CONTINUOUS
 62
     7
100
AcDbLine
 10
146.666813
 20
201.631426
 30
0.0
 11
146.568047
 21
201.568163
 31
0.0
  0
LINE
  5
109D
100
AcDbEntity
  8
10000_FRONT
370
    25
390
0
  6
CONTINUOUS
 62
     7
100
AcDbLine
 10
146.568047
 20
201.568163
 30
0.0
 11
146.410711
 21
201.513039
 31
0.0
  0
LINE
  5
109E
100
AcDbEntity
  8
10000_FRONT
370
    25
390
0
  6
CONTINUOUS
 62
     7
100
AcDbLine
 10
146.410711
 20
201.513039
 30
0.0
 11
146.332617
 21
201.513039
 31
0.0
  0
LINE
  5
109F
100
AcDbEntity
  8
10000_FRONT
370
    25
390
0
  6
CONTINUOUS
 62
     7
100
AcDbLine
 10
146.332617
 20
201.513039
 30
0.0
 11
146.094891
 21
201.593363
 31
0.0
  0
LINE
  5
10A0
100
AcDbEntity
  8
10000_FRONT
370
    25
390
0
  6
CONTINUOUS
 62
     7
100
AcDbLine
 10
146.094891
 20
201.593363
 30
0.0
 11
146.000719
 21
201.732489
 31
0.0
  0
LINE
  5
10A1
100
AcDbEntity
  8
10000_FRONT
370
    25
390
0
  6
CONTINUOUS
 62
     7
100
AcDbLine
 10
145.901953
 20
201.649275
 30
0.0
 11
145.818117
 21
201.985538
 31
0.0
  0
LINE
  5
10A2
100
AcDbEntity
  8
10000_FRONT
370
    25
390
0
  6
CONTINUOUS
 62
     7
100
AcDbLine
 10
145.818117
 20
201.985538
 30
0.0
 11
145.818117
 21
202.401863
 31
0.0
  0
LINE
  5
10A3
100
AcDbEntity
  8
10000_FRONT
370
    25
390
0
  6
CONTINUOUS
 62
     7
100
AcDbLine
 10
145.818117
 20
202.401863
 30
0.0
 11
145.899656
 21
202.816875
 31
0.0
  0
LINE
  5
10A4
100
AcDbEntity
  8
10000_FRONT
370
    25
390
0
  6
CONTINUOUS
 62
     7
100
AcDbLine
 10
145.899656
 20
202.816875
 30
0.0
 11
146.071922
 21
203.072813
 31
0.0
  0
LINE
  5
10A5
100
AcDbEntity
  8
10000_FRONT
370
    25
390
0
  6
CONTINUOUS
 62
     7
100
AcDbLine
 10
146.071922
 20
203.072813
 30
0.0
 11
146.328023
 21
203.1576
 31
0.0
  0
LINE
  5
10A6
100
AcDbEntity
  8
10000_FRONT
370
    25
390
0
  6
CONTINUOUS
 62
     7
100
AcDbLine
 10
146.328023
 20
203.1576
 30
0.0
 11
146.497992
 21
203.1576
 31
0.0
  0
LINE
  5
10A7
100
AcDbEntity
  8
10000_FRONT
370
    25
390
0
  6
CONTINUOUS
 62
     7
100
AcDbLine
 10
146.497992
 20
203.1576
 30
0.0
 11
146.756391
 21
203.072813
 31
0.0
  0
LINE
  5
10A8
100
AcDbEntity
  8
10000_FRONT
370
    25
390
0
  6
CONTINUOUS
 62
     7
100
AcDbLine
 10
146.756391
 20
203.072813
 30
0.0
 11
146.855156
 21
202.873051
 31
0.0
  0
LINE
  5
10A9
100
AcDbEntity
  8
10000_FRONT
370
    25
390
0
  6
CONTINUOUS
 62
     7
100
AcDbLine
 10
146.855156
 20
202.873051
 30
0.0
 11
146.729977
 21
202.873051
 31
0.0
  0
LINE
  5
10AA
100
AcDbEntity
  8
10000_FRONT
370
    25
390
0
  6
CONTINUOUS
 62
     7
100
AcDbLine
 10
146.729977
 20
202.873051
 30
0.0
 11
146.678297
 21
202.974113
 31
0.0
  0
LINE
  5
10AB
100
AcDbEntity
  8
10000_FRONT
370
    25
390
0
  6
CONTINUOUS
 62
     7
100
AcDbLine
 10
146.678297
 20
202.974113
 30
0.0
 11
146.49225
 21
203.038425
 31
0.0
  0
LINE
  5
10AC
100
AcDbEntity
  8
10000_FRONT
370
    25
390
0
  6
CONTINUOUS
 62
     7
100
AcDbLine
 10
146.49225
 20
203.038425
 30
0.0
 11
146.332617
 21
203.038425
 31
0.0
  0
LINE
  5
10AD
100
AcDbEntity
  8
10000_FRONT
370
    25
390
0
  6
CONTINUOUS
 62
     7
100
AcDbLine
 10
146.332617
 20
203.038425
 30
0.0
 11
146.130492
 21
202.969387
 31
0.0
  0
LINE
  5
10AE
100
AcDbEntity
  8
10000_FRONT
370
    25
390
0
  6
CONTINUOUS
 62
     7
100
AcDbLine
 10
146.130492
 20
202.969387
 30
0.0
 11
146.020242
 21
202.803225
 31
0.0
  0
LINE
  5
10AF
100
AcDbEntity
  8
10000_FRONT
370
    25
390
0
  6
CONTINUOUS
 62
     7
100
AcDbLine
 10
146.020242
 20
202.803225
 30
0.0
 11
145.937555
 21
202.396088
 31
0.0
  0
LINE
  5
10B0
100
AcDbEntity
  8
10000_FRONT
370
    25
390
0
  6
CONTINUOUS
 62
     7
100
AcDbLine
 10
145.937555
 20
202.396088
 30
0.0
 11
145.937555
 21
202.279013
 31
0.0
  0
LINE
  5
10B1
100
AcDbEntity
  8
10000_FRONT
370
    25
390
0
  6
CONTINUOUS
 62
     7
100
AcDbLine
 10
145.937555
 20
202.279013
 30
0.0
 11
146.074219
 21
202.415512
 31
0.0
  0
LINE
  5
10B2
100
AcDbEntity
  8
10000_FRONT
370
    25
390
0
  6
CONTINUOUS
 62
     7
100
AcDbLine
 10
146.074219
 20
202.415512
 30
0.0
 11
146.328023
 21
202.500299
 31
0.0
  0
LINE
  5
10B3
100
AcDbEntity
  8
10000_FRONT
370
    25
390
0
  6
CONTINUOUS
 62
     7
100
AcDbLine
 10
146.328023
 20
202.500299
 30
0.0
 11
146.415305
 21
202.500299
 31
0.0
  0
LINE
  5
10B4
100
AcDbEntity
  8
10000_FRONT
370
    25
390
0
  6
CONTINUOUS
 62
     7
100
AcDbLine
 10
146.415305
 20
202.500299
 30
0.0
 11
146.66911
 21
202.415512
 31
0.0
  0
LINE
  5
10B5
100
AcDbEntity
  8
10000_FRONT
370
    25
390
0
  6
CONTINUOUS
 62
     7
100
AcDbLine
 10
146.66911
 20
202.415512
 30
0.0
 11
146.841375
 21
202.243574
 31
0.0
  0
LINE
  5
10B6
100
AcDbEntity
  8
10000_FRONT
370
    25
390
0
  6
CONTINUOUS
 62
     7
100
AcDbLine
 10
146.841375
 20
202.243574
 30
0.0
 11
146.925211
 21
201.99
 31
0.0
  0
LINE
  5
10B7
100
AcDbEntity
  8
10000_FRONT
370
    25
390
0
  6
CONTINUOUS
 62
     7
100
AcDbLine
 10
146.925211
 20
201.99
 30
0.0
 11
146.925211
 21
201.902849
 31
0.0
  0
LINE
  5
10B8
100
AcDbEntity
  8
10000_FRONT
370
    25
390
0
  6
CONTINUOUS
 62
     7
100
AcDbLine
 10
146.925211
 20
201.902849
 30
0.0
 11
146.841375
 21
201.649275
 31
0.0
  0
LINE
  5
10B9
100
AcDbEntity
  8
10000_FRONT
370
    25
390
0
  6
CONTINUOUS
 62
     7
100
AcDbLine
 10
146.841375
 20
201.649275
 30
0.0
 11
146.66911
 21
201.478388
 31
0.0
  0
LINE
  5
10BA
100
AcDbEntity
  8
10000_FRONT
370
    25
390
0
  6
CONTINUOUS
 62
     7
100
AcDbLine
 10
146.66911
 20
201.478388
 30
0.0
 11
146.415305
 21
201.3936
 31
0.0
  0
LINE
  5
10BB
100
AcDbEntity
  8
10000_FRONT
370
    25
390
0
  6
CONTINUOUS
 62
     7
100
AcDbLine
 10
146.415305
 20
201.3936
 30
0.0
 11
146.328023
 21
201.3936
 31
0.0
  0
LINE
  5
10BC
100
AcDbEntity
  8
10000_FRONT
370
    25
390
0
  6
CONTINUOUS
 62
     7
100
AcDbLine
 10
146.328023
 20
201.3936
 30
0.0
 11
146.074219
 21
201.478388
 31
0.0
  0
LINE
  5
10BD
100
AcDbEntity
  8
10000_FRONT
370
    25
390
0
  6
CONTINUOUS
 62
     7
100
AcDbLine
 10
146.074219
 20
201.478388
 30
0.0
 11
145.901953
 21
201.649275
 31
0.0
  0
LINE
  5
10BE
100
AcDbEntity
  8
10000_FRONT
370
    25
390
0
  6
CONTINUOUS
 62
     7
100
AcDbLine
 10
137.020413
 20
201.563963
 30
0.0
 11
136.923945
 21
201.758213
 31
0.0
  0
LINE
  5
10BF
100
AcDbEntity
  8
10000_FRONT
370
    25
390
0
  6
CONTINUOUS
 62
     7
100
AcDbLine
 10
136.923945
 20
201.758213
 30
0.0
 11
137.047976
 21
201.758213
 31
0.0
  0
LINE
  5
10C0
100
AcDbEntity
  8
10000_FRONT
370
    25
390
0
  6
CONTINUOUS
 62
     7
100
AcDbLine
 10
137.047976
 20
201.758213
 30
0.0
 11
137.112288
 21
201.629587
 31
0.0
  0
LINE
  5
10C1
100
AcDbEntity
  8
10000_FRONT
370
    25
390
0
  6
CONTINUOUS
 62
     7
100
AcDbLine
 10
137.112288
 20
201.629587
 30
0.0
 11
137.211055
 21
201.566324
 31
0.0
  0
LINE
  5
10C2
100
AcDbEntity
  8
10000_FRONT
370
    25
390
0
  6
CONTINUOUS
 62
     7
100
AcDbLine
 10
137.211055
 20
201.566324
 30
0.0
 11
137.36839
 21
201.5112
 31
0.0
  0
LINE
  5
10C3
100
AcDbEntity
  8
10000_FRONT
370
    25
390
0
  6
CONTINUOUS
 62
     7
100
AcDbLine
 10
137.36839
 20
201.5112
 30
0.0
 11
137.610711
 21
201.5112
 31
0.0
  0
LINE
  5
10C4
100
AcDbEntity
  8
10000_FRONT
370
    25
390
0
  6
CONTINUOUS
 62
     7
100
AcDbLine
 10
137.610711
 20
201.5112
 30
0.0
 11
137.761156
 21
201.560812
 31
0.0
  0
LINE
  5
10C5
100
AcDbEntity
  8
10000_FRONT
370
    25
390
0
  6
CONTINUOUS
 62
     7
100
AcDbLine
 10
137.761156
 20
201.560812
 30
0.0
 11
137.887485
 21
201.651114
 31
0.0
  0
LINE
  5
10C6
100
AcDbEntity
  8
10000_FRONT
370
    25
390
0
  6
CONTINUOUS
 62
     7
100
AcDbLine
 10
137.887485
 20
201.651114
 30
0.0
 11
137.93457
 21
201.722775
 31
0.0
  0
LINE
  5
10C7
100
AcDbEntity
  8
10000_FRONT
370
    25
390
0
  6
CONTINUOUS
 62
     7
100
AcDbLine
 10
137.93457
 20
201.722775
 30
0.0
 11
138.005774
 21
201.9102
 31
0.0
  0
LINE
  5
10C8
100
AcDbEntity
  8
10000_FRONT
370
    25
390
0
  6
CONTINUOUS
 62
     7
100
AcDbLine
 10
138.005774
 20
201.9102
 30
0.0
 11
138.005774
 21
202.07085
 31
0.0
  0
LINE
  5
10C9
100
AcDbEntity
  8
10000_FRONT
370
    25
390
0
  6
CONTINUOUS
 62
     7
100
AcDbLine
 10
138.005774
 20
202.07085
 30
0.0
 11
137.951797
 21
202.229401
 31
0.0
  0
LINE
  5
10CA
100
AcDbEntity
  8
10000_FRONT
370
    25
390
0
  6
CONTINUOUS
 62
     7
100
AcDbLine
 10
137.951797
 20
202.229401
 30
0.0
 11
137.878297
 21
202.340437
 31
0.0
  0
LINE
  5
10CB
100
AcDbEntity
  8
10000_FRONT
370
    25
390
0
  6
CONTINUOUS
 62
     7
100
AcDbLine
 10
137.878297
 20
202.340437
 30
0.0
 11
137.768046
 21
202.414463
 31
0.0
  0
LINE
  5
10CC
100
AcDbEntity
  8
10000_FRONT
370
    25
390
0
  6
CONTINUOUS
 62
     7
100
AcDbLine
 10
137.768046
 20
202.414463
 30
0.0
 11
137.610711
 21
202.4688
 31
0.0
  0
LINE
  5
10CD
100
AcDbEntity
  8
10000_FRONT
370
    25
390
0
  6
CONTINUOUS
 62
     7
100
AcDbLine
 10
137.610711
 20
202.4688
 30
0.0
 11
137.288
 21
202.4688
 31
0.0
  0
LINE
  5
10CE
100
AcDbEntity
  8
10000_FRONT
370
    25
390
0
  6
CONTINUOUS
 62
     7
100
AcDbLine
 10
137.288
 20
202.4688
 30
0.0
 11
137.123774
 21
202.386112
 31
0.0
  0
LINE
  5
10CF
100
AcDbEntity
  8
10000_FRONT
370
    25
390
0
  6
CONTINUOUS
 62
     7
100
AcDbLine
 10
137.123774
 20
202.386112
 30
0.0
 11
137.015821
 21
202.386112
 31
0.0
  0
LINE
  5
10D0
100
AcDbEntity
  8
10000_FRONT
370
    25
390
0
  6
CONTINUOUS
 62
     7
100
AcDbLine
 10
137.015821
 20
202.386112
 30
0.0
 11
137.101954
 21
203.1576
 31
0.0
  0
LINE
  5
10D1
100
AcDbEntity
  8
10000_FRONT
370
    25
390
0
  6
CONTINUOUS
 62
     7
100
AcDbLine
 10
137.101954
 20
203.1576
 30
0.0
 11
137.960984
 21
203.1576
 31
0.0
  0
LINE
  5
10D2
100
AcDbEntity
  8
10000_FRONT
370
    25
390
0
  6
CONTINUOUS
 62
     7
100
AcDbLine
 10
137.960984
 20
203.1576
 30
0.0
 11
137.960984
 21
203.040001
 31
0.0
  0
LINE
  5
10D3
100
AcDbEntity
  8
10000_FRONT
370
    25
390
0
  6
CONTINUOUS
 62
     7
100
AcDbLine
 10
137.960984
 20
203.040001
 30
0.0
 11
137.217945
 21
203.040001
 31
0.0
  0
LINE
  5
10D4
100
AcDbEntity
  8
10000_FRONT
370
    25
390
0
  6
CONTINUOUS
 62
     7
100
AcDbLine
 10
137.217945
 20
203.040001
 30
0.0
 11
137.142148
 21
202.51395
 31
0.0
  0
LINE
  5
10D5
100
AcDbEntity
  8
10000_FRONT
370
    25
390
0
  6
CONTINUOUS
 62
     7
100
AcDbLine
 10
137.142148
 20
202.51395
 30
0.0
 11
137.363797
 21
202.586399
 31
0.0
  0
LINE
  5
10D6
100
AcDbEntity
  8
10000_FRONT
370
    25
390
0
  6
CONTINUOUS
 62
     7
100
AcDbLine
 10
137.363797
 20
202.586399
 30
0.0
 11
137.615305
 21
202.586399
 31
0.0
  0
LINE
  5
10D7
100
AcDbEntity
  8
10000_FRONT
370
    25
390
0
  6
CONTINUOUS
 62
     7
100
AcDbLine
 10
137.615305
 20
202.586399
 30
0.0
 11
137.869109
 21
202.502399
 31
0.0
  0
LINE
  5
10D8
100
AcDbEntity
  8
10000_FRONT
370
    25
390
0
  6
CONTINUOUS
 62
     7
100
AcDbLine
 10
137.869109
 20
202.502399
 30
0.0
 11
138.041375
 21
202.329676
 31
0.0
  0
LINE
  5
10D9
100
AcDbEntity
  8
10000_FRONT
370
    25
390
0
  6
CONTINUOUS
 62
     7
100
AcDbLine
 10
138.041375
 20
202.329676
 30
0.0
 11
138.125211
 21
202.075314
 31
0.0
  0
LINE
  5
10DA
100
AcDbEntity
  8
10000_FRONT
370
    25
390
0
  6
CONTINUOUS
 62
     7
100
AcDbLine
 10
138.125211
 20
202.075314
 30
0.0
 11
138.125211
 21
201.904688
 31
0.0
  0
LINE
  5
10DB
100
AcDbEntity
  8
10000_FRONT
370
    25
390
0
  6
CONTINUOUS
 62
     7
100
AcDbLine
 10
138.125211
 20
201.904688
 30
0.0
 11
138.041375
 21
201.650326
 31
0.0
  0
LINE
  5
10DC
100
AcDbEntity
  8
10000_FRONT
370
    25
390
0
  6
CONTINUOUS
 62
     7
100
AcDbLine
 10
138.041375
 20
201.650326
 30
0.0
 11
137.869109
 21
201.478912
 31
0.0
  0
LINE
  5
10DD
100
AcDbEntity
  8
10000_FRONT
370
    25
390
0
  6
CONTINUOUS
 62
     7
100
AcDbLine
 10
137.869109
 20
201.478912
 30
0.0
 11
137.615305
 21
201.3936
 31
0.0
  0
LINE
  5
10DE
100
AcDbEntity
  8
10000_FRONT
370
    25
390
0
  6
CONTINUOUS
 62
     7
100
AcDbLine
 10
137.615305
 20
201.3936
 30
0.0
 11
137.363797
 21
201.3936
 31
0.0
  0
LINE
  5
10DF
100
AcDbEntity
  8
10000_FRONT
370
    25
390
0
  6
CONTINUOUS
 62
     7
100
AcDbLine
 10
137.363797
 20
201.3936
 30
0.0
 11
137.109992
 21
201.477337
 31
0.0
  0
LINE
  5
10E0
100
AcDbEntity
  8
10000_FRONT
370
    25
390
0
  6
CONTINUOUS
 62
     7
100
AcDbLine
 10
137.109992
 20
201.477337
 30
0.0
 11
137.020413
 21
201.563963
 31
0.0
  0
LINE
  5
10E1
100
AcDbEntity
  8
10000_FRONT
370
    25
390
0
  6
CONTINUOUS
 62
     7
100
AcDbLine
 10
168.0
 20
229.5
 30
0.0
 11
134.0
 21
229.5
 31
0.0
  0
ARC
  5
10E2
100
AcDbEntity
  8
10000_FRONT
370
    25
390
0
  6
CONTINUOUS
 62
     7
100
AcDbCircle
 10
134.0
 20
228.5
 30
0.0
 40
1.0
100
AcDbArc
 50
90.0
 51
180.0
  0
LINE
  5
10E3
100
AcDbEntity
  8
10000_FRONT
370
    25
390
0
  6
CONTINUOUS
 62
     7
100
AcDbLine
 10
133.0
 20
228.5
 30
0.0
 11
133.0
 21
194.5
 31
0.0
  0
ARC
  5
10E4
100
AcDbEntity
  8
10000_FRONT
370
    25
390
0
  6
CONTINUOUS
 62
     7
100
AcDbCircle
 10
134.0
 20
194.5
 30
0.0
 40
1.0
100
AcDbArc
 50
180.0
 51
270.0
  0
LINE
  5
10E5
100
AcDbEntity
  8
10000_FRONT
370
    25
390
0
  6
CONTINUOUS
 62
     7
100
AcDbLine
 10
134.0
 20
193.5
 30
0.0
 11
168.0
 21
193.5
 31
0.0
  0
ARC
  5
10E6
100
AcDbEntity
  8
10000_FRONT
370
    25
390
0
  6
CONTINUOUS
 62
     7
100
AcDbCircle
 10
168.0
 20
194.5
 30
0.0
 40
1.0
100
AcDbArc
 50
270.0
 51
0.0
  0
LINE
  5
10E7
100
AcDbEntity
  8
10000_FRONT
370
    25
390
0
  6
CONTINUOUS
 62
     7
100
AcDbLine
 10
169.0
 20
228.5
 30
0.0
 11
169.0
 21
194.5
 31
0.0
  0
ARC
  5
10E8
100
AcDbEntity
  8
10000_FRONT
370
    25
390
0
  6
CONTINUOUS
 62
     7
100
AcDbCircle
 10
168.0
 20
228.5
 30
0.0
 40
1.0
100
AcDbArc
 50
0.0
 51
90.0
  0
LINE
  5
10E9
100
AcDbEntity
  8
10000_FRONT
370
    25
390
0
  6
CONTINUOUS
 62
     7
100
AcDbLine
 10
137.95
 20
224.893
 30
0.0
 11
137.95
 21
222.752
 31
0.0
  0
ARC
  5
10EA
100
AcDbEntity
  8
10000_FRONT
370
    25
390
0
  6
CONTINUOUS
 62
     7
100
AcDbCircle
 10
136.15
 20
223.565
 30
0.0
 40
1.975087
100
AcDbArc
 50
204.307116
 51
335.692886
  0
LINE
  5
10EB
100
AcDbEntity
  8
10000_FRONT
370
    25
390
0
  6
CONTINUOUS
 62
     7
100
AcDbLine
 10
134.35
 20
222.752
 30
0.0
 11
134.35
 21
224.893
 31
0.0
  0
ARC
  5
10EC
100
AcDbEntity
  8
10000_FRONT
370
    25
390
0
  6
CONTINUOUS
 62
     7
100
AcDbCircle
 10
136.15
 20
224.08
 30
0.0
 40
1.975087
100
AcDbArc
 50
24.307113
 51
155.692884
  0
LINE
  5
10ED
100
AcDbEntity
  8
10000_FRONT
370
    25
390
0
  6
CONTINUOUS
 62
     7
100
AcDbLine
 10
137.95
 20
200.248001
 30
0.0
 11
137.95
 21
198.106998
 31
0.0
  0
ARC
  5
10EE
100
AcDbEntity
  8
10000_FRONT
370
    25
390
0
  6
CONTINUOUS
 62
     7
100
AcDbCircle
 10
136.15
 20
198.92
 30
0.0
 40
1.975087
100
AcDbArc
 50
204.307154
 51
335.692849
  0
LINE
  5
10EF
100
AcDbEntity
  8
10000_FRONT
370
    25
390
0
  6
CONTINUOUS
 62
     7
100
AcDbLine
 10
134.35
 20
198.106998
 30
0.0
 11
134.35
 21
200.248001
 31
0.0
  0
ARC
  5
10F0
100
AcDbEntity
  8
10000_FRONT
370
    25
390
0
  6
CONTINUOUS
 62
     7
100
AcDbCircle
 10
136.15
 20
199.435
 30
0.0
 40
1.975087
100
AcDbArc
 50
24.307139
 51
155.692859
  0
LINE
  5
10F1
100
AcDbEntity
  8
10000_FRONT
370
    25
390
0
  6
CONTINUOUS
 62
     7
100
AcDbLine
 10
146.55
 20
224.893
 30
0.0
 11
146.55
 21
222.752
 31
0.0
  0
ARC
  5
10F2
100
AcDbEntity
  8
10000_FRONT
370
    25
390
0
  6
CONTINUOUS
 62
     7
100
AcDbCircle
 10
144.75
 20
223.565
 30
0.0
 40
1.975087
100
AcDbArc
 50
204.307109
 51
335.692891
  0
LINE
  5
10F3
100
AcDbEntity
  8
10000_FRONT
370
    25
390
0
  6
CONTINUOUS
 62
     7
100
AcDbLine
 10
142.95
 20
222.752
 30
0.0
 11
142.95
 21
224.893
 31
0.0
  0
ARC
  5
10F4
100
AcDbEntity
  8
10000_FRONT
370
    25
390
0
  6
CONTINUOUS
 62
     7
100
AcDbCircle
 10
144.75
 20
224.08
 30
0.0
 40
1.975087
100
AcDbArc
 50
24.307109
 51
155.692891
  0
LINE
  5
10F5
100
AcDbEntity
  8
10000_FRONT
370
    25
390
0
  6
CONTINUOUS
 62
     7
100
AcDbLine
 10
146.55
 20
200.248001
 30
0.0
 11
146.55
 21
198.106998
 31
0.0
  0
ARC
  5
10F6
100
AcDbEntity
  8
10000_FRONT
370
    25
390
0
  6
CONTINUOUS
 62
     7
100
AcDbCircle
 10
144.75
 20
198.92
 30
0.0
 40
1.975087
100
AcDbArc
 50
204.307147
 51
335.692853
  0
LINE
  5
10F7
100
AcDbEntity
  8
10000_FRONT
370
    25
390
0
  6
CONTINUOUS
 62
     7
100
AcDbLine
 10
142.95
 20
198.106998
 30
0.0
 11
142.95
 21
200.248001
 31
0.0
  0
ARC
  5
10F8
100
AcDbEntity
  8
10000_FRONT
370
    25
390
0
  6
CONTINUOUS
 62
     7
100
AcDbCircle
 10
144.75
 20
199.435
 30
0.0
 40
1.975087
100
AcDbArc
 50
24.307135
 51
155.692865
  0
LINE
  5
10F9
100
AcDbEntity
  8
10000_FRONT
370
    25
390
0
  6
CONTINUOUS
 62
     7
100
AcDbLine
 10
155.15
 20
224.893
 30
0.0
 11
155.15
 21
222.752
 31
0.0
  0
ARC
  5
10FA
100
AcDbEntity
  8
10000_FRONT
370
    25
390
0
  6
CONTINUOUS
 62
     7
100
AcDbCircle
 10
153.35
 20
223.565
 30
0.0
 40
1.975087
100
AcDbArc
 50
204.307112
 51
335.69289
  0
LINE
  5
10FB
100
AcDbEntity
  8
10000_FRONT
370
    25
390
0
  6
CONTINUOUS
 62
     7
100
AcDbLine
 10
151.55
 20
222.752
 30
0.0
 11
151.55
 21
224.893
 31
0.0
  0
ARC
  5
10FC
100
AcDbEntity
  8
10000_FRONT
370
    25
390
0
  6
CONTINUOUS
 62
     7
100
AcDbCircle
 10
153.35
 20
224.08
 30
0.0
 40
1.975087
100
AcDbArc
 50
24.30711
 51
155.692889
  0
LINE
  5
10FD
100
AcDbEntity
  8
10000_FRONT
370
    25
390
0
  6
CONTINUOUS
 62
     7
100
AcDbLine
 10
155.15
 20
200.248001
 30
0.0
 11
155.15
 21
198.106998
 31
0.0
  0
ARC
  5
10FE
100
AcDbEntity
  8
10000_FRONT
370
    25
390
0
  6
CONTINUOUS
 62
     7
100
AcDbCircle
 10
153.35
 20
198.92
 30
0.0
 40
1.975087
100
AcDbArc
 50
204.307149
 51
335.692852
  0
LINE
  5
10FF
100
AcDbEntity
  8
10000_FRONT
370
    25
390
0
  6
CONTINUOUS
 62
     7
100
AcDbLine
 10
151.55
 20
198.106998
 30
0.0
 11
151.55
 21
200.248001
 31
0.0
  0
ARC
  5
1100
100
AcDbEntity
  8
10000_FRONT
370
    25
390
0
  6
CONTINUOUS
 62
     7
100
AcDbCircle
 10
153.35
 20
199.435
 30
0.0
 40
1.975087
100
AcDbArc
 50
24.307136
 51
155.692863
  0
LINE
  5
1101
100
AcDbEntity
  8
10000_FRONT
370
    25
390
0
  6
CONTINUOUS
 62
     7
100
AcDbLine
 10
163.75
 20
224.893
 30
0.0
 11
163.75
 21
222.752
 31
0.0
  0
ARC
  5
1102
100
AcDbEntity
  8
10000_FRONT
370
    25
390
0
  6
CONTINUOUS
 62
     7
100
AcDbCircle
 10
161.95
 20
223.565
 30
0.0
 40
1.975087
100
AcDbArc
 50
204.307107
 51
335.692888
  0
LINE
  5
1103
100
AcDbEntity
  8
10000_FRONT
370
    25
390
0
  6
CONTINUOUS
 62
     7
100
AcDbLine
 10
160.15
 20
222.752
 30
0.0
 11
160.15
 21
224.893
 31
0.0
  0
ARC
  5
1104
100
AcDbEntity
  8
10000_FRONT
370
    25
390
0
  6
CONTINUOUS
 62
     7
100
AcDbCircle
 10
161.95
 20
224.08
 30
0.0
 40
1.975087
100
AcDbArc
 50
24.307111
 51
155.692893
  0
LINE
  5
1105
100
AcDbEntity
  8
10000_FRONT
370
    25
390
0
  6
CONTINUOUS
 62
     7
100
AcDbLine
 10
163.75
 20
200.248001
 30
0.0
 11
163.75
 21
198.106998
 31
0.0
  0
ARC
  5
1106
100
AcDbEntity
  8
10000_FRONT
370
    25
390
0
  6
CONTINUOUS
 62
     7
100
AcDbCircle
 10
161.95
 20
198.92
 30
0.0
 40
1.975087
100
AcDbArc
 50
204.307144
 51
335.692851
  0
LINE
  5
1107
100
AcDbEntity
  8
10000_FRONT
370
    25
390
0
  6
CONTINUOUS
 62
     7
100
AcDbLine
 10
160.15
 20
198.106998
 30
0.0
 11
160.15
 21
200.248001
 31
0.0
  0
ARC
  5
1108
100
AcDbEntity
  8
10000_FRONT
370
    25
390
0
  6
CONTINUOUS
 62
     7
100
AcDbCircle
 10
161.95
 20
199.435
 30
0.0
 40
1.975087
100
AcDbArc
 50
24.307137
 51
155.692868
  0
LINE
  5
1109
100
AcDbEntity
  8
10000_FRONT
370
    25
390
0
  6
CONTINUOUS
 62
     7
100
AcDbLine
 10
141.85
 20
224.893
 30
0.0
 11
141.85
 21
222.752
 31
0.0
  0
ARC
  5
110A
100
AcDbEntity
  8
10000_FRONT
370
    25
390
0
  6
CONTINUOUS
 62
     7
100
AcDbCircle
 10
140.05
 20
223.565
 30
0.0
 40
1.975087
100
AcDbArc
 50
204.307112
 51
335.692893
  0
LINE
  5
110B
100
AcDbEntity
  8
10000_FRONT
370
    25
390
0
  6
CONTINUOUS
 62
     7
100
AcDbLine
 10
138.25
 20
222.752
 30
0.0
 11
138.25
 21
224.893
 31
0.0
  0
ARC
  5
110C
100
AcDbEntity
  8
10000_FRONT
370
    25
390
0
  6
CONTINUOUS
 62
     7
100
AcDbCircle
 10
140.05
 20
224.08
 30
0.0
 40
1.975087
100
AcDbArc
 50
24.307107
 51
155.692889
  0
LINE
  5
110D
100
AcDbEntity
  8
10000_FRONT
370
    25
390
0
  6
CONTINUOUS
 62
     7
100
AcDbLine
 10
150.45
 20
224.893
 30
0.0
 11
150.45
 21
222.752
 31
0.0
  0
ARC
  5
110E
100
AcDbEntity
  8
10000_FRONT
370
    25
390
0
  6
CONTINUOUS
 62
     7
100
AcDbCircle
 10
148.65
 20
223.565
 30
0.0
 40
1.975087
100
AcDbArc
 50
204.30711
 51
335.692888
  0
LINE
  5
110F
100
AcDbEntity
  8
10000_FRONT
370
    25
390
0
  6
CONTINUOUS
 62
     7
100
AcDbLine
 10
146.85
 20
222.752
 30
0.0
 11
146.85
 21
224.893
 31
0.0
  0
ARC
  5
1110
100
AcDbEntity
  8
10000_FRONT
370
    25
390
0
  6
CONTINUOUS
 62
     7
100
AcDbCircle
 10
148.65
 20
224.08
 30
0.0
 40
1.975087
100
AcDbArc
 50
24.307111
 51
155.69289
  0
LINE
  5
1111
100
AcDbEntity
  8
10000_FRONT
370
    25
390
0
  6
CONTINUOUS
 62
     7
100
AcDbLine
 10
159.05
 20
224.893
 30
0.0
 11
159.05
 21
222.752
 31
0.0
  0
ARC
  5
1112
100
AcDbEntity
  8
10000_FRONT
370
    25
390
0
  6
CONTINUOUS
 62
     7
100
AcDbCircle
 10
157.25
 20
223.565
 30
0.0
 40
1.975087
100
AcDbArc
 50
204.307109
 51
335.692891
  0
LINE
  5
1113
100
AcDbEntity
  8
10000_FRONT
370
    25
390
0
  6
CONTINUOUS
 62
     7
100
AcDbLine
 10
155.45
 20
222.752
 30
0.0
 11
155.45
 21
224.893
 31
0.0
  0
ARC
  5
1114
100
AcDbEntity
  8
10000_FRONT
370
    25
390
0
  6
CONTINUOUS
 62
     7
100
AcDbCircle
 10
157.25
 20
224.08
 30
0.0
 40
1.975087
100
AcDbArc
 50
24.307109
 51
155.692891
  0
LINE
  5
1115
100
AcDbEntity
  8
10000_FRONT
370
    25
390
0
  6
CONTINUOUS
 62
     7
100
AcDbLine
 10
159.05
 20
200.248001
 30
0.0
 11
159.05
 21
198.106998
 31
0.0
  0
ARC
  5
1116
100
AcDbEntity
  8
10000_FRONT
370
    25
390
0
  6
CONTINUOUS
 62
     7
100
AcDbCircle
 10
157.25
 20
198.92
 30
0.0
 40
1.975087
100
AcDbArc
 50
204.307147
 51
335.692853
  0
LINE
  5
1117
100
AcDbEntity
  8
10000_FRONT
370
    25
390
0
  6
CONTINUOUS
 62
     7
100
AcDbLine
 10
155.45
 20
198.106998
 30
0.0
 11
155.45
 21
200.248001
 31
0.0
  0
ARC
  5
1118
100
AcDbEntity
  8
10000_FRONT
370
    25
390
0
  6
CONTINUOUS
 62
     7
100
AcDbCircle
 10
157.25
 20
199.435
 30
0.0
 40
1.975087
100
AcDbArc
 50
24.307135
 51
155.692865
  0
LINE
  5
1119
100
AcDbEntity
  8
10000_FRONT
370
    25
390
0
  6
CONTINUOUS
 62
     7
100
AcDbLine
 10
167.65
 20
224.893
 30
0.0
 11
167.65
 21
222.752
 31
0.0
  0
ARC
  5
111A
100
AcDbEntity
  8
10000_FRONT
370
    25
390
0
  6
CONTINUOUS
 62
     7
100
AcDbCircle
 10
165.85
 20
223.565
 30
0.0
 40
1.975087
100
AcDbArc
 50
204.307114
 51
335.692884
  0
LINE
  5
111B
100
AcDbEntity
  8
10000_FRONT
370
    25
390
0
  6
CONTINUOUS
 62
     7
100
AcDbLine
 10
164.05
 20
222.752
 30
0.0
 11
164.05
 21
224.893
 31
0.0
  0
ARC
  5
111C
100
AcDbEntity
  8
10000_FRONT
370
    25
390
0
  6
CONTINUOUS
 62
     7
100
AcDbCircle
 10
165.85
 20
224.08
 30
0.0
 40
1.975087
100
AcDbArc
 50
24.307116
 51
155.692887
  0
LINE
  5
111D
100
AcDbEntity
  8
10000_FRONT
370
    25
390
0
  6
CONTINUOUS
 62
     7
100
AcDbLine
 10
137.85
 20
216.0
 30
0.0
 11
134.299999
 21
216.0
 31
0.0
  0
LINE
  5
111E
100
AcDbEntity
  8
10000_FRONT
370
    25
390
0
  6
CONTINUOUS
 62
     7
100
AcDbLine
 10
134.299999
 20
216.0
 30
0.0
 11
134.299999
 21
219.75
 31
0.0
  0
LINE
  5
111F
100
AcDbEntity
  8
10000_FRONT
370
    25
390
0
  6
CONTINUOUS
 62
     7
100
AcDbLine
 10
134.299999
 20
219.75
 30
0.0
 11
137.85
 21
219.75
 31
0.0
  0
LINE
  5
1120
100
AcDbEntity
  8
10000_FRONT
370
    25
390
0
  6
CONTINUOUS
 62
     7
100
AcDbLine
 10
137.85
 20
219.75
 30
0.0
 11
137.85
 21
216.0
 31
0.0
  0
LINE
  5
1121
100
AcDbEntity
  8
10000_FRONT
370
    25
390
0
  6
CONTINUOUS
 62
     7
100
AcDbLine
 10
137.85
 20
203.25
 30
0.0
 11
134.299999
 21
203.25
 31
0.0
  0
LINE
  5
1122
100
AcDbEntity
  8
10000_FRONT
370
    25
390
0
  6
CONTINUOUS
 62
     7
100
AcDbLine
 10
134.299999
 20
203.25
 30
0.0
 11
134.299999
 21
207.0
 31
0.0
  0
LINE
  5
1123
100
AcDbEntity
  8
10000_FRONT
370
    25
390
0
  6
CONTINUOUS
 62
     7
100
AcDbLine
 10
134.299999
 20
207.0
 30
0.0
 11
137.85
 21
207.0
 31
0.0
  0
LINE
  5
1124
100
AcDbEntity
  8
10000_FRONT
370
    25
390
0
  6
CONTINUOUS
 62
     7
100
AcDbLine
 10
137.85
 20
207.0
 30
0.0
 11
137.85
 21
203.25
 31
0.0
  0
LINE
  5
1125
100
AcDbEntity
  8
10000_FRONT
370
    25
390
0
  6
CONTINUOUS
 62
     7
100
AcDbLine
 10
146.45
 20
216.0
 30
0.0
 11
142.9
 21
216.0
 31
0.0
  0
LINE
  5
1126
100
AcDbEntity
  8
10000_FRONT
370
    25
390
0
  6
CONTINUOUS
 62
     7
100
AcDbLine
 10
142.9
 20
216.0
 30
0.0
 11
142.9
 21
219.75
 31
0.0
  0
LINE
  5
1127
100
AcDbEntity
  8
10000_FRONT
370
    25
390
0
  6
CONTINUOUS
 62
     7
100
AcDbLine
 10
142.9
 20
219.75
 30
0.0
 11
146.45
 21
219.75
 31
0.0
  0
LINE
  5
1128
100
AcDbEntity
  8
10000_FRONT
370
    25
390
0
  6
CONTINUOUS
 62
     7
100
AcDbLine
 10
146.45
 20
219.75
 30
0.0
 11
146.45
 21
216.0
 31
0.0
  0
LINE
  5
1129
100
AcDbEntity
  8
10000_FRONT
370
    25
390
0
  6
CONTINUOUS
 62
     7
100
AcDbLine
 10
146.45
 20
203.25
 30
0.0
 11
142.9
 21
203.25
 31
0.0
  0
LINE
  5
112A
100
AcDbEntity
  8
10000_FRONT
370
    25
390
0
  6
CONTINUOUS
 62
     7
100
AcDbLine
 10
142.9
 20
203.25
 30
0.0
 11
142.9
 21
207.0
 31
0.0
  0
LINE
  5
112B
100
AcDbEntity
  8
10000_FRONT
370
    25
390
0
  6
CONTINUOUS
 62
     7
100
AcDbLine
 10
142.9
 20
207.0
 30
0.0
 11
146.45
 21
207.0
 31
0.0
  0
LINE
  5
112C
100
AcDbEntity
  8
10000_FRONT
370
    25
390
0
  6
CONTINUOUS
 62
     7
100
AcDbLine
 10
146.45
 20
207.0
 30
0.0
 11
146.45
 21
203.25
 31
0.0
  0
LINE
  5
112D
100
AcDbEntity
  8
10000_FRONT
370
    25
390
0
  6
CONTINUOUS
 62
     7
100
AcDbLine
 10
155.05
 20
216.0
 30
0.0
 11
151.5
 21
216.0
 31
0.0
  0
LINE
  5
112E
100
AcDbEntity
  8
10000_FRONT
370
    25
390
0
  6
CONTINUOUS
 62
     7
100
AcDbLine
 10
151.5
 20
216.0
 30
0.0
 11
151.5
 21
219.75
 31
0.0
  0
LINE
  5
112F
100
AcDbEntity
  8
10000_FRONT
370
    25
390
0
  6
CONTINUOUS
 62
     7
100
AcDbLine
 10
151.5
 20
219.75
 30
0.0
 11
155.05
 21
219.75
 31
0.0
  0
LINE
  5
1130
100
AcDbEntity
  8
10000_FRONT
370
    25
390
0
  6
CONTINUOUS
 62
     7
100
AcDbLine
 10
155.05
 20
219.75
 30
0.0
 11
155.05
 21
216.0
 31
0.0
  0
LINE
  5
1131
100
AcDbEntity
  8
10000_FRONT
370
    25
390
0
  6
CONTINUOUS
 62
     7
100
AcDbLine
 10
155.05
 20
203.25
 30
0.0
 11
151.5
 21
203.25
 31
0.0
  0
LINE
  5
1132
100
AcDbEntity
  8
10000_FRONT
370
    25
390
0
  6
CONTINUOUS
 62
     7
100
AcDbLine
 10
151.5
 20
203.25
 30
0.0
 11
151.5
 21
207.0
 31
0.0
  0
LINE
  5
1133
100
AcDbEntity
  8
10000_FRONT
370
    25
390
0
  6
CONTINUOUS
 62
     7
100
AcDbLine
 10
151.5
 20
207.0
 30
0.0
 11
155.05
 21
207.0
 31
0.0
  0
LINE
  5
1134
100
AcDbEntity
  8
10000_FRONT
370
    25
390
0
  6
CONTINUOUS
 62
     7
100
AcDbLine
 10
155.05
 20
207.0
 30
0.0
 11
155.05
 21
203.25
 31
0.0
  0
LINE
  5
1135
100
AcDbEntity
  8
10000_FRONT
370
    25
390
0
  6
CONTINUOUS
 62
     7
100
AcDbLine
 10
163.65
 20
216.0
 30
0.0
 11
160.1
 21
216.0
 31
0.0
  0
LINE
  5
1136
100
AcDbEntity
  8
10000_FRONT
370
    25
390
0
  6
CONTINUOUS
 62
     7
100
AcDbLine
 10
160.1
 20
216.0
 30
0.0
 11
160.1
 21
219.75
 31
0.0
  0
LINE
  5
1137
100
AcDbEntity
  8
10000_FRONT
370
    25
390
0
  6
CONTINUOUS
 62
     7
100
AcDbLine
 10
160.1
 20
219.75
 30
0.0
 11
163.65
 21
219.75
 31
0.0
  0
LINE
  5
1138
100
AcDbEntity
  8
10000_FRONT
370
    25
390
0
  6
CONTINUOUS
 62
     7
100
AcDbLine
 10
163.65
 20
219.75
 30
0.0
 11
163.65
 21
216.0
 31
0.0
  0
LINE
  5
1139
100
AcDbEntity
  8
10000_FRONT
370
    25
390
0
  6
CONTINUOUS
 62
     7
100
AcDbLine
 10
163.65
 20
203.25
 30
0.0
 11
160.1
 21
203.25
 31
0.0
  0
LINE
  5
113A
100
AcDbEntity
  8
10000_FRONT
370
    25
390
0
  6
CONTINUOUS
 62
     7
100
AcDbLine
 10
160.1
 20
203.25
 30
0.0
 11
160.1
 21
207.0
 31
0.0
  0
LINE
  5
113B
100
AcDbEntity
  8
10000_FRONT
370
    25
390
0
  6
CONTINUOUS
 62
     7
100
AcDbLine
 10
160.1
 20
207.0
 30
0.0
 11
163.65
 21
207.0
 31
0.0
  0
LINE
  5
113C
100
AcDbEntity
  8
10000_FRONT
370
    25
390
0
  6
CONTINUOUS
 62
     7
100
AcDbLine
 10
163.65
 20
207.0
 30
0.0
 11
163.65
 21
203.25
 31
0.0
  0
LINE
  5
113D
100
AcDbEntity
  8
10000_FRONT
370
    25
390
0
  6
CONTINUOUS
 62
     7
100
AcDbLine
 10
141.9
 20
216.0
 30
0.0
 11
138.35
 21
216.0
 31
0.0
  0
LINE
  5
113E
100
AcDbEntity
  8
10000_FRONT
370
    25
390
0
  6
CONTINUOUS
 62
     7
100
AcDbLine
 10
138.35
 20
216.0
 30
0.0
 11
138.35
 21
219.75
 31
0.0
  0
LINE
  5
113F
100
AcDbEntity
  8
10000_FRONT
370
    25
390
0
  6
CONTINUOUS
 62
     7
100
AcDbLine
 10
138.35
 20
219.75
 30
0.0
 11
141.9
 21
219.75
 31
0.0
  0
LINE
  5
1140
100
AcDbEntity
  8
10000_FRONT
370
    25
390
0
  6
CONTINUOUS
 62
     7
100
AcDbLine
 10
141.9
 20
219.75
 30
0.0
 11
141.9
 21
216.0
 31
0.0
  0
LINE
  5
1141
100
AcDbEntity
  8
10000_FRONT
370
    25
390
0
  6
CONTINUOUS
 62
     7
100
AcDbLine
 10
141.9
 20
203.25
 30
0.0
 11
138.35
 21
203.25
 31
0.0
  0
LINE
  5
1142
100
AcDbEntity
  8
10000_FRONT
370
    25
390
0
  6
CONTINUOUS
 62
     7
100
AcDbLine
 10
138.35
 20
203.25
 30
0.0
 11
138.35
 21
207.0
 31
0.0
  0
LINE
  5
1143
100
AcDbEntity
  8
10000_FRONT
370
    25
390
0
  6
CONTINUOUS
 62
     7
100
AcDbLine
 10
138.35
 20
207.0
 30
0.0
 11
141.9
 21
207.0
 31
0.0
  0
LINE
  5
1144
100
AcDbEntity
  8
10000_FRONT
370
    25
390
0
  6
CONTINUOUS
 62
     7
100
AcDbLine
 10
141.9
 20
207.0
 30
0.0
 11
141.9
 21
203.25
 31
0.0
  0
LINE
  5
1145
100
AcDbEntity
  8
10000_FRONT
370
    25
390
0
  6
CONTINUOUS
 62
     7
100
AcDbLine
 10
150.5
 20
216.0
 30
0.0
 11
146.95
 21
216.0
 31
0.0
  0
LINE
  5
1146
100
AcDbEntity
  8
10000_FRONT
370
    25
390
0
  6
CONTINUOUS
 62
     7
100
AcDbLine
 10
146.95
 20
216.0
 30
0.0
 11
146.95
 21
219.75
 31
0.0
  0
LINE
  5
1147
100
AcDbEntity
  8
10000_FRONT
370
    25
390
0
  6
CONTINUOUS
 62
     7
100
AcDbLine
 10
146.95
 20
219.75
 30
0.0
 11
150.5
 21
219.75
 31
0.0
  0
LINE
  5
1148
100
AcDbEntity
  8
10000_FRONT
370
    25
390
0
  6
CONTINUOUS
 62
     7
100
AcDbLine
 10
150.5
 20
219.75
 30
0.0
 11
150.5
 21
216.0
 31
0.0
  0
LINE
  5
1149
100
AcDbEntity
  8
10000_FRONT
370
    25
390
0
  6
CONTINUOUS
 62
     7
100
AcDbLine
 10
150.5
 20
203.25
 30
0.0
 11
146.95
 21
203.25
 31
0.0
  0
LINE
  5
114A
100
AcDbEntity
  8
10000_FRONT
370
    25
390
0
  6
CONTINUOUS
 62
     7
100
AcDbLine
 10
146.95
 20
203.25
 30
0.0
 11
146.95
 21
207.0
 31
0.0
  0
LINE
  5
114B
100
AcDbEntity
  8
10000_FRONT
370
    25
390
0
  6
CONTINUOUS
 62
     7
100
AcDbLine
 10
146.95
 20
207.0
 30
0.0
 11
150.5
 21
207.0
 31
0.0
  0
LINE
  5
114C
100
AcDbEntity
  8
10000_FRONT
370
    25
390
0
  6
CONTINUOUS
 62
     7
100
AcDbLine
 10
150.5
 20
207.0
 30
0.0
 11
150.5
 21
203.25
 31
0.0
  0
LINE
  5
114D
100
AcDbEntity
  8
10000_FRONT
370
    25
390
0
  6
CONTINUOUS
 62
     7
100
AcDbLine
 10
159.1
 20
216.0
 30
0.0
 11
155.55
 21
216.0
 31
0.0
  0
LINE
  5
114E
100
AcDbEntity
  8
10000_FRONT
370
    25
390
0
  6
CONTINUOUS
 62
     7
100
AcDbLine
 10
155.55
 20
216.0
 30
0.0
 11
155.55
 21
219.75
 31
0.0
  0
LINE
  5
114F
100
AcDbEntity
  8
10000_FRONT
370
    25
390
0
  6
CONTINUOUS
 62
     7
100
AcDbLine
 10
155.55
 20
219.75
 30
0.0
 11
159.1
 21
219.75
 31
0.0
  0
LINE
  5
1150
100
AcDbEntity
  8
10000_FRONT
370
    25
390
0
  6
CONTINUOUS
 62
     7
100
AcDbLine
 10
159.1
 20
219.75
 30
0.0
 11
159.1
 21
216.0
 31
0.0
  0
LINE
  5
1151
100
AcDbEntity
  8
10000_FRONT
370
    25
390
0
  6
CONTINUOUS
 62
     7
100
AcDbLine
 10
159.1
 20
203.25
 30
0.0
 11
155.55
 21
203.25
 31
0.0
  0
LINE
  5
1152
100
AcDbEntity
  8
10000_FRONT
370
    25
390
0
  6
CONTINUOUS
 62
     7
100
AcDbLine
 10
155.55
 20
203.25
 30
0.0
 11
155.55
 21
207.0
 31
0.0
  0
LINE
  5
1153
100
AcDbEntity
  8
10000_FRONT
370
    25
390
0
  6
CONTINUOUS
 62
     7
100
AcDbLine
 10
155.55
 20
207.0
 30
0.0
 11
159.1
 21
207.0
 31
0.0
  0
LINE
  5
1154
100
AcDbEntity
  8
10000_FRONT
370
    25
390
0
  6
CONTINUOUS
 62
     7
100
AcDbLine
 10
159.1
 20
207.0
 30
0.0
 11
159.1
 21
203.25
 31
0.0
  0
LINE
  5
1155
100
AcDbEntity
  8
10000_FRONT
370
    25
390
0
  6
CONTINUOUS
 62
     7
100
AcDbLine
 10
167.700001
 20
216.0
 30
0.0
 11
164.15
 21
216.0
 31
0.0
  0
LINE
  5
1156
100
AcDbEntity
  8
10000_FRONT
370
    25
390
0
  6
CONTINUOUS
 62
     7
100
AcDbLine
 10
164.15
 20
216.0
 30
0.0
 11
164.15
 21
219.75
 31
0.0
  0
LINE
  5
1157
100
AcDbEntity
  8
10000_FRONT
370
    25
390
0
  6
CONTINUOUS
 62
     7
100
AcDbLine
 10
164.15
 20
219.75
 30
0.0
 11
167.700001
 21
219.75
 31
0.0
  0
LINE
  5
1158
100
AcDbEntity
  8
10000_FRONT
370
    25
390
0
  6
CONTINUOUS
 62
     7
100
AcDbLine
 10
167.700001
 20
219.75
 30
0.0
 11
167.700001
 21
216.0
 31
0.0
  0
LINE
  5
1159
100
AcDbEntity
  8
10000_FRONT
370
    25
390
0
  6
CONTINUOUS
 62
     7
100
AcDbLine
 10
167.700001
 20
203.25
 30
0.0
 11
164.15
 21
203.25
 31
0.0
  0
LINE
  5
115A
100
AcDbEntity
  8
10000_FRONT
370
    25
390
0
  6
CONTINUOUS
 62
     7
100
AcDbLine
 10
164.15
 20
203.25
 30
0.0
 11
164.15
 21
207.0
 31
0.0
  0
LINE
  5
115B
100
AcDbEntity
  8
10000_FRONT
370
    25
390
0
  6
CONTINUOUS
 62
     7
100
AcDbLine
 10
164.15
 20
207.0
 30
0.0
 11
167.700001
 21
207.0
 31
0.0
  0
LINE
  5
115C
100
AcDbEntity
  8
10000_FRONT
370
    25
390
0
  6
CONTINUOUS
 62
     7
100
AcDbLine
 10
167.700001
 20
207.0
 30
0.0
 11
167.700001
 21
203.25
 31
0.0
  0
LINE
  5
115D
100
AcDbEntity
  8
10000_FRONT
370
    25
390
0
  6
CONTINUOUS
 62
     7
100
AcDbLine
 10
167.0
 20
207.950001
 30
0.0
 11
135.0
 21
207.950001
 31
0.0
  0
LINE
  5
115E
100
AcDbEntity
  8
10000_FRONT
370
    25
390
0
  6
CONTINUOUS
 62
     7
100
AcDbLine
 10
135.0
 20
207.950001
 30
0.0
 11
135.0
 21
215.049999
 31
0.0
  0
LINE
  5
115F
100
AcDbEntity
  8
10000_FRONT
370
    25
390
0
  6
CONTINUOUS
 62
     7
100
AcDbLine
 10
135.0
 20
215.049999
 30
0.0
 11
155.36
 21
215.049999
 31
0.0
  0
LINE
  5
1160
100
AcDbEntity
  8
10000_FRONT
370
    25
390
0
  6
CONTINUOUS
 62
     7
100
AcDbLine
 10
155.36
 20
213.950001
 30
0.0
 11
155.36
 21
215.049999
 31
0.0
  0
LINE
  5
1161
100
AcDbEntity
  8
10000_FRONT
370
    25
390
0
  6
CONTINUOUS
 62
     7
100
AcDbLine
 10
156.56
 20
213.950001
 30
0.0
 11
155.36
 21
213.950001
 31
0.0
  0
LINE
  5
1162
100
AcDbEntity
  8
10000_FRONT
370
    25
390
0
  6
CONTINUOUS
 62
     7
100
AcDbLine
 10
156.56
 20
215.049999
 30
0.0
 11
156.56
 21
213.950001
 31
0.0
  0
LINE
  5
1163
100
AcDbEntity
  8
10000_FRONT
370
    25
390
0
  6
CONTINUOUS
 62
     7
100
AcDbLine
 10
156.56
 20
215.049999
 30
0.0
 11
167.0
 21
215.049999
 31
0.0
  0
LINE
  5
1164
100
AcDbEntity
  8
10000_FRONT
370
    25
390
0
  6
CONTINUOUS
 62
     7
100
AcDbLine
 10
167.0
 20
215.049999
 30
0.0
 11
167.0
 21
207.950001
 31
0.0
  0
ARC
  5
1165
100
AcDbEntity
  8
10000_FRONT
370
    25
390
0
  6
CONTINUOUS
 62
     7
100
AcDbCircle
 10
165.85
 20
199.435
 30
0.0
 40
1.975087
100
AcDbArc
 50
24.307141
 51
96.535128
  0
LINE
  5
1166
100
AcDbEntity
  8
10000_FRONT
370
    25
390
0
  6
CONTINUOUS
 62
     7
100
AcDbLine
 10
167.65
 20
200.248001
 30
0.0
 11
167.65
 21
198.106998
 31
0.0
  0
ARC
  5
1167
100
AcDbEntity
  8
10000_FRONT
370
    25
390
0
  6
CONTINUOUS
 62
     7
100
AcDbCircle
 10
165.85
 20
198.92
 30
0.0
 40
1.975087
100
AcDbArc
 50
204.307151
 51
335.692846
  0
LINE
  5
1168
100
AcDbEntity
  8
10000_FRONT
370
    25
390
0
  6
CONTINUOUS
 62
     7
100
AcDbLine
 10
164.05
 20
198.106998
 30
0.0
 11
164.05
 21
200.248001
 31
0.0
  0
ARC
  5
1169
100
AcDbEntity
  8
10000_FRONT
370
    25
390
0
  6
CONTINUOUS
 62
     7
100
AcDbCircle
 10
165.85
 20
199.435
 30
0.0
 40
1.975087
100
AcDbArc
 50
97.408317
 51
155.692861
  0
ARC
  5
116A
100
AcDbEntity
  8
10000_FRONT
370
    25
390
0
  6
CONTINUOUS
 62
     7
100
AcDbCircle
 10
148.65
 20
199.435
 30
0.0
 40
1.975087
100
AcDbArc
 50
24.307137
 51
90.719122
  0
LINE
  5
116B
100
AcDbEntity
  8
10000_FRONT
370
    25
390
0
  6
CONTINUOUS
 62
     7
100
AcDbLine
 10
150.45
 20
200.248001
 30
0.0
 11
150.45
 21
198.106998
 31
0.0
  0
ARC
  5
116C
100
AcDbEntity
  8
10000_FRONT
370
    25
390
0
  6
CONTINUOUS
 62
     7
100
AcDbCircle
 10
148.65
 20
198.92
 30
0.0
 40
1.975087
100
AcDbArc
 50
204.307148
 51
335.692851
  0
LINE
  5
116D
100
AcDbEntity
  8
10000_FRONT
370
    25
390
0
  6
CONTINUOUS
 62
     7
100
AcDbLine
 10
146.85
 20
198.106998
 30
0.0
 11
146.85
 21
200.248001
 31
0.0
  0
ARC
  5
116E
100
AcDbEntity
  8
10000_FRONT
370
    25
390
0
  6
CONTINUOUS
 62
     7
100
AcDbCircle
 10
148.65
 20
199.435
 30
0.0
 40
1.975087
100
AcDbArc
 50
97.408305
 51
155.692864
  0
ARC
  5
116F
100
AcDbEntity
  8
10000_FRONT
370
    25
390
0
  6
CONTINUOUS
 62
     7
100
AcDbCircle
 10
140.05
 20
199.435
 30
0.0
 40
1.975087
100
AcDbArc
 50
24.307132
 51
93.622448
  0
LINE
  5
1170
100
AcDbEntity
  8
10000_FRONT
370
    25
390
0
  6
CONTINUOUS
 62
     7
100
AcDbLine
 10
141.85
 20
200.248001
 30
0.0
 11
141.85
 21
198.106998
 31
0.0
  0
ARC
  5
1171
100
AcDbEntity
  8
10000_FRONT
370
    25
390
0
  6
CONTINUOUS
 62
     7
100
AcDbCircle
 10
140.05
 20
198.92
 30
0.0
 40
1.975087
100
AcDbArc
 50
204.307149
 51
335.692856
  0
LINE
  5
1172
100
AcDbEntity
  8
10000_FRONT
370
    25
390
0
  6
CONTINUOUS
 62
     7
100
AcDbLine
 10
138.25
 20
198.106998
 30
0.0
 11
138.25
 21
200.248001
 31
0.0
  0
ARC
  5
1173
100
AcDbEntity
  8
10000_FRONT
370
    25
390
0
  6
CONTINUOUS
 62
     7
100
AcDbCircle
 10
140.05
 20
199.435
 30
0.0
 40
1.975087
100
AcDbArc
 50
97.408295
 51
155.692863
  0
LINE
  5
1174
100
AcDbEntity
  8
10000_FRONT
370
    25
390
0
  6
CONTINUOUS
 62
     7
100
AcDbLine
 10
139.3085
 20
219.8936
 30
0.0
 11
139.3085
 21
221.429488
 31
0.0
  0
LINE
  5
1175
100
AcDbEntity
  8
10000_FRONT
370
    25
390
0
  6
CONTINUOUS
 62
     7
100
AcDbLine
 10
139.3085
 20
221.429488
 30
0.0
 11
139.174133
 21
221.294038
 31
0.0
  0
LINE
  5
1176
100
AcDbEntity
  8
10000_FRONT
370
    25
390
0
  6
CONTINUOUS
 62
     7
100
AcDbLine
 10
139.174133
 20
221.294038
 30
0.0
 11
138.978898
 21
221.1977
 31
0.0
  0
LINE
  5
1177
100
AcDbEntity
  8
10000_FRONT
370
    25
390
0
  6
CONTINUOUS
 62
     7
100
AcDbLine
 10
138.978898
 20
221.1977
 30
0.0
 11
138.978898
 21
221.3216
 31
0.0
  0
LINE
  5
1178
100
AcDbEntity
  8
10000_FRONT
370
    25
390
0
  6
CONTINUOUS
 62
     7
100
AcDbLine
 10
138.978898
 20
221.3216
 30
0.0
 11
139.151164
 21
221.40875
 31
0.0
  0
LINE
  5
1179
100
AcDbEntity
  8
10000_FRONT
370
    25
390
0
  6
CONTINUOUS
 62
     7
100
AcDbLine
 10
139.151164
 20
221.40875
 30
0.0
 11
139.401294
 21
221.6576
 31
0.0
  0
LINE
  5
117A
100
AcDbEntity
  8
10000_FRONT
370
    25
390
0
  6
CONTINUOUS
 62
     7
100
AcDbLine
 10
139.401294
 20
221.6576
 30
0.0
 11
139.4261
 21
221.6576
 31
0.0
  0
LINE
  5
117B
100
AcDbEntity
  8
10000_FRONT
370
    25
390
0
  6
CONTINUOUS
 62
     7
100
AcDbLine
 10
139.4261
 20
221.6576
 30
0.0
 11
139.4261
 21
219.8936
 31
0.0
  0
LINE
  5
117C
100
AcDbEntity
  8
10000_FRONT
370
    25
390
0
  6
CONTINUOUS
 62
     7
100
AcDbLine
 10
139.4261
 20
219.8936
 30
0.0
 11
139.3085
 21
219.8936
 31
0.0
  0
LINE
  5
117D
100
AcDbEntity
  8
10000_FRONT
370
    25
390
0
  6
CONTINUOUS
 62
     7
100
AcDbLine
 10
148.0085
 20
219.8936
 30
0.0
 11
148.0085
 21
221.429488
 31
0.0
  0
LINE
  5
117E
100
AcDbEntity
  8
10000_FRONT
370
    25
390
0
  6
CONTINUOUS
 62
     7
100
AcDbLine
 10
148.0085
 20
221.429488
 30
0.0
 11
147.874133
 21
221.294038
 31
0.0
  0
LINE
  5
117F
100
AcDbEntity
  8
10000_FRONT
370
    25
390
0
  6
CONTINUOUS
 62
     7
100
AcDbLine
 10
147.874133
 20
221.294038
 30
0.0
 11
147.678898
 21
221.1977
 31
0.0
  0
LINE
  5
1180
100
AcDbEntity
  8
10000_FRONT
370
    25
390
0
  6
CONTINUOUS
 62
     7
100
AcDbLine
 10
147.678898
 20
221.1977
 30
0.0
 11
147.678898
 21
221.3216
 31
0.0
  0
LINE
  5
1181
100
AcDbEntity
  8
10000_FRONT
370
    25
390
0
  6
CONTINUOUS
 62
     7
100
AcDbLine
 10
147.678898
 20
221.3216
 30
0.0
 11
147.851164
 21
221.40875
 31
0.0
  0
LINE
  5
1182
100
AcDbEntity
  8
10000_FRONT
370
    25
390
0
  6
CONTINUOUS
 62
     7
100
AcDbLine
 10
147.851164
 20
221.40875
 30
0.0
 11
148.101294
 21
221.6576
 31
0.0
  0
LINE
  5
1183
100
AcDbEntity
  8
10000_FRONT
370
    25
390
0
  6
CONTINUOUS
 62
     7
100
AcDbLine
 10
148.101294
 20
221.6576
 30
0.0
 11
148.1261
 21
221.6576
 31
0.0
  0
LINE
  5
1184
100
AcDbEntity
  8
10000_FRONT
370
    25
390
0
  6
CONTINUOUS
 62
     7
100
AcDbLine
 10
148.1261
 20
221.6576
 30
0.0
 11
148.1261
 21
219.8936
 31
0.0
  0
LINE
  5
1185
100
AcDbEntity
  8
10000_FRONT
370
    25
390
0
  6
CONTINUOUS
 62
     7
100
AcDbLine
 10
148.1261
 20
219.8936
 30
0.0
 11
148.0085
 21
219.8936
 31
0.0
  0
LINE
  5
1186
100
AcDbEntity
  8
10000_FRONT
370
    25
390
0
  6
CONTINUOUS
 62
     7
100
AcDbLine
 10
156.3085
 20
219.8936
 30
0.0
 11
156.3085
 21
221.429488
 31
0.0
  0
LINE
  5
1187
100
AcDbEntity
  8
10000_FRONT
370
    25
390
0
  6
CONTINUOUS
 62
     7
100
AcDbLine
 10
156.3085
 20
221.429488
 30
0.0
 11
156.174133
 21
221.294038
 31
0.0
  0
LINE
  5
1188
100
AcDbEntity
  8
10000_FRONT
370
    25
390
0
  6
CONTINUOUS
 62
     7
100
AcDbLine
 10
156.174133
 20
221.294038
 30
0.0
 11
155.978899
 21
221.1977
 31
0.0
  0
LINE
  5
1189
100
AcDbEntity
  8
10000_FRONT
370
    25
390
0
  6
CONTINUOUS
 62
     7
100
AcDbLine
 10
155.978899
 20
221.1977
 30
0.0
 11
155.978899
 21
221.3216
 31
0.0
  0
LINE
  5
118A
100
AcDbEntity
  8
10000_FRONT
370
    25
390
0
  6
CONTINUOUS
 62
     7
100
AcDbLine
 10
155.978899
 20
221.3216
 30
0.0
 11
156.151164
 21
221.40875
 31
0.0
  0
LINE
  5
118B
100
AcDbEntity
  8
10000_FRONT
370
    25
390
0
  6
CONTINUOUS
 62
     7
100
AcDbLine
 10
156.151164
 20
221.40875
 30
0.0
 11
156.401294
 21
221.6576
 31
0.0
  0
LINE
  5
118C
100
AcDbEntity
  8
10000_FRONT
370
    25
390
0
  6
CONTINUOUS
 62
     7
100
AcDbLine
 10
156.401294
 20
221.6576
 30
0.0
 11
156.4261
 21
221.6576
 31
0.0
  0
LINE
  5
118D
100
AcDbEntity
  8
10000_FRONT
370
    25
390
0
  6
CONTINUOUS
 62
     7
100
AcDbLine
 10
156.4261
 20
221.6576
 30
0.0
 11
156.4261
 21
219.8936
 31
0.0
  0
LINE
  5
118E
100
AcDbEntity
  8
10000_FRONT
370
    25
390
0
  6
CONTINUOUS
 62
     7
100
AcDbLine
 10
156.4261
 20
219.8936
 30
0.0
 11
156.3085
 21
219.8936
 31
0.0
  0
LINE
  5
118F
100
AcDbEntity
  8
10000_FRONT
370
    25
390
0
  6
CONTINUOUS
 62
     7
100
AcDbLine
 10
165.0085
 20
219.8936
 30
0.0
 11
165.0085
 21
221.429488
 31
0.0
  0
LINE
  5
1190
100
AcDbEntity
  8
10000_FRONT
370
    25
390
0
  6
CONTINUOUS
 62
     7
100
AcDbLine
 10
165.0085
 20
221.429488
 30
0.0
 11
164.874133
 21
221.294038
 31
0.0
  0
LINE
  5
1191
100
AcDbEntity
  8
10000_FRONT
370
    25
390
0
  6
CONTINUOUS
 62
     7
100
AcDbLine
 10
164.874133
 20
221.294038
 30
0.0
 11
164.678899
 21
221.1977
 31
0.0
  0
LINE
  5
1192
100
AcDbEntity
  8
10000_FRONT
370
    25
390
0
  6
CONTINUOUS
 62
     7
100
AcDbLine
 10
164.678899
 20
221.1977
 30
0.0
 11
164.678899
 21
221.3216
 31
0.0
  0
LINE
  5
1193
100
AcDbEntity
  8
10000_FRONT
370
    25
390
0
  6
CONTINUOUS
 62
     7
100
AcDbLine
 10
164.678899
 20
221.3216
 30
0.0
 11
164.851164
 21
221.40875
 31
0.0
  0
LINE
  5
1194
100
AcDbEntity
  8
10000_FRONT
370
    25
390
0
  6
CONTINUOUS
 62
     7
100
AcDbLine
 10
164.851164
 20
221.40875
 30
0.0
 11
165.101294
 21
221.6576
 31
0.0
  0
LINE
  5
1195
100
AcDbEntity
  8
10000_FRONT
370
    25
390
0
  6
CONTINUOUS
 62
     7
100
AcDbLine
 10
165.101294
 20
221.6576
 30
0.0
 11
165.1261
 21
221.6576
 31
0.0
  0
LINE
  5
1196
100
AcDbEntity
  8
10000_FRONT
370
    25
390
0
  6
CONTINUOUS
 62
     7
100
AcDbLine
 10
165.1261
 20
221.6576
 30
0.0
 11
165.1261
 21
219.8936
 31
0.0
  0
LINE
  5
1197
100
AcDbEntity
  8
10000_FRONT
370
    25
390
0
  6
CONTINUOUS
 62
     7
100
AcDbLine
 10
165.1261
 20
219.8936
 30
0.0
 11
165.0085
 21
219.8936
 31
0.0
  0
LINE
  5
1198
100
AcDbEntity
  8
10000_FRONT
370
    25
390
0
  6
CONTINUOUS
 62
     7
100
AcDbLine
 10
163.000719
 20
221.12315
 30
0.0
 11
162.937554
 21
221.252825
 31
0.0
  0
LINE
  5
1199
100
AcDbEntity
  8
10000_FRONT
370
    25
390
0
  6
CONTINUOUS
 62
     7
100
AcDbLine
 10
162.937554
 20
221.252825
 30
0.0
 11
162.937554
 21
221.3699
 31
0.0
  0
LINE
  5
119A
100
AcDbEntity
  8
10000_FRONT
370
    25
390
0
  6
CONTINUOUS
 62
     7
100
AcDbLine
 10
162.937554
 20
221.3699
 30
0.0
 11
162.989235
 21
221.475688
 31
0.0
  0
LINE
  5
119B
100
AcDbEntity
  8
10000_FRONT
370
    25
390
0
  6
CONTINUOUS
 62
     7
100
AcDbLine
 10
162.989235
 20
221.475688
 30
0.0
 11
163.182172
 21
221.54
 31
0.0
  0
LINE
  5
119C
100
AcDbEntity
  8
10000_FRONT
370
    25
390
0
  6
CONTINUOUS
 62
     7
100
AcDbLine
 10
163.182172
 20
221.54
 30
0.0
 11
163.478469
 21
221.54
 31
0.0
  0
LINE
  5
119D
100
AcDbEntity
  8
10000_FRONT
370
    25
390
0
  6
CONTINUOUS
 62
     7
100
AcDbLine
 10
163.478469
 20
221.54
 30
0.0
 11
163.671407
 21
221.475688
 31
0.0
  0
LINE
  5
119E
100
AcDbEntity
  8
10000_FRONT
370
    25
390
0
  6
CONTINUOUS
 62
     7
100
AcDbLine
 10
163.671407
 20
221.475688
 30
0.0
 11
163.723086
 21
221.3699
 31
0.0
  0
LINE
  5
119F
100
AcDbEntity
  8
10000_FRONT
370
    25
390
0
  6
CONTINUOUS
 62
     7
100
AcDbLine
 10
163.723086
 20
221.3699
 30
0.0
 11
163.723086
 21
221.252825
 31
0.0
  0
LINE
  5
11A0
100
AcDbEntity
  8
10000_FRONT
370
    25
390
0
  6
CONTINUOUS
 62
     7
100
AcDbLine
 10
163.723086
 20
221.252825
 30
0.0
 11
163.659922
 21
221.12315
 31
0.0
  0
LINE
  5
11A1
100
AcDbEntity
  8
10000_FRONT
370
    25
390
0
  6
CONTINUOUS
 62
     7
100
AcDbLine
 10
163.659922
 20
221.12315
 30
0.0
 11
163.601352
 21
221.064612
 31
0.0
  0
LINE
  5
11A2
100
AcDbEntity
  8
10000_FRONT
370
    25
390
0
  6
CONTINUOUS
 62
     7
100
AcDbLine
 10
163.601352
 20
221.064612
 30
0.0
 11
163.379704
 21
220.956463
 31
0.0
  0
LINE
  5
11A3
100
AcDbEntity
  8
10000_FRONT
370
    25
390
0
  6
CONTINUOUS
 62
     7
100
AcDbLine
 10
163.379704
 20
220.956463
 30
0.0
 11
163.280938
 21
220.956463
 31
0.0
  0
LINE
  5
11A4
100
AcDbEntity
  8
10000_FRONT
370
    25
390
0
  6
CONTINUOUS
 62
     7
100
AcDbLine
 10
163.280938
 20
220.956463
 30
0.0
 11
163.060438
 21
221.064612
 31
0.0
  0
LINE
  5
11A5
100
AcDbEntity
  8
10000_FRONT
370
    25
390
0
  6
CONTINUOUS
 62
     7
100
AcDbLine
 10
163.060438
 20
221.064612
 30
0.0
 11
163.000719
 21
221.12315
 31
0.0
  0
LINE
  5
11A6
100
AcDbEntity
  8
10000_FRONT
370
    25
390
0
  6
CONTINUOUS
 62
     7
100
AcDbLine
 10
162.8528
 20
220.263988
 30
0.0
 11
162.8528
 21
220.46375
 31
0.0
  0
LINE
  5
11A7
100
AcDbEntity
  8
10000_FRONT
370
    25
390
0
  6
CONTINUOUS
 62
     7
100
AcDbLine
 10
162.8528
 20
220.46375
 30
0.0
 11
162.917342
 21
220.592375
 31
0.0
  0
LINE
  5
11A8
100
AcDbEntity
  8
10000_FRONT
370
    25
390
0
  6
CONTINUOUS
 62
     7
100
AcDbLine
 10
162.917342
 20
220.592375
 30
0.0
 11
163.059289
 21
220.7336
 31
0.0
  0
LINE
  5
11A9
100
AcDbEntity
  8
10000_FRONT
370
    25
390
0
  6
CONTINUOUS
 62
     7
100
AcDbLine
 10
163.059289
 20
220.7336
 30
0.0
 11
163.294719
 21
220.849625
 31
0.0
  0
LINE
  5
11AA
100
AcDbEntity
  8
10000_FRONT
370
    25
390
0
  6
CONTINUOUS
 62
     7
100
AcDbLine
 10
163.294719
 20
220.849625
 30
0.0
 11
163.366382
 21
220.849625
 31
0.0
  0
LINE
  5
11AB
100
AcDbEntity
  8
10000_FRONT
370
    25
390
0
  6
CONTINUOUS
 62
     7
100
AcDbLine
 10
163.366382
 20
220.849625
 30
0.0
 11
163.60296
 21
220.7336
 31
0.0
  0
LINE
  5
11AC
100
AcDbEntity
  8
10000_FRONT
370
    25
390
0
  6
CONTINUOUS
 62
     7
100
AcDbLine
 10
163.60296
 20
220.7336
 30
0.0
 11
163.744906
 21
220.592375
 31
0.0
  0
LINE
  5
11AD
100
AcDbEntity
  8
10000_FRONT
370
    25
390
0
  6
CONTINUOUS
 62
     7
100
AcDbLine
 10
163.744906
 20
220.592375
 30
0.0
 11
163.8083
 21
220.46375
 31
0.0
  0
LINE
  5
11AE
100
AcDbEntity
  8
10000_FRONT
370
    25
390
0
  6
CONTINUOUS
 62
     7
100
AcDbLine
 10
163.8083
 20
220.46375
 30
0.0
 11
163.8083
 21
220.263988
 31
0.0
  0
LINE
  5
11AF
100
AcDbEntity
  8
10000_FRONT
370
    25
390
0
  6
CONTINUOUS
 62
     7
100
AcDbLine
 10
163.8083
 20
220.263988
 30
0.0
 11
163.744906
 21
220.13405
 31
0.0
  0
LINE
  5
11B0
100
AcDbEntity
  8
10000_FRONT
370
    25
390
0
  6
CONTINUOUS
 62
     7
100
AcDbLine
 10
163.744906
 20
220.13405
 30
0.0
 11
163.689551
 21
220.082337
 31
0.0
  0
LINE
  5
11B1
100
AcDbEntity
  8
10000_FRONT
370
    25
390
0
  6
CONTINUOUS
 62
     7
100
AcDbLine
 10
163.689551
 20
220.082337
 30
0.0
 11
163.479388
 21
220.0112
 31
0.0
  0
LINE
  5
11B2
100
AcDbEntity
  8
10000_FRONT
370
    25
390
0
  6
CONTINUOUS
 62
     7
100
AcDbLine
 10
163.479388
 20
220.0112
 30
0.0
 11
163.181713
 21
220.0112
 31
0.0
  0
LINE
  5
11B3
100
AcDbEntity
  8
10000_FRONT
370
    25
390
0
  6
CONTINUOUS
 62
     7
100
AcDbLine
 10
163.181713
 20
220.0112
 30
0.0
 11
162.971548
 21
220.082337
 31
0.0
  0
LINE
  5
11B4
100
AcDbEntity
  8
10000_FRONT
370
    25
390
0
  6
CONTINUOUS
 62
     7
100
AcDbLine
 10
162.971548
 20
220.082337
 30
0.0
 11
162.917342
 21
220.13405
 31
0.0
  0
LINE
  5
11B5
100
AcDbEntity
  8
10000_FRONT
370
    25
390
0
  6
CONTINUOUS
 62
     7
100
AcDbLine
 10
162.917342
 20
220.13405
 30
0.0
 11
162.8528
 21
220.263988
 31
0.0
  0
LINE
  5
11B6
100
AcDbEntity
  8
10000_FRONT
370
    25
390
0
  6
CONTINUOUS
 62
     7
100
AcDbLine
 10
162.820185
 20
220.065537
 30
0.0
 11
162.7352
 21
220.236425
 31
0.0
  0
LINE
  5
11B7
100
AcDbEntity
  8
10000_FRONT
370
    25
390
0
  6
CONTINUOUS
 62
     7
100
AcDbLine
 10
162.7352
 20
220.236425
 30
0.0
 11
162.7352
 21
220.492363
 31
0.0
  0
LINE
  5
11B8
100
AcDbEntity
  8
10000_FRONT
370
    25
390
0
  6
CONTINUOUS
 62
     7
100
AcDbLine
 10
162.7352
 20
220.492363
 30
0.0
 11
162.820185
 21
220.6643
 31
0.0
  0
LINE
  5
11B9
100
AcDbEntity
  8
10000_FRONT
370
    25
390
0
  6
CONTINUOUS
 62
     7
100
AcDbLine
 10
162.820185
 20
220.6643
 30
0.0
 11
162.989235
 21
220.832825
 31
0.0
  0
LINE
  5
11BA
100
AcDbEntity
  8
10000_FRONT
370
    25
390
0
  6
CONTINUOUS
 62
     7
100
AcDbLine
 10
162.989235
 20
220.832825
 30
0.0
 11
163.123602
 21
220.8995
 31
0.0
  0
LINE
  5
11BB
100
AcDbEntity
  8
10000_FRONT
370
    25
390
0
  6
CONTINUOUS
 62
     7
100
AcDbLine
 10
163.123602
 20
220.8995
 30
0.0
 11
162.989235
 21
220.964863
 31
0.0
  0
LINE
  5
11BC
100
AcDbEntity
  8
10000_FRONT
370
    25
390
0
  6
CONTINUOUS
 62
     7
100
AcDbLine
 10
162.989235
 20
220.964863
 30
0.0
 11
162.901953
 21
221.052012
 31
0.0
  0
LINE
  5
11BD
100
AcDbEntity
  8
10000_FRONT
370
    25
390
0
  6
CONTINUOUS
 62
     7
100
AcDbLine
 10
162.901953
 20
221.052012
 30
0.0
 11
162.817888
 21
221.2229
 31
0.0
  0
LINE
  5
11BE
100
AcDbEntity
  8
10000_FRONT
370
    25
390
0
  6
CONTINUOUS
 62
     7
100
AcDbLine
 10
162.817888
 20
221.2229
 30
0.0
 11
162.817888
 21
221.3972
 31
0.0
  0
LINE
  5
11BF
100
AcDbEntity
  8
10000_FRONT
370
    25
390
0
  6
CONTINUOUS
 62
     7
100
AcDbLine
 10
162.817888
 20
221.3972
 30
0.0
 11
162.90425
 21
221.572813
 31
0.0
  0
LINE
  5
11C0
100
AcDbEntity
  8
10000_FRONT
370
    25
390
0
  6
CONTINUOUS
 62
     7
100
AcDbLine
 10
162.90425
 20
221.572813
 30
0.0
 11
163.163796
 21
221.6576
 31
0.0
  0
LINE
  5
11C1
100
AcDbEntity
  8
10000_FRONT
370
    25
390
0
  6
CONTINUOUS
 62
     7
100
AcDbLine
 10
163.163796
 20
221.6576
 30
0.0
 11
163.498451
 21
221.6576
 31
0.0
  0
LINE
  5
11C2
100
AcDbEntity
  8
10000_FRONT
370
    25
390
0
  6
CONTINUOUS
 62
     7
100
AcDbLine
 10
163.498451
 20
221.6576
 30
0.0
 11
163.75685
 21
221.572813
 31
0.0
  0
LINE
  5
11C3
100
AcDbEntity
  8
10000_FRONT
370
    25
390
0
  6
CONTINUOUS
 62
     7
100
AcDbLine
 10
163.75685
 20
221.572813
 30
0.0
 11
163.844361
 21
221.3972
 31
0.0
  0
LINE
  5
11C4
100
AcDbEntity
  8
10000_FRONT
370
    25
390
0
  6
CONTINUOUS
 62
     7
100
AcDbLine
 10
163.844361
 20
221.3972
 30
0.0
 11
163.844361
 21
221.2229
 31
0.0
  0
LINE
  5
11C5
100
AcDbEntity
  8
10000_FRONT
370
    25
390
0
  6
CONTINUOUS
 62
     7
100
AcDbLine
 10
163.844361
 20
221.2229
 30
0.0
 11
163.759147
 21
221.052012
 31
0.0
  0
LINE
  5
11C6
100
AcDbEntity
  8
10000_FRONT
370
    25
390
0
  6
CONTINUOUS
 62
     7
100
AcDbLine
 10
163.759147
 20
221.052012
 30
0.0
 11
163.671865
 21
220.964863
 31
0.0
  0
LINE
  5
11C7
100
AcDbEntity
  8
10000_FRONT
370
    25
390
0
  6
CONTINUOUS
 62
     7
100
AcDbLine
 10
163.671865
 20
220.964863
 30
0.0
 11
163.537498
 21
220.8995
 31
0.0
  0
LINE
  5
11C8
100
AcDbEntity
  8
10000_FRONT
370
    25
390
0
  6
CONTINUOUS
 62
     7
100
AcDbLine
 10
163.537498
 20
220.8995
 30
0.0
 11
163.671865
 21
220.832825
 31
0.0
  0
LINE
  5
11C9
100
AcDbEntity
  8
10000_FRONT
370
    25
390
0
  6
CONTINUOUS
 62
     7
100
AcDbLine
 10
163.671865
 20
220.832825
 30
0.0
 11
163.842064
 21
220.6643
 31
0.0
  0
LINE
  5
11CA
100
AcDbEntity
  8
10000_FRONT
370
    25
390
0
  6
CONTINUOUS
 62
     7
100
AcDbLine
 10
163.842064
 20
220.6643
 30
0.0
 11
163.9259
 21
220.492363
 31
0.0
  0
LINE
  5
11CB
100
AcDbEntity
  8
10000_FRONT
370
    25
390
0
  6
CONTINUOUS
 62
     7
100
AcDbLine
 10
163.9259
 20
220.492363
 30
0.0
 11
163.9259
 21
220.236425
 31
0.0
  0
LINE
  5
11CC
100
AcDbEntity
  8
10000_FRONT
370
    25
390
0
  6
CONTINUOUS
 62
     7
100
AcDbLine
 10
163.9259
 20
220.236425
 30
0.0
 11
163.842064
 21
220.065537
 31
0.0
  0
LINE
  5
11CD
100
AcDbEntity
  8
10000_FRONT
370
    25
390
0
  6
CONTINUOUS
 62
     7
100
AcDbLine
 10
163.842064
 20
220.065537
 30
0.0
 11
163.752256
 21
219.978388
 31
0.0
  0
LINE
  5
11CE
100
AcDbEntity
  8
10000_FRONT
370
    25
390
0
  6
CONTINUOUS
 62
     7
100
AcDbLine
 10
163.752256
 20
219.978388
 30
0.0
 11
163.498451
 21
219.8936
 31
0.0
  0
LINE
  5
11CF
100
AcDbEntity
  8
10000_FRONT
370
    25
390
0
  6
CONTINUOUS
 62
     7
100
AcDbLine
 10
163.498451
 20
219.8936
 30
0.0
 11
163.163796
 21
219.8936
 31
0.0
  0
LINE
  5
11D0
100
AcDbEntity
  8
10000_FRONT
370
    25
390
0
  6
CONTINUOUS
 62
     7
100
AcDbLine
 10
163.163796
 20
219.8936
 30
0.0
 11
162.909992
 21
219.978388
 31
0.0
  0
LINE
  5
11D1
100
AcDbEntity
  8
10000_FRONT
370
    25
390
0
  6
CONTINUOUS
 62
     7
100
AcDbLine
 10
162.909992
 20
219.978388
 30
0.0
 11
162.820185
 21
220.065537
 31
0.0
  0
LINE
  5
11D2
100
AcDbEntity
  8
10000_FRONT
370
    25
390
0
  6
CONTINUOUS
 62
     7
100
AcDbLine
 10
154.27086
 20
219.8936
 30
0.0
 11
155.05639
 21
221.54
 31
0.0
  0
LINE
  5
11D3
100
AcDbEntity
  8
10000_FRONT
370
    25
390
0
  6
CONTINUOUS
 62
     7
100
AcDbLine
 10
155.05639
 20
221.54
 30
0.0
 11
154.03543
 21
221.54
 31
0.0
  0
LINE
  5
11D4
100
AcDbEntity
  8
10000_FRONT
370
    25
390
0
  6
CONTINUOUS
 62
     7
100
AcDbLine
 10
154.03543
 20
221.54
 30
0.0
 11
154.03543
 21
221.6576
 31
0.0
  0
LINE
  5
11D5
100
AcDbEntity
  8
10000_FRONT
370
    25
390
0
  6
CONTINUOUS
 62
     7
100
AcDbLine
 10
154.03543
 20
221.6576
 30
0.0
 11
155.251625
 21
221.6576
 31
0.0
  0
LINE
  5
11D6
100
AcDbEntity
  8
10000_FRONT
370
    25
390
0
  6
CONTINUOUS
 62
     7
100
AcDbLine
 10
155.251625
 20
221.6576
 30
0.0
 11
155.222914
 21
221.626625
 31
0.0
  0
LINE
  5
11D7
100
AcDbEntity
  8
10000_FRONT
370
    25
390
0
  6
CONTINUOUS
 62
     7
100
AcDbLine
 10
155.222914
 20
221.626625
 30
0.0
 11
154.39489
 21
219.8936
 31
0.0
  0
LINE
  5
11D8
100
AcDbEntity
  8
10000_FRONT
370
    25
390
0
  6
CONTINUOUS
 62
     7
100
AcDbLine
 10
154.39489
 20
219.8936
 30
0.0
 11
154.27086
 21
219.8936
 31
0.0
  0
LINE
  5
11D9
100
AcDbEntity
  8
10000_FRONT
370
    25
390
0
  6
CONTINUOUS
 62
     7
100
AcDbLine
 10
146.000719
 20
220.232488
 30
0.0
 11
145.937555
 21
220.486325
 31
0.0
  0
LINE
  5
11DA
100
AcDbEntity
  8
10000_FRONT
370
    25
390
0
  6
CONTINUOUS
 62
     7
100
AcDbLine
 10
145.937555
 20
220.486325
 30
0.0
 11
146.076515
 21
220.76405
 31
0.0
  0
LINE
  5
11DB
100
AcDbEntity
  8
10000_FRONT
370
    25
390
0
  6
CONTINUOUS
 62
     7
100
AcDbLine
 10
146.076515
 20
220.76405
 30
0.0
 11
146.175282
 21
220.827312
 31
0.0
  0
LINE
  5
11DC
100
AcDbEntity
  8
10000_FRONT
370
    25
390
0
  6
CONTINUOUS
 62
     7
100
AcDbLine
 10
146.175282
 20
220.827312
 30
0.0
 11
146.332617
 21
220.881388
 31
0.0
  0
LINE
  5
11DD
100
AcDbEntity
  8
10000_FRONT
370
    25
390
0
  6
CONTINUOUS
 62
     7
100
AcDbLine
 10
146.332617
 20
220.881388
 30
0.0
 11
146.410711
 21
220.881388
 31
0.0
  0
LINE
  5
11DE
100
AcDbEntity
  8
10000_FRONT
370
    25
390
0
  6
CONTINUOUS
 62
     7
100
AcDbLine
 10
146.410711
 20
220.881388
 30
0.0
 11
146.568047
 21
220.827312
 31
0.0
  0
LINE
  5
11DF
100
AcDbEntity
  8
10000_FRONT
370
    25
390
0
  6
CONTINUOUS
 62
     7
100
AcDbLine
 10
146.568047
 20
220.827312
 30
0.0
 11
146.666813
 21
220.76405
 31
0.0
  0
LINE
  5
11E0
100
AcDbEntity
  8
10000_FRONT
370
    25
390
0
  6
CONTINUOUS
 62
     7
100
AcDbLine
 10
146.666813
 20
220.76405
 30
0.0
 11
146.805773
 21
220.483963
 31
0.0
  0
LINE
  5
11E1
100
AcDbEntity
  8
10000_FRONT
370
    25
390
0
  6
CONTINUOUS
 62
     7
100
AcDbLine
 10
146.805773
 20
220.483963
 30
0.0
 11
146.805773
 21
220.411512
 31
0.0
  0
LINE
  5
11E2
100
AcDbEntity
  8
10000_FRONT
370
    25
390
0
  6
CONTINUOUS
 62
     7
100
AcDbLine
 10
146.805773
 20
220.411512
 30
0.0
 11
146.666813
 21
220.131425
 31
0.0
  0
LINE
  5
11E3
100
AcDbEntity
  8
10000_FRONT
370
    25
390
0
  6
CONTINUOUS
 62
     7
100
AcDbLine
 10
146.666813
 20
220.131425
 30
0.0
 11
146.568047
 21
220.068163
 31
0.0
  0
LINE
  5
11E4
100
AcDbEntity
  8
10000_FRONT
370
    25
390
0
  6
CONTINUOUS
 62
     7
100
AcDbLine
 10
146.568047
 20
220.068163
 30
0.0
 11
146.410711
 21
220.013038
 31
0.0
  0
LINE
  5
11E5
100
AcDbEntity
  8
10000_FRONT
370
    25
390
0
  6
CONTINUOUS
 62
     7
100
AcDbLine
 10
146.410711
 20
220.013038
 30
0.0
 11
146.332617
 21
220.013038
 31
0.0
  0
LINE
  5
11E6
100
AcDbEntity
  8
10000_FRONT
370
    25
390
0
  6
CONTINUOUS
 62
     7
100
AcDbLine
 10
146.332617
 20
220.013038
 30
0.0
 11
146.094891
 21
220.093363
 31
0.0
  0
LINE
  5
11E7
100
AcDbEntity
  8
10000_FRONT
370
    25
390
0
  6
CONTINUOUS
 62
     7
100
AcDbLine
 10
146.094891
 20
220.093363
 30
0.0
 11
146.000719
 21
220.232488
 31
0.0
  0
LINE
  5
11E8
100
AcDbEntity
  8
10000_FRONT
370
    25
390
0
  6
CONTINUOUS
 62
     7
100
AcDbLine
 10
145.901953
 20
220.149275
 30
0.0
 11
145.818117
 21
220.485538
 31
0.0
  0
LINE
  5
11E9
100
AcDbEntity
  8
10000_FRONT
370
    25
390
0
  6
CONTINUOUS
 62
     7
100
AcDbLine
 10
145.818117
 20
220.485538
 30
0.0
 11
145.818117
 21
220.901863
 31
0.0
  0
LINE
  5
11EA
100
AcDbEntity
  8
10000_FRONT
370
    25
390
0
  6
CONTINUOUS
 62
     7
100
AcDbLine
 10
145.818117
 20
220.901863
 30
0.0
 11
145.899656
 21
221.316875
 31
0.0
  0
LINE
  5
11EB
100
AcDbEntity
  8
10000_FRONT
370
    25
390
0
  6
CONTINUOUS
 62
     7
100
AcDbLine
 10
145.899656
 20
221.316875
 30
0.0
 11
146.071922
 21
221.572813
 31
0.0
  0
LINE
  5
11EC
100
AcDbEntity
  8
10000_FRONT
370
    25
390
0
  6
CONTINUOUS
 62
     7
100
AcDbLine
 10
146.071922
 20
221.572813
 30
0.0
 11
146.328023
 21
221.6576
 31
0.0
  0
LINE
  5
11ED
100
AcDbEntity
  8
10000_FRONT
370
    25
390
0
  6
CONTINUOUS
 62
     7
100
AcDbLine
 10
146.328023
 20
221.6576
 30
0.0
 11
146.497992
 21
221.6576
 31
0.0
  0
LINE
  5
11EE
100
AcDbEntity
  8
10000_FRONT
370
    25
390
0
  6
CONTINUOUS
 62
     7
100
AcDbLine
 10
146.497992
 20
221.6576
 30
0.0
 11
146.756391
 21
221.572813
 31
0.0
  0
LINE
  5
11EF
100
AcDbEntity
  8
10000_FRONT
370
    25
390
0
  6
CONTINUOUS
 62
     7
100
AcDbLine
 10
146.756391
 20
221.572813
 30
0.0
 11
146.855156
 21
221.37305
 31
0.0
  0
LINE
  5
11F0
100
AcDbEntity
  8
10000_FRONT
370
    25
390
0
  6
CONTINUOUS
 62
     7
100
AcDbLine
 10
146.855156
 20
221.37305
 30
0.0
 11
146.729977
 21
221.37305
 31
0.0
  0
LINE
  5
11F1
100
AcDbEntity
  8
10000_FRONT
370
    25
390
0
  6
CONTINUOUS
 62
     7
100
AcDbLine
 10
146.729977
 20
221.37305
 30
0.0
 11
146.678297
 21
221.474113
 31
0.0
  0
LINE
  5
11F2
100
AcDbEntity
  8
10000_FRONT
370
    25
390
0
  6
CONTINUOUS
 62
     7
100
AcDbLine
 10
146.678297
 20
221.474113
 30
0.0
 11
146.49225
 21
221.538425
 31
0.0
  0
LINE
  5
11F3
100
AcDbEntity
  8
10000_FRONT
370
    25
390
0
  6
CONTINUOUS
 62
     7
100
AcDbLine
 10
146.49225
 20
221.538425
 30
0.0
 11
146.332617
 21
221.538425
 31
0.0
  0
LINE
  5
11F4
100
AcDbEntity
  8
10000_FRONT
370
    25
390
0
  6
CONTINUOUS
 62
     7
100
AcDbLine
 10
146.332617
 20
221.538425
 30
0.0
 11
146.130492
 21
221.469388
 31
0.0
  0
LINE
  5
11F5
100
AcDbEntity
  8
10000_FRONT
370
    25
390
0
  6
CONTINUOUS
 62
     7
100
AcDbLine
 10
146.130492
 20
221.469388
 30
0.0
 11
146.020242
 21
221.303225
 31
0.0
  0
LINE
  5
11F6
100
AcDbEntity
  8
10000_FRONT
370
    25
390
0
  6
CONTINUOUS
 62
     7
100
AcDbLine
 10
146.020242
 20
221.303225
 30
0.0
 11
145.937555
 21
220.896088
 31
0.0
  0
LINE
  5
11F7
100
AcDbEntity
  8
10000_FRONT
370
    25
390
0
  6
CONTINUOUS
 62
     7
100
AcDbLine
 10
145.937555
 20
220.896088
 30
0.0
 11
145.937555
 21
220.779013
 31
0.0
  0
LINE
  5
11F8
100
AcDbEntity
  8
10000_FRONT
370
    25
390
0
  6
CONTINUOUS
 62
     7
100
AcDbLine
 10
145.937555
 20
220.779013
 30
0.0
 11
146.074219
 21
220.915513
 31
0.0
  0
LINE
  5
11F9
100
AcDbEntity
  8
10000_FRONT
370
    25
390
0
  6
CONTINUOUS
 62
     7
100
AcDbLine
 10
146.074219
 20
220.915513
 30
0.0
 11
146.328023
 21
221.0003
 31
0.0
  0
LINE
  5
11FA
100
AcDbEntity
  8
10000_FRONT
370
    25
390
0
  6
CONTINUOUS
 62
     7
100
AcDbLine
 10
146.328023
 20
221.0003
 30
0.0
 11
146.415305
 21
221.0003
 31
0.0
  0
LINE
  5
11FB
100
AcDbEntity
  8
10000_FRONT
370
    25
390
0
  6
CONTINUOUS
 62
     7
100
AcDbLine
 10
146.415305
 20
221.0003
 30
0.0
 11
146.66911
 21
220.915513
 31
0.0
  0
LINE
  5
11FC
100
AcDbEntity
  8
10000_FRONT
370
    25
390
0
  6
CONTINUOUS
 62
     7
100
AcDbLine
 10
146.66911
 20
220.915513
 30
0.0
 11
146.841375
 21
220.743575
 31
0.0
  0
LINE
  5
11FD
100
AcDbEntity
  8
10000_FRONT
370
    25
390
0
  6
CONTINUOUS
 62
     7
100
AcDbLine
 10
146.841375
 20
220.743575
 30
0.0
 11
146.925211
 21
220.49
 31
0.0
  0
LINE
  5
11FE
100
AcDbEntity
  8
10000_FRONT
370
    25
390
0
  6
CONTINUOUS
 62
     7
100
AcDbLine
 10
146.925211
 20
220.49
 30
0.0
 11
146.925211
 21
220.40285
 31
0.0
  0
LINE
  5
11FF
100
AcDbEntity
  8
10000_FRONT
370
    25
390
0
  6
CONTINUOUS
 62
     7
100
AcDbLine
 10
146.925211
 20
220.40285
 30
0.0
 11
146.841375
 21
220.149275
 31
0.0
  0
LINE
  5
1200
100
AcDbEntity
  8
10000_FRONT
370
    25
390
0
  6
CONTINUOUS
 62
     7
100
AcDbLine
 10
146.841375
 20
220.149275
 30
0.0
 11
146.66911
 21
219.978388
 31
0.0
  0
LINE
  5
1201
100
AcDbEntity
  8
10000_FRONT
370
    25
390
0
  6
CONTINUOUS
 62
     7
100
AcDbLine
 10
146.66911
 20
219.978388
 30
0.0
 11
146.415305
 21
219.8936
 31
0.0
  0
LINE
  5
1202
100
AcDbEntity
  8
10000_FRONT
370
    25
390
0
  6
CONTINUOUS
 62
     7
100
AcDbLine
 10
146.415305
 20
219.8936
 30
0.0
 11
146.328023
 21
219.8936
 31
0.0
  0
LINE
  5
1203
100
AcDbEntity
  8
10000_FRONT
370
    25
390
0
  6
CONTINUOUS
 62
     7
100
AcDbLine
 10
146.328023
 20
219.8936
 30
0.0
 11
146.074219
 21
219.978388
 31
0.0
  0
LINE
  5
1204
100
AcDbEntity
  8
10000_FRONT
370
    25
390
0
  6
CONTINUOUS
 62
     7
100
AcDbLine
 10
146.074219
 20
219.978388
 30
0.0
 11
145.901953
 21
220.149275
 31
0.0
  0
LINE
  5
1205
100
AcDbEntity
  8
10000_FRONT
370
    25
390
0
  6
CONTINUOUS
 62
     7
100
AcDbLine
 10
137.020413
 20
220.063963
 30
0.0
 11
136.923945
 21
220.258213
 31
0.0
  0
LINE
  5
1206
100
AcDbEntity
  8
10000_FRONT
370
    25
390
0
  6
CONTINUOUS
 62
     7
100
AcDbLine
 10
136.923945
 20
220.258213
 30
0.0
 11
137.047976
 21
220.258213
 31
0.0
  0
LINE
  5
1207
100
AcDbEntity
  8
10000_FRONT
370
    25
390
0
  6
CONTINUOUS
 62
     7
100
AcDbLine
 10
137.047976
 20
220.258213
 30
0.0
 11
137.112288
 21
220.129588
 31
0.0
  0
LINE
  5
1208
100
AcDbEntity
  8
10000_FRONT
370
    25
390
0
  6
CONTINUOUS
 62
     7
100
AcDbLine
 10
137.112288
 20
220.129588
 30
0.0
 11
137.211055
 21
220.066325
 31
0.0
  0
LINE
  5
1209
100
AcDbEntity
  8
10000_FRONT
370
    25
390
0
  6
CONTINUOUS
 62
     7
100
AcDbLine
 10
137.211055
 20
220.066325
 30
0.0
 11
137.36839
 21
220.0112
 31
0.0
  0
LINE
  5
120A
100
AcDbEntity
  8
10000_FRONT
370
    25
390
0
  6
CONTINUOUS
 62
     7
100
AcDbLine
 10
137.36839
 20
220.0112
 30
0.0
 11
137.610711
 21
220.0112
 31
0.0
  0
LINE
  5
120B
100
AcDbEntity
  8
10000_FRONT
370
    25
390
0
  6
CONTINUOUS
 62
     7
100
AcDbLine
 10
137.610711
 20
220.0112
 30
0.0
 11
137.761156
 21
220.060813
 31
0.0
  0
LINE
  5
120C
100
AcDbEntity
  8
10000_FRONT
370
    25
390
0
  6
CONTINUOUS
 62
     7
100
AcDbLine
 10
137.761156
 20
220.060813
 30
0.0
 11
137.887485
 21
220.151113
 31
0.0
  0
LINE
  5
120D
100
AcDbEntity
  8
10000_FRONT
370
    25
390
0
  6
CONTINUOUS
 62
     7
100
AcDbLine
 10
137.887485
 20
220.151113
 30
0.0
 11
137.93457
 21
220.222775
 31
0.0
  0
LINE
  5
120E
100
AcDbEntity
  8
10000_FRONT
370
    25
390
0
  6
CONTINUOUS
 62
     7
100
AcDbLine
 10
137.93457
 20
220.222775
 30
0.0
 11
138.005774
 21
220.4102
 31
0.0
  0
LINE
  5
120F
100
AcDbEntity
  8
10000_FRONT
370
    25
390
0
  6
CONTINUOUS
 62
     7
100
AcDbLine
 10
138.005774
 20
220.4102
 30
0.0
 11
138.005774
 21
220.57085
 31
0.0
  0
LINE
  5
1210
100
AcDbEntity
  8
10000_FRONT
370
    25
390
0
  6
CONTINUOUS
 62
     7
100
AcDbLine
 10
138.005774
 20
220.57085
 30
0.0
 11
137.951797
 21
220.7294
 31
0.0
  0
LINE
  5
1211
100
AcDbEntity
  8
10000_FRONT
370
    25
390
0
  6
CONTINUOUS
 62
     7
100
AcDbLine
 10
137.951797
 20
220.7294
 30
0.0
 11
137.878297
 21
220.840438
 31
0.0
  0
LINE
  5
1212
100
AcDbEntity
  8
10000_FRONT
370
    25
390
0
  6
CONTINUOUS
 62
     7
100
AcDbLine
 10
137.878297
 20
220.840438
 30
0.0
 11
137.768046
 21
220.914463
 31
0.0
  0
LINE
  5
1213
100
AcDbEntity
  8
10000_FRONT
370
    25
390
0
  6
CONTINUOUS
 62
     7
100
AcDbLine
 10
137.768046
 20
220.914463
 30
0.0
 11
137.610711
 21
220.9688
 31
0.0
  0
LINE
  5
1214
100
AcDbEntity
  8
10000_FRONT
370
    25
390
0
  6
CONTINUOUS
 62
     7
100
AcDbLine
 10
137.610711
 20
220.9688
 30
0.0
 11
137.288
 21
220.9688
 31
0.0
  0
LINE
  5
1215
100
AcDbEntity
  8
10000_FRONT
370
    25
390
0
  6
CONTINUOUS
 62
     7
100
AcDbLine
 10
137.288
 20
220.9688
 30
0.0
 11
137.123774
 21
220.886113
 31
0.0
  0
LINE
  5
1216
100
AcDbEntity
  8
10000_FRONT
370
    25
390
0
  6
CONTINUOUS
 62
     7
100
AcDbLine
 10
137.123774
 20
220.886113
 30
0.0
 11
137.015821
 21
220.886113
 31
0.0
  0
LINE
  5
1217
100
AcDbEntity
  8
10000_FRONT
370
    25
390
0
  6
CONTINUOUS
 62
     7
100
AcDbLine
 10
137.015821
 20
220.886113
 30
0.0
 11
137.101954
 21
221.6576
 31
0.0
  0
LINE
  5
1218
100
AcDbEntity
  8
10000_FRONT
370
    25
390
0
  6
CONTINUOUS
 62
     7
100
AcDbLine
 10
137.101954
 20
221.6576
 30
0.0
 11
137.960984
 21
221.6576
 31
0.0
  0
LINE
  5
1219
100
AcDbEntity
  8
10000_FRONT
370
    25
390
0
  6
CONTINUOUS
 62
     7
100
AcDbLine
 10
137.960984
 20
221.6576
 30
0.0
 11
137.960984
 21
221.54
 31
0.0
  0
LINE
  5
121A
100
AcDbEntity
  8
10000_FRONT
370
    25
390
0
  6
CONTINUOUS
 62
     7
100
AcDbLine
 10
137.960984
 20
221.54
 30
0.0
 11
137.217945
 21
221.54
 31
0.0
  0
LINE
  5
121B
100
AcDbEntity
  8
10000_FRONT
370
    25
390
0
  6
CONTINUOUS
 62
     7
100
AcDbLine
 10
137.217945
 20
221.54
 30
0.0
 11
137.142148
 21
221.01395
 31
0.0
  0
LINE
  5
121C
100
AcDbEntity
  8
10000_FRONT
370
    25
390
0
  6
CONTINUOUS
 62
     7
100
AcDbLine
 10
137.142148
 20
221.01395
 30
0.0
 11
137.363797
 21
221.0864
 31
0.0
  0
LINE
  5
121D
100
AcDbEntity
  8
10000_FRONT
370
    25
390
0
  6
CONTINUOUS
 62
     7
100
AcDbLine
 10
137.363797
 20
221.0864
 30
0.0
 11
137.615305
 21
221.0864
 31
0.0
  0
LINE
  5
121E
100
AcDbEntity
  8
10000_FRONT
370
    25
390
0
  6
CONTINUOUS
 62
     7
100
AcDbLine
 10
137.615305
 20
221.0864
 30
0.0
 11
137.869109
 21
221.0024
 31
0.0
  0
LINE
  5
121F
100
AcDbEntity
  8
10000_FRONT
370
    25
390
0
  6
CONTINUOUS
 62
     7
100
AcDbLine
 10
137.869109
 20
221.0024
 30
0.0
 11
138.041375
 21
220.829675
 31
0.0
  0
LINE
  5
1220
100
AcDbEntity
  8
10000_FRONT
370
    25
390
0
  6
CONTINUOUS
 62
     7
100
AcDbLine
 10
138.041375
 20
220.829675
 30
0.0
 11
138.125211
 21
220.575313
 31
0.0
  0
LINE
  5
1221
100
AcDbEntity
  8
10000_FRONT
370
    25
390
0
  6
CONTINUOUS
 62
     7
100
AcDbLine
 10
138.125211
 20
220.575313
 30
0.0
 11
138.125211
 21
220.404688
 31
0.0
  0
LINE
  5
1222
100
AcDbEntity
  8
10000_FRONT
370
    25
390
0
  6
CONTINUOUS
 62
     7
100
AcDbLine
 10
138.125211
 20
220.404688
 30
0.0
 11
138.041375
 21
220.150325
 31
0.0
  0
LINE
  5
1223
100
AcDbEntity
  8
10000_FRONT
370
    25
390
0
  6
CONTINUOUS
 62
     7
100
AcDbLine
 10
138.041375
 20
220.150325
 30
0.0
 11
137.869109
 21
219.978912
 31
0.0
  0
LINE
  5
1224
100
AcDbEntity
  8
10000_FRONT
370
    25
390
0
  6
CONTINUOUS
 62
     7
100
AcDbLine
 10
137.869109
 20
219.978912
 30
0.0
 11
137.615305
 21
219.8936
 31
0.0
  0
LINE
  5
1225
100
AcDbEntity
  8
10000_FRONT
370
    25
390
0
  6
CONTINUOUS
 62
     7
100
AcDbLine
 10
137.615305
 20
219.8936
 30
0.0
 11
137.363797
 21
219.8936
 31
0.0
  0
LINE
  5
1226
100
AcDbEntity
  8
10000_FRONT
370
    25
390
0
  6
CONTINUOUS
 62
     7
100
AcDbLine
 10
137.363797
 20
219.8936
 30
0.0
 11
137.109992
 21
219.977338
 31
0.0
  0
LINE
  5
1227
100
AcDbEntity
  8
10000_FRONT
370
    25
390
0
  6
CONTINUOUS
 62
     7
100
AcDbLine
 10
137.109992
 20
219.977338
 30
0.0
 11
137.020413
 21
220.063963
 31
0.0
  0
LINE
  5
1228
100
AcDbEntity
  8
10000_FRONT
370
    25
390
0
  6
CONTINUOUS
 62
     7
100
AcDbLine
 10
138.766534
 20
194.830036
 30
0.0
 11
138.671941
 21
195.027874
 31
0.0
  0
LINE
  5
1229
100
AcDbEntity
  8
10000_FRONT
370
    25
390
0
  6
CONTINUOUS
 62
     7
100
AcDbLine
 10
138.671941
 20
195.027874
 30
0.0
 11
138.5744
 21
195.320957
 31
0.0
  0
LINE
  5
122A
100
AcDbEntity
  8
10000_FRONT
370
    25
390
0
  6
CONTINUOUS
 62
     7
100
AcDbLine
 10
138.5744
 20
195.320957
 30
0.0
 11
138.5744
 21
195.805443
 31
0.0
  0
LINE
  5
122B
100
AcDbEntity
  8
10000_FRONT
370
    25
390
0
  6
CONTINUOUS
 62
     7
100
AcDbLine
 10
138.5744
 20
195.805443
 30
0.0
 11
138.671941
 21
196.098526
 31
0.0
  0
LINE
  5
122C
100
AcDbEntity
  8
10000_FRONT
370
    25
390
0
  6
CONTINUOUS
 62
     7
100
AcDbLine
 10
138.671941
 20
196.098526
 30
0.0
 11
138.766534
 21
196.296364
 31
0.0
  0
LINE
  5
122D
100
AcDbEntity
  8
10000_FRONT
370
    25
390
0
  6
CONTINUOUS
 62
     7
100
AcDbLine
 10
138.766534
 20
196.296364
 30
0.0
 11
138.96483
 21
196.493282
 31
0.0
  0
LINE
  5
122E
100
AcDbEntity
  8
10000_FRONT
370
    25
390
0
  6
CONTINUOUS
 62
     7
100
AcDbLine
 10
138.96483
 20
196.493282
 30
0.0
 11
139.164467
 21
196.592201
 31
0.0
  0
LINE
  5
122F
100
AcDbEntity
  8
10000_FRONT
370
    25
390
0
  6
CONTINUOUS
 62
     7
100
AcDbLine
 10
139.164467
 20
196.592201
 30
0.0
 11
139.559721
 21
196.592201
 31
0.0
  0
LINE
  5
1230
100
AcDbEntity
  8
10000_FRONT
370
    25
390
0
  6
CONTINUOUS
 62
     7
100
AcDbLine
 10
139.559721
 20
196.592201
 30
0.0
 11
139.760697
 21
196.494507
 31
0.0
  0
LINE
  5
1231
100
AcDbEntity
  8
10000_FRONT
370
    25
390
0
  6
CONTINUOUS
 62
     7
100
AcDbLine
 10
139.760697
 20
196.494507
 30
0.0
 11
139.957655
 21
196.298199
 31
0.0
  0
LINE
  5
1232
100
AcDbEntity
  8
10000_FRONT
370
    25
390
0
  6
CONTINUOUS
 62
     7
100
AcDbLine
 10
139.957655
 20
196.298199
 30
0.0
 11
140.070201
 21
196.070351
 31
0.0
  0
LINE
  5
1233
100
AcDbEntity
  8
10000_FRONT
370
    25
390
0
  6
CONTINUOUS
 62
     7
100
AcDbLine
 10
140.070201
 20
196.070351
 30
0.0
 11
139.925499
 21
196.070351
 31
0.0
  0
LINE
  5
1234
100
AcDbEntity
  8
10000_FRONT
370
    25
390
0
  6
CONTINUOUS
 62
     7
100
AcDbLine
 10
139.925499
 20
196.070351
 30
0.0
 11
139.82367
 21
196.270023
 31
0.0
  0
LINE
  5
1235
100
AcDbEntity
  8
10000_FRONT
370
    25
390
0
  6
CONTINUOUS
 62
     7
100
AcDbLine
 10
139.82367
 20
196.270023
 30
0.0
 11
139.732561
 21
196.361286
 31
0.0
  0
LINE
  5
1236
100
AcDbEntity
  8
10000_FRONT
370
    25
390
0
  6
CONTINUOUS
 62
     7
100
AcDbLine
 10
139.732561
 20
196.361286
 30
0.0
 11
139.549003
 21
196.455002
 31
0.0
  0
LINE
  5
1237
100
AcDbEntity
  8
10000_FRONT
370
    25
390
0
  6
CONTINUOUS
 62
     7
100
AcDbLine
 10
139.549003
 20
196.455002
 30
0.0
 11
139.176526
 21
196.455002
 31
0.0
  0
LINE
  5
1238
100
AcDbEntity
  8
10000_FRONT
370
    25
390
0
  6
CONTINUOUS
 62
     7
100
AcDbLine
 10
139.176526
 20
196.455002
 30
0.0
 11
138.991628
 21
196.363739
 31
0.0
  0
LINE
  5
1239
100
AcDbEntity
  8
10000_FRONT
370
    25
390
0
  6
CONTINUOUS
 62
     7
100
AcDbLine
 10
138.991628
 20
196.363739
 30
0.0
 11
138.805388
 21
196.080761
 31
0.0
  0
LINE
  5
123A
100
AcDbEntity
  8
10000_FRONT
370
    25
390
0
  6
CONTINUOUS
 62
     7
100
AcDbLine
 10
138.805388
 20
196.080761
 30
0.0
 11
138.7116
 21
195.800545
 31
0.0
  0
LINE
  5
123B
100
AcDbEntity
  8
10000_FRONT
370
    25
390
0
  6
CONTINUOUS
 62
     7
100
AcDbLine
 10
138.7116
 20
195.800545
 30
0.0
 11
138.7116
 21
195.325855
 31
0.0
  0
LINE
  5
123C
100
AcDbEntity
  8
10000_FRONT
370
    25
390
0
  6
CONTINUOUS
 62
     7
100
AcDbLine
 10
138.7116
 20
195.325855
 30
0.0
 11
138.805388
 21
195.045639
 31
0.0
  0
LINE
  5
123D
100
AcDbEntity
  8
10000_FRONT
370
    25
390
0
  6
CONTINUOUS
 62
     7
100
AcDbLine
 10
138.805388
 20
195.045639
 30
0.0
 11
138.991628
 21
194.762661
 31
0.0
  0
LINE
  5
123E
100
AcDbEntity
  8
10000_FRONT
370
    25
390
0
  6
CONTINUOUS
 62
     7
100
AcDbLine
 10
138.991628
 20
194.762661
 30
0.0
 11
139.176526
 21
194.671398
 31
0.0
  0
LINE
  5
123F
100
AcDbEntity
  8
10000_FRONT
370
    25
390
0
  6
CONTINUOUS
 62
     7
100
AcDbLine
 10
139.176526
 20
194.671398
 30
0.0
 11
139.549003
 21
194.671398
 31
0.0
  0
LINE
  5
1240
100
AcDbEntity
  8
10000_FRONT
370
    25
390
0
  6
CONTINUOUS
 62
     7
100
AcDbLine
 10
139.549003
 20
194.671398
 30
0.0
 11
139.732561
 21
194.765114
 31
0.0
  0
LINE
  5
1241
100
AcDbEntity
  8
10000_FRONT
370
    25
390
0
  6
CONTINUOUS
 62
     7
100
AcDbLine
 10
139.732561
 20
194.765114
 30
0.0
 11
139.82367
 21
194.856377
 31
0.0
  0
LINE
  5
1242
100
AcDbEntity
  8
10000_FRONT
370
    25
390
0
  6
CONTINUOUS
 62
     7
100
AcDbLine
 10
139.82367
 20
194.856377
 30
0.0
 11
139.925499
 21
195.056049
 31
0.0
  0
LINE
  5
1243
100
AcDbEntity
  8
10000_FRONT
370
    25
390
0
  6
CONTINUOUS
 62
     7
100
AcDbLine
 10
139.925499
 20
195.056049
 30
0.0
 11
140.070201
 21
195.056049
 31
0.0
  0
LINE
  5
1244
100
AcDbEntity
  8
10000_FRONT
370
    25
390
0
  6
CONTINUOUS
 62
     7
100
AcDbLine
 10
140.070201
 20
195.056049
 30
0.0
 11
139.957655
 21
194.828201
 31
0.0
  0
LINE
  5
1245
100
AcDbEntity
  8
10000_FRONT
370
    25
390
0
  6
CONTINUOUS
 62
     7
100
AcDbLine
 10
139.957655
 20
194.828201
 30
0.0
 11
139.760697
 21
194.631893
 31
0.0
  0
LINE
  5
1246
100
AcDbEntity
  8
10000_FRONT
370
    25
390
0
  6
CONTINUOUS
 62
     7
100
AcDbLine
 10
139.760697
 20
194.631893
 30
0.0
 11
139.559721
 21
194.534199
 31
0.0
  0
LINE
  5
1247
100
AcDbEntity
  8
10000_FRONT
370
    25
390
0
  6
CONTINUOUS
 62
     7
100
AcDbLine
 10
139.559721
 20
194.534199
 30
0.0
 11
139.164467
 21
194.534199
 31
0.0
  0
LINE
  5
1248
100
AcDbEntity
  8
10000_FRONT
370
    25
390
0
  6
CONTINUOUS
 62
     7
100
AcDbLine
 10
139.164467
 20
194.534199
 30
0.0
 11
138.96483
 21
194.633118
 31
0.0
  0
LINE
  5
1249
100
AcDbEntity
  8
10000_FRONT
370
    25
390
0
  6
CONTINUOUS
 62
     7
100
AcDbLine
 10
138.96483
 20
194.633118
 30
0.0
 11
138.766534
 21
194.830036
 31
0.0
  0
LINE
  5
124A
100
AcDbEntity
  8
10000_FRONT
370
    25
390
0
  6
CONTINUOUS
 62
     7
100
AcDbLine
 10
147.466534
 20
194.830036
 30
0.0
 11
147.371941
 21
195.027874
 31
0.0
  0
LINE
  5
124B
100
AcDbEntity
  8
10000_FRONT
370
    25
390
0
  6
CONTINUOUS
 62
     7
100
AcDbLine
 10
147.371941
 20
195.027874
 30
0.0
 11
147.2744
 21
195.320957
 31
0.0
  0
LINE
  5
124C
100
AcDbEntity
  8
10000_FRONT
370
    25
390
0
  6
CONTINUOUS
 62
     7
100
AcDbLine
 10
147.2744
 20
195.320957
 30
0.0
 11
147.2744
 21
195.805443
 31
0.0
  0
LINE
  5
124D
100
AcDbEntity
  8
10000_FRONT
370
    25
390
0
  6
CONTINUOUS
 62
     7
100
AcDbLine
 10
147.2744
 20
195.805443
 30
0.0
 11
147.371941
 21
196.098526
 31
0.0
  0
LINE
  5
124E
100
AcDbEntity
  8
10000_FRONT
370
    25
390
0
  6
CONTINUOUS
 62
     7
100
AcDbLine
 10
147.371941
 20
196.098526
 30
0.0
 11
147.466534
 21
196.296364
 31
0.0
  0
LINE
  5
124F
100
AcDbEntity
  8
10000_FRONT
370
    25
390
0
  6
CONTINUOUS
 62
     7
100
AcDbLine
 10
147.466534
 20
196.296364
 30
0.0
 11
147.664831
 21
196.493282
 31
0.0
  0
LINE
  5
1250
100
AcDbEntity
  8
10000_FRONT
370
    25
390
0
  6
CONTINUOUS
 62
     7
100
AcDbLine
 10
147.664831
 20
196.493282
 30
0.0
 11
147.864467
 21
196.592201
 31
0.0
  0
LINE
  5
1251
100
AcDbEntity
  8
10000_FRONT
370
    25
390
0
  6
CONTINUOUS
 62
     7
100
AcDbLine
 10
147.864467
 20
196.592201
 30
0.0
 11
148.259722
 21
196.592201
 31
0.0
  0
LINE
  5
1252
100
AcDbEntity
  8
10000_FRONT
370
    25
390
0
  6
CONTINUOUS
 62
     7
100
AcDbLine
 10
148.259722
 20
196.592201
 30
0.0
 11
148.460698
 21
196.494507
 31
0.0
  0
LINE
  5
1253
100
AcDbEntity
  8
10000_FRONT
370
    25
390
0
  6
CONTINUOUS
 62
     7
100
AcDbLine
 10
148.460698
 20
196.494507
 30
0.0
 11
148.657655
 21
196.298199
 31
0.0
  0
LINE
  5
1254
100
AcDbEntity
  8
10000_FRONT
370
    25
390
0
  6
CONTINUOUS
 62
     7
100
AcDbLine
 10
148.657655
 20
196.298199
 30
0.0
 11
148.770201
 21
196.070351
 31
0.0
  0
LINE
  5
1255
100
AcDbEntity
  8
10000_FRONT
370
    25
390
0
  6
CONTINUOUS
 62
     7
100
AcDbLine
 10
148.770201
 20
196.070351
 30
0.0
 11
148.625499
 21
196.070351
 31
0.0
  0
LINE
  5
1256
100
AcDbEntity
  8
10000_FRONT
370
    25
390
0
  6
CONTINUOUS
 62
     7
100
AcDbLine
 10
148.625499
 20
196.070351
 30
0.0
 11
148.52367
 21
196.270023
 31
0.0
  0
LINE
  5
1257
100
AcDbEntity
  8
10000_FRONT
370
    25
390
0
  6
CONTINUOUS
 62
     7
100
AcDbLine
 10
148.52367
 20
196.270023
 30
0.0
 11
148.432561
 21
196.361286
 31
0.0
  0
LINE
  5
1258
100
AcDbEntity
  8
10000_FRONT
370
    25
390
0
  6
CONTINUOUS
 62
     7
100
AcDbLine
 10
148.432561
 20
196.361286
 30
0.0
 11
148.249002
 21
196.455002
 31
0.0
  0
LINE
  5
1259
100
AcDbEntity
  8
10000_FRONT
370
    25
390
0
  6
CONTINUOUS
 62
     7
100
AcDbLine
 10
148.249002
 20
196.455002
 30
0.0
 11
147.876526
 21
196.455002
 31
0.0
  0
LINE
  5
125A
100
AcDbEntity
  8
10000_FRONT
370
    25
390
0
  6
CONTINUOUS
 62
     7
100
AcDbLine
 10
147.876526
 20
196.455002
 30
0.0
 11
147.691627
 21
196.363739
 31
0.0
  0
LINE
  5
125B
100
AcDbEntity
  8
10000_FRONT
370
    25
390
0
  6
CONTINUOUS
 62
     7
100
AcDbLine
 10
147.691627
 20
196.363739
 30
0.0
 11
147.505389
 21
196.080761
 31
0.0
  0
LINE
  5
125C
100
AcDbEntity
  8
10000_FRONT
370
    25
390
0
  6
CONTINUOUS
 62
     7
100
AcDbLine
 10
147.505389
 20
196.080761
 30
0.0
 11
147.4116
 21
195.800545
 31
0.0
  0
LINE
  5
125D
100
AcDbEntity
  8
10000_FRONT
370
    25
390
0
  6
CONTINUOUS
 62
     7
100
AcDbLine
 10
147.4116
 20
195.800545
 30
0.0
 11
147.4116
 21
195.325855
 31
0.0
  0
LINE
  5
125E
100
AcDbEntity
  8
10000_FRONT
370
    25
390
0
  6
CONTINUOUS
 62
     7
100
AcDbLine
 10
147.4116
 20
195.325855
 30
0.0
 11
147.505389
 21
195.045639
 31
0.0
  0
LINE
  5
125F
100
AcDbEntity
  8
10000_FRONT
370
    25
390
0
  6
CONTINUOUS
 62
     7
100
AcDbLine
 10
147.505389
 20
195.045639
 30
0.0
 11
147.691627
 21
194.762661
 31
0.0
  0
LINE
  5
1260
100
AcDbEntity
  8
10000_FRONT
370
    25
390
0
  6
CONTINUOUS
 62
     7
100
AcDbLine
 10
147.691627
 20
194.762661
 30
0.0
 11
147.876526
 21
194.671398
 31
0.0
  0
LINE
  5
1261
100
AcDbEntity
  8
10000_FRONT
370
    25
390
0
  6
CONTINUOUS
 62
     7
100
AcDbLine
 10
147.876526
 20
194.671398
 30
0.0
 11
148.249002
 21
194.671398
 31
0.0
  0
LINE
  5
1262
100
AcDbEntity
  8
10000_FRONT
370
    25
390
0
  6
CONTINUOUS
 62
     7
100
AcDbLine
 10
148.249002
 20
194.671398
 30
0.0
 11
148.432561
 21
194.765114
 31
0.0
  0
LINE
  5
1263
100
AcDbEntity
  8
10000_FRONT
370
    25
390
0
  6
CONTINUOUS
 62
     7
100
AcDbLine
 10
148.432561
 20
194.765114
 30
0.0
 11
148.52367
 21
194.856377
 31
0.0
  0
LINE
  5
1264
100
AcDbEntity
  8
10000_FRONT
370
    25
390
0
  6
CONTINUOUS
 62
     7
100
AcDbLine
 10
148.52367
 20
194.856377
 30
0.0
 11
148.625499
 21
195.056049
 31
0.0
  0
LINE
  5
1265
100
AcDbEntity
  8
10000_FRONT
370
    25
390
0
  6
CONTINUOUS
 62
     7
100
AcDbLine
 10
148.625499
 20
195.056049
 30
0.0
 11
148.770201
 21
195.056049
 31
0.0
  0
LINE
  5
1266
100
AcDbEntity
  8
10000_FRONT
370
    25
390
0
  6
CONTINUOUS
 62
     7
100
AcDbLine
 10
148.770201
 20
195.056049
 30
0.0
 11
148.657655
 21
194.828201
 31
0.0
  0
LINE
  5
1267
100
AcDbEntity
  8
10000_FRONT
370
    25
390
0
  6
CONTINUOUS
 62
     7
100
AcDbLine
 10
148.657655
 20
194.828201
 30
0.0
 11
148.460698
 21
194.631893
 31
0.0
  0
LINE
  5
1268
100
AcDbEntity
  8
10000_FRONT
370
    25
390
0
  6
CONTINUOUS
 62
     7
100
AcDbLine
 10
148.460698
 20
194.631893
 30
0.0
 11
148.259722
 21
194.534199
 31
0.0
  0
LINE
  5
1269
100
AcDbEntity
  8
10000_FRONT
370
    25
390
0
  6
CONTINUOUS
 62
     7
100
AcDbLine
 10
148.259722
 20
194.534199
 30
0.0
 11
147.864467
 21
194.534199
 31
0.0
  0
LINE
  5
126A
100
AcDbEntity
  8
10000_FRONT
370
    25
390
0
  6
CONTINUOUS
 62
     7
100
AcDbLine
 10
147.864467
 20
194.534199
 30
0.0
 11
147.664831
 21
194.633118
 31
0.0
  0
LINE
  5
126B
100
AcDbEntity
  8
10000_FRONT
370
    25
390
0
  6
CONTINUOUS
 62
     7
100
AcDbLine
 10
147.664831
 20
194.633118
 30
0.0
 11
147.466534
 21
194.830036
 31
0.0
  0
LINE
  5
126C
100
AcDbEntity
  8
10000_FRONT
370
    25
390
0
  6
CONTINUOUS
 62
     7
100
AcDbLine
 10
155.766534
 20
194.830036
 30
0.0
 11
155.671941
 21
195.027874
 31
0.0
  0
LINE
  5
126D
100
AcDbEntity
  8
10000_FRONT
370
    25
390
0
  6
CONTINUOUS
 62
     7
100
AcDbLine
 10
155.671941
 20
195.027874
 30
0.0
 11
155.5744
 21
195.320957
 31
0.0
  0
LINE
  5
126E
100
AcDbEntity
  8
10000_FRONT
370
    25
390
0
  6
CONTINUOUS
 62
     7
100
AcDbLine
 10
155.5744
 20
195.320957
 30
0.0
 11
155.5744
 21
195.805443
 31
0.0
  0
LINE
  5
126F
100
AcDbEntity
  8
10000_FRONT
370
    25
390
0
  6
CONTINUOUS
 62
     7
100
AcDbLine
 10
155.5744
 20
195.805443
 30
0.0
 11
155.671941
 21
196.098526
 31
0.0
  0
LINE
  5
1270
100
AcDbEntity
  8
10000_FRONT
370
    25
390
0
  6
CONTINUOUS
 62
     7
100
AcDbLine
 10
155.671941
 20
196.098526
 30
0.0
 11
155.766534
 21
196.296364
 31
0.0
  0
LINE
  5
1271
100
AcDbEntity
  8
10000_FRONT
370
    25
390
0
  6
CONTINUOUS
 62
     7
100
AcDbLine
 10
155.766534
 20
196.296364
 30
0.0
 11
155.96483
 21
196.493282
 31
0.0
  0
LINE
  5
1272
100
AcDbEntity
  8
10000_FRONT
370
    25
390
0
  6
CONTINUOUS
 62
     7
100
AcDbLine
 10
155.96483
 20
196.493282
 30
0.0
 11
156.164467
 21
196.592201
 31
0.0
  0
LINE
  5
1273
100
AcDbEntity
  8
10000_FRONT
370
    25
390
0
  6
CONTINUOUS
 62
     7
100
AcDbLine
 10
156.164467
 20
196.592201
 30
0.0
 11
156.559721
 21
196.592201
 31
0.0
  0
LINE
  5
1274
100
AcDbEntity
  8
10000_FRONT
370
    25
390
0
  6
CONTINUOUS
 62
     7
100
AcDbLine
 10
156.559721
 20
196.592201
 30
0.0
 11
156.760698
 21
196.494507
 31
0.0
  0
LINE
  5
1275
100
AcDbEntity
  8
10000_FRONT
370
    25
390
0
  6
CONTINUOUS
 62
     7
100
AcDbLine
 10
156.760698
 20
196.494507
 30
0.0
 11
156.957654
 21
196.298199
 31
0.0
  0
LINE
  5
1276
100
AcDbEntity
  8
10000_FRONT
370
    25
390
0
  6
CONTINUOUS
 62
     7
100
AcDbLine
 10
156.957654
 20
196.298199
 30
0.0
 11
157.070201
 21
196.070351
 31
0.0
  0
LINE
  5
1277
100
AcDbEntity
  8
10000_FRONT
370
    25
390
0
  6
CONTINUOUS
 62
     7
100
AcDbLine
 10
157.070201
 20
196.070351
 30
0.0
 11
156.925498
 21
196.070351
 31
0.0
  0
LINE
  5
1278
100
AcDbEntity
  8
10000_FRONT
370
    25
390
0
  6
CONTINUOUS
 62
     7
100
AcDbLine
 10
156.925498
 20
196.070351
 30
0.0
 11
156.82367
 21
196.270023
 31
0.0
  0
LINE
  5
1279
100
AcDbEntity
  8
10000_FRONT
370
    25
390
0
  6
CONTINUOUS
 62
     7
100
AcDbLine
 10
156.82367
 20
196.270023
 30
0.0
 11
156.732561
 21
196.361286
 31
0.0
  0
LINE
  5
127A
100
AcDbEntity
  8
10000_FRONT
370
    25
390
0
  6
CONTINUOUS
 62
     7
100
AcDbLine
 10
156.732561
 20
196.361286
 30
0.0
 11
156.549002
 21
196.455002
 31
0.0
  0
LINE
  5
127B
100
AcDbEntity
  8
10000_FRONT
370
    25
390
0
  6
CONTINUOUS
 62
     7
100
AcDbLine
 10
156.549002
 20
196.455002
 30
0.0
 11
156.176526
 21
196.455002
 31
0.0
  0
LINE
  5
127C
100
AcDbEntity
  8
10000_FRONT
370
    25
390
0
  6
CONTINUOUS
 62
     7
100
AcDbLine
 10
156.176526
 20
196.455002
 30
0.0
 11
155.991627
 21
196.363739
 31
0.0
  0
LINE
  5
127D
100
AcDbEntity
  8
10000_FRONT
370
    25
390
0
  6
CONTINUOUS
 62
     7
100
AcDbLine
 10
155.991627
 20
196.363739
 30
0.0
 11
155.805389
 21
196.080761
 31
0.0
  0
LINE
  5
127E
100
AcDbEntity
  8
10000_FRONT
370
    25
390
0
  6
CONTINUOUS
 62
     7
100
AcDbLine
 10
155.805389
 20
196.080761
 30
0.0
 11
155.7116
 21
195.800545
 31
0.0
  0
LINE
  5
127F
100
AcDbEntity
  8
10000_FRONT
370
    25
390
0
  6
CONTINUOUS
 62
     7
100
AcDbLine
 10
155.7116
 20
195.800545
 30
0.0
 11
155.7116
 21
195.325855
 31
0.0
  0
LINE
  5
1280
100
AcDbEntity
  8
10000_FRONT
370
    25
390
0
  6
CONTINUOUS
 62
     7
100
AcDbLine
 10
155.7116
 20
195.325855
 30
0.0
 11
155.805389
 21
195.045639
 31
0.0
  0
LINE
  5
1281
100
AcDbEntity
  8
10000_FRONT
370
    25
390
0
  6
CONTINUOUS
 62
     7
100
AcDbLine
 10
155.805389
 20
195.045639
 30
0.0
 11
155.991627
 21
194.762661
 31
0.0
  0
LINE
  5
1282
100
AcDbEntity
  8
10000_FRONT
370
    25
390
0
  6
CONTINUOUS
 62
     7
100
AcDbLine
 10
155.991627
 20
194.762661
 30
0.0
 11
156.176526
 21
194.671398
 31
0.0
  0
LINE
  5
1283
100
AcDbEntity
  8
10000_FRONT
370
    25
390
0
  6
CONTINUOUS
 62
     7
100
AcDbLine
 10
156.176526
 20
194.671398
 30
0.0
 11
156.549002
 21
194.671398
 31
0.0
  0
LINE
  5
1284
100
AcDbEntity
  8
10000_FRONT
370
    25
390
0
  6
CONTINUOUS
 62
     7
100
AcDbLine
 10
156.549002
 20
194.671398
 30
0.0
 11
156.732561
 21
194.765114
 31
0.0
  0
LINE
  5
1285
100
AcDbEntity
  8
10000_FRONT
370
    25
390
0
  6
CONTINUOUS
 62
     7
100
AcDbLine
 10
156.732561
 20
194.765114
 30
0.0
 11
156.82367
 21
194.856377
 31
0.0
  0
LINE
  5
1286
100
AcDbEntity
  8
10000_FRONT
370
    25
390
0
  6
CONTINUOUS
 62
     7
100
AcDbLine
 10
156.82367
 20
194.856377
 30
0.0
 11
156.925498
 21
195.056049
 31
0.0
  0
LINE
  5
1287
100
AcDbEntity
  8
10000_FRONT
370
    25
390
0
  6
CONTINUOUS
 62
     7
100
AcDbLine
 10
156.925498
 20
195.056049
 30
0.0
 11
157.070201
 21
195.056049
 31
0.0
  0
LINE
  5
1288
100
AcDbEntity
  8
10000_FRONT
370
    25
390
0
  6
CONTINUOUS
 62
     7
100
AcDbLine
 10
157.070201
 20
195.056049
 30
0.0
 11
156.957654
 21
194.828201
 31
0.0
  0
LINE
  5
1289
100
AcDbEntity
  8
10000_FRONT
370
    25
390
0
  6
CONTINUOUS
 62
     7
100
AcDbLine
 10
156.957654
 20
194.828201
 30
0.0
 11
156.760698
 21
194.631893
 31
0.0
  0
LINE
  5
128A
100
AcDbEntity
  8
10000_FRONT
370
    25
390
0
  6
CONTINUOUS
 62
     7
100
AcDbLine
 10
156.760698
 20
194.631893
 30
0.0
 11
156.559721
 21
194.534199
 31
0.0
  0
LINE
  5
128B
100
AcDbEntity
  8
10000_FRONT
370
    25
390
0
  6
CONTINUOUS
 62
     7
100
AcDbLine
 10
156.559721
 20
194.534199
 30
0.0
 11
156.164467
 21
194.534199
 31
0.0
  0
LINE
  5
128C
100
AcDbEntity
  8
10000_FRONT
370
    25
390
0
  6
CONTINUOUS
 62
     7
100
AcDbLine
 10
156.164467
 20
194.534199
 30
0.0
 11
155.96483
 21
194.633118
 31
0.0
  0
LINE
  5
128D
100
AcDbEntity
  8
10000_FRONT
370
    25
390
0
  6
CONTINUOUS
 62
     7
100
AcDbLine
 10
155.96483
 20
194.633118
 30
0.0
 11
155.766534
 21
194.830036
 31
0.0
  0
LINE
  5
128E
100
AcDbEntity
  8
10000_FRONT
370
    25
390
0
  6
CONTINUOUS
 62
     7
100
AcDbLine
 10
164.466534
 20
194.830036
 30
0.0
 11
164.371941
 21
195.027874
 31
0.0
  0
LINE
  5
128F
100
AcDbEntity
  8
10000_FRONT
370
    25
390
0
  6
CONTINUOUS
 62
     7
100
AcDbLine
 10
164.371941
 20
195.027874
 30
0.0
 11
164.2744
 21
195.320957
 31
0.0
  0
LINE
  5
1290
100
AcDbEntity
  8
10000_FRONT
370
    25
390
0
  6
CONTINUOUS
 62
     7
100
AcDbLine
 10
164.2744
 20
195.320957
 30
0.0
 11
164.2744
 21
195.805443
 31
0.0
  0
LINE
  5
1291
100
AcDbEntity
  8
10000_FRONT
370
    25
390
0
  6
CONTINUOUS
 62
     7
100
AcDbLine
 10
164.2744
 20
195.805443
 30
0.0
 11
164.371941
 21
196.098526
 31
0.0
  0
LINE
  5
1292
100
AcDbEntity
  8
10000_FRONT
370
    25
390
0
  6
CONTINUOUS
 62
     7
100
AcDbLine
 10
164.371941
 20
196.098526
 30
0.0
 11
164.466534
 21
196.296364
 31
0.0
  0
LINE
  5
1293
100
AcDbEntity
  8
10000_FRONT
370
    25
390
0
  6
CONTINUOUS
 62
     7
100
AcDbLine
 10
164.466534
 20
196.296364
 30
0.0
 11
164.66483
 21
196.493282
 31
0.0
  0
LINE
  5
1294
100
AcDbEntity
  8
10000_FRONT
370
    25
390
0
  6
CONTINUOUS
 62
     7
100
AcDbLine
 10
164.66483
 20
196.493282
 30
0.0
 11
164.864467
 21
196.592201
 31
0.0
  0
LINE
  5
1295
100
AcDbEntity
  8
10000_FRONT
370
    25
390
0
  6
CONTINUOUS
 62
     7
100
AcDbLine
 10
164.864467
 20
196.592201
 30
0.0
 11
165.259722
 21
196.592201
 31
0.0
  0
LINE
  5
1296
100
AcDbEntity
  8
10000_FRONT
370
    25
390
0
  6
CONTINUOUS
 62
     7
100
AcDbLine
 10
165.259722
 20
196.592201
 30
0.0
 11
165.460698
 21
196.494507
 31
0.0
  0
LINE
  5
1297
100
AcDbEntity
  8
10000_FRONT
370
    25
390
0
  6
CONTINUOUS
 62
     7
100
AcDbLine
 10
165.460698
 20
196.494507
 30
0.0
 11
165.657655
 21
196.298199
 31
0.0
  0
LINE
  5
1298
100
AcDbEntity
  8
10000_FRONT
370
    25
390
0
  6
CONTINUOUS
 62
     7
100
AcDbLine
 10
165.657655
 20
196.298199
 30
0.0
 11
165.770202
 21
196.070351
 31
0.0
  0
LINE
  5
1299
100
AcDbEntity
  8
10000_FRONT
370
    25
390
0
  6
CONTINUOUS
 62
     7
100
AcDbLine
 10
165.770202
 20
196.070351
 30
0.0
 11
165.625499
 21
196.070351
 31
0.0
  0
LINE
  5
129A
100
AcDbEntity
  8
10000_FRONT
370
    25
390
0
  6
CONTINUOUS
 62
     7
100
AcDbLine
 10
165.625499
 20
196.070351
 30
0.0
 11
165.52367
 21
196.270023
 31
0.0
  0
LINE
  5
129B
100
AcDbEntity
  8
10000_FRONT
370
    25
390
0
  6
CONTINUOUS
 62
     7
100
AcDbLine
 10
165.52367
 20
196.270023
 30
0.0
 11
165.432561
 21
196.361286
 31
0.0
  0
LINE
  5
129C
100
AcDbEntity
  8
10000_FRONT
370
    25
390
0
  6
CONTINUOUS
 62
     7
100
AcDbLine
 10
165.432561
 20
196.361286
 30
0.0
 11
165.249002
 21
196.455002
 31
0.0
  0
LINE
  5
129D
100
AcDbEntity
  8
10000_FRONT
370
    25
390
0
  6
CONTINUOUS
 62
     7
100
AcDbLine
 10
165.249002
 20
196.455002
 30
0.0
 11
164.876526
 21
196.455002
 31
0.0
  0
LINE
  5
129E
100
AcDbEntity
  8
10000_FRONT
370
    25
390
0
  6
CONTINUOUS
 62
     7
100
AcDbLine
 10
164.876526
 20
196.455002
 30
0.0
 11
164.691628
 21
196.363739
 31
0.0
  0
LINE
  5
129F
100
AcDbEntity
  8
10000_FRONT
370
    25
390
0
  6
CONTINUOUS
 62
     7
100
AcDbLine
 10
164.691628
 20
196.363739
 30
0.0
 11
164.505389
 21
196.080761
 31
0.0
  0
LINE
  5
12A0
100
AcDbEntity
  8
10000_FRONT
370
    25
390
0
  6
CONTINUOUS
 62
     7
100
AcDbLine
 10
164.505389
 20
196.080761
 30
0.0
 11
164.4116
 21
195.800545
 31
0.0
  0
LINE
  5
12A1
100
AcDbEntity
  8
10000_FRONT
370
    25
390
0
  6
CONTINUOUS
 62
     7
100
AcDbLine
 10
164.4116
 20
195.800545
 30
0.0
 11
164.4116
 21
195.325855
 31
0.0
  0
LINE
  5
12A2
100
AcDbEntity
  8
10000_FRONT
370
    25
390
0
  6
CONTINUOUS
 62
     7
100
AcDbLine
 10
164.4116
 20
195.325855
 30
0.0
 11
164.505389
 21
195.045639
 31
0.0
  0
LINE
  5
12A3
100
AcDbEntity
  8
10000_FRONT
370
    25
390
0
  6
CONTINUOUS
 62
     7
100
AcDbLine
 10
164.505389
 20
195.045639
 30
0.0
 11
164.691628
 21
194.762661
 31
0.0
  0
LINE
  5
12A4
100
AcDbEntity
  8
10000_FRONT
370
    25
390
0
  6
CONTINUOUS
 62
     7
100
AcDbLine
 10
164.691628
 20
194.762661
 30
0.0
 11
164.876526
 21
194.671398
 31
0.0
  0
LINE
  5
12A5
100
AcDbEntity
  8
10000_FRONT
370
    25
390
0
  6
CONTINUOUS
 62
     7
100
AcDbLine
 10
164.876526
 20
194.671398
 30
0.0
 11
165.249002
 21
194.671398
 31
0.0
  0
LINE
  5
12A6
100
AcDbEntity
  8
10000_FRONT
370
    25
390
0
  6
CONTINUOUS
 62
     7
100
AcDbLine
 10
165.249002
 20
194.671398
 30
0.0
 11
165.432561
 21
194.765114
 31
0.0
  0
LINE
  5
12A7
100
AcDbEntity
  8
10000_FRONT
370
    25
390
0
  6
CONTINUOUS
 62
     7
100
AcDbLine
 10
165.432561
 20
194.765114
 30
0.0
 11
165.52367
 21
194.856377
 31
0.0
  0
LINE
  5
12A8
100
AcDbEntity
  8
10000_FRONT
370
    25
390
0
  6
CONTINUOUS
 62
     7
100
AcDbLine
 10
165.52367
 20
194.856377
 30
0.0
 11
165.625499
 21
195.056049
 31
0.0
  0
LINE
  5
12A9
100
AcDbEntity
  8
10000_FRONT
370
    25
390
0
  6
CONTINUOUS
 62
     7
100
AcDbLine
 10
165.625499
 20
195.056049
 30
0.0
 11
165.770202
 21
195.056049
 31
0.0
  0
LINE
  5
12AA
100
AcDbEntity
  8
10000_FRONT
370
    25
390
0
  6
CONTINUOUS
 62
     7
100
AcDbLine
 10
165.770202
 20
195.056049
 30
0.0
 11
165.657655
 21
194.828201
 31
0.0
  0
LINE
  5
12AB
100
AcDbEntity
  8
10000_FRONT
370
    25
390
0
  6
CONTINUOUS
 62
     7
100
AcDbLine
 10
165.657655
 20
194.828201
 30
0.0
 11
165.460698
 21
194.631893
 31
0.0
  0
LINE
  5
12AC
100
AcDbEntity
  8
10000_FRONT
370
    25
390
0
  6
CONTINUOUS
 62
     7
100
AcDbLine
 10
165.460698
 20
194.631893
 30
0.0
 11
165.259722
 21
194.534199
 31
0.0
  0
LINE
  5
12AD
100
AcDbEntity
  8
10000_FRONT
370
    25
390
0
  6
CONTINUOUS
 62
     7
100
AcDbLine
 10
165.259722
 20
194.534199
 30
0.0
 11
164.864467
 21
194.534199
 31
0.0
  0
LINE
  5
12AE
100
AcDbEntity
  8
10000_FRONT
370
    25
390
0
  6
CONTINUOUS
 62
     7
100
AcDbLine
 10
164.864467
 20
194.534199
 30
0.0
 11
164.66483
 21
194.633118
 31
0.0
  0
LINE
  5
12AF
100
AcDbEntity
  8
10000_FRONT
370
    25
390
0
  6
CONTINUOUS
 62
     7
100
AcDbLine
 10
164.66483
 20
194.633118
 30
0.0
 11
164.466534
 21
194.830036
 31
0.0
  0
LINE
  5
12B0
100
AcDbEntity
  8
10000_FRONT
370
    25
390
0
  6
CONTINUOUS
 62
     7
100
AcDbLine
 10
162.6773
 20
194.534199
 30
0.0
 11
162.6773
 21
196.592201
 31
0.0
  0
LINE
  5
12B1
100
AcDbEntity
  8
10000_FRONT
370
    25
390
0
  6
CONTINUOUS
 62
     7
100
AcDbLine
 10
162.6773
 20
196.592201
 30
0.0
 11
162.709456
 21
196.592201
 31
0.0
  0
LINE
  5
12B2
100
AcDbEntity
  8
10000_FRONT
370
    25
390
0
  6
CONTINUOUS
 62
     7
100
AcDbLine
 10
162.709456
 20
196.592201
 30
0.0
 11
163.92925
 21
194.910583
 31
0.0
  0
LINE
  5
12B3
100
AcDbEntity
  8
10000_FRONT
370
    25
390
0
  6
CONTINUOUS
 62
     7
100
AcDbLine
 10
163.92925
 20
194.910583
 30
0.0
 11
163.92925
 21
196.592201
 31
0.0
  0
LINE
  5
12B4
100
AcDbEntity
  8
10000_FRONT
370
    25
390
0
  6
CONTINUOUS
 62
     7
100
AcDbLine
 10
163.92925
 20
196.592201
 30
0.0
 11
164.06645
 21
196.592201
 31
0.0
  0
LINE
  5
12B5
100
AcDbEntity
  8
10000_FRONT
370
    25
390
0
  6
CONTINUOUS
 62
     7
100
AcDbLine
 10
164.06645
 20
196.592201
 30
0.0
 11
164.06645
 21
194.534199
 31
0.0
  0
LINE
  5
12B6
100
AcDbEntity
  8
10000_FRONT
370
    25
390
0
  6
CONTINUOUS
 62
     7
100
AcDbLine
 10
164.06645
 20
194.534199
 30
0.0
 11
164.032953
 21
194.534199
 31
0.0
  0
LINE
  5
12B7
100
AcDbEntity
  8
10000_FRONT
370
    25
390
0
  6
CONTINUOUS
 62
     7
100
AcDbLine
 10
164.032953
 20
194.534199
 30
0.0
 11
162.8145
 21
196.21582
 31
0.0
  0
LINE
  5
12B8
100
AcDbEntity
  8
10000_FRONT
370
    25
390
0
  6
CONTINUOUS
 62
     7
100
AcDbLine
 10
162.8145
 20
196.21582
 30
0.0
 11
162.8145
 21
194.534199
 31
0.0
  0
LINE
  5
12B9
100
AcDbEntity
  8
10000_FRONT
370
    25
390
0
  6
CONTINUOUS
 62
     7
100
AcDbLine
 10
162.8145
 20
194.534199
 30
0.0
 11
162.6773
 21
194.534199
 31
0.0
  0
LINE
  5
12BA
100
AcDbEntity
  8
10000_FRONT
370
    25
390
0
  6
CONTINUOUS
 62
     7
100
AcDbLine
 10
153.9773
 20
194.534199
 30
0.0
 11
153.9773
 21
196.592201
 31
0.0
  0
LINE
  5
12BB
100
AcDbEntity
  8
10000_FRONT
370
    25
390
0
  6
CONTINUOUS
 62
     7
100
AcDbLine
 10
153.9773
 20
196.592201
 30
0.0
 11
154.009457
 21
196.592201
 31
0.0
  0
LINE
  5
12BC
100
AcDbEntity
  8
10000_FRONT
370
    25
390
0
  6
CONTINUOUS
 62
     7
100
AcDbLine
 10
154.009457
 20
196.592201
 30
0.0
 11
155.22925
 21
194.910583
 31
0.0
  0
LINE
  5
12BD
100
AcDbEntity
  8
10000_FRONT
370
    25
390
0
  6
CONTINUOUS
 62
     7
100
AcDbLine
 10
155.22925
 20
194.910583
 30
0.0
 11
155.22925
 21
196.592201
 31
0.0
  0
LINE
  5
12BE
100
AcDbEntity
  8
10000_FRONT
370
    25
390
0
  6
CONTINUOUS
 62
     7
100
AcDbLine
 10
155.22925
 20
196.592201
 30
0.0
 11
155.36645
 21
196.592201
 31
0.0
  0
LINE
  5
12BF
100
AcDbEntity
  8
10000_FRONT
370
    25
390
0
  6
CONTINUOUS
 62
     7
100
AcDbLine
 10
155.36645
 20
196.592201
 30
0.0
 11
155.36645
 21
194.534199
 31
0.0
  0
LINE
  5
12C0
100
AcDbEntity
  8
10000_FRONT
370
    25
390
0
  6
CONTINUOUS
 62
     7
100
AcDbLine
 10
155.36645
 20
194.534199
 30
0.0
 11
155.332953
 21
194.534199
 31
0.0
  0
LINE
  5
12C1
100
AcDbEntity
  8
10000_FRONT
370
    25
390
0
  6
CONTINUOUS
 62
     7
100
AcDbLine
 10
155.332953
 20
194.534199
 30
0.0
 11
154.1145
 21
196.21582
 31
0.0
  0
LINE
  5
12C2
100
AcDbEntity
  8
10000_FRONT
370
    25
390
0
  6
CONTINUOUS
 62
     7
100
AcDbLine
 10
154.1145
 20
196.21582
 30
0.0
 11
154.1145
 21
194.534199
 31
0.0
  0
LINE
  5
12C3
100
AcDbEntity
  8
10000_FRONT
370
    25
390
0
  6
CONTINUOUS
 62
     7
100
AcDbLine
 10
154.1145
 20
194.534199
 30
0.0
 11
153.9773
 21
194.534199
 31
0.0
  0
LINE
  5
12C4
100
AcDbEntity
  8
10000_FRONT
370
    25
390
0
  6
CONTINUOUS
 62
     7
100
AcDbLine
 10
145.6773
 20
194.534199
 30
0.0
 11
145.6773
 21
196.592201
 31
0.0
  0
LINE
  5
12C5
100
AcDbEntity
  8
10000_FRONT
370
    25
390
0
  6
CONTINUOUS
 62
     7
100
AcDbLine
 10
145.6773
 20
196.592201
 30
0.0
 11
145.709456
 21
196.592201
 31
0.0
  0
LINE
  5
12C6
100
AcDbEntity
  8
10000_FRONT
370
    25
390
0
  6
CONTINUOUS
 62
     7
100
AcDbLine
 10
145.709456
 20
196.592201
 30
0.0
 11
146.92925
 21
194.910583
 31
0.0
  0
LINE
  5
12C7
100
AcDbEntity
  8
10000_FRONT
370
    25
390
0
  6
CONTINUOUS
 62
     7
100
AcDbLine
 10
146.92925
 20
194.910583
 30
0.0
 11
146.92925
 21
196.592201
 31
0.0
  0
LINE
  5
12C8
100
AcDbEntity
  8
10000_FRONT
370
    25
390
0
  6
CONTINUOUS
 62
     7
100
AcDbLine
 10
146.92925
 20
196.592201
 30
0.0
 11
147.06645
 21
196.592201
 31
0.0
  0
LINE
  5
12C9
100
AcDbEntity
  8
10000_FRONT
370
    25
390
0
  6
CONTINUOUS
 62
     7
100
AcDbLine
 10
147.06645
 20
196.592201
 30
0.0
 11
147.06645
 21
194.534199
 31
0.0
  0
LINE
  5
12CA
100
AcDbEntity
  8
10000_FRONT
370
    25
390
0
  6
CONTINUOUS
 62
     7
100
AcDbLine
 10
147.06645
 20
194.534199
 30
0.0
 11
147.032954
 21
194.534199
 31
0.0
  0
LINE
  5
12CB
100
AcDbEntity
  8
10000_FRONT
370
    25
390
0
  6
CONTINUOUS
 62
     7
100
AcDbLine
 10
147.032954
 20
194.534199
 30
0.0
 11
145.8145
 21
196.21582
 31
0.0
  0
LINE
  5
12CC
100
AcDbEntity
  8
10000_FRONT
370
    25
390
0
  6
CONTINUOUS
 62
     7
100
AcDbLine
 10
145.8145
 20
196.21582
 30
0.0
 11
145.8145
 21
194.534199
 31
0.0
  0
LINE
  5
12CD
100
AcDbEntity
  8
10000_FRONT
370
    25
390
0
  6
CONTINUOUS
 62
     7
100
AcDbLine
 10
145.8145
 20
194.534199
 30
0.0
 11
145.6773
 21
194.534199
 31
0.0
  0
LINE
  5
12CE
100
AcDbEntity
  8
10000_FRONT
370
    25
390
0
  6
CONTINUOUS
 62
     7
100
AcDbLine
 10
136.8773
 20
194.534199
 30
0.0
 11
136.8773
 21
196.592201
 31
0.0
  0
LINE
  5
12CF
100
AcDbEntity
  8
10000_FRONT
370
    25
390
0
  6
CONTINUOUS
 62
     7
100
AcDbLine
 10
136.8773
 20
196.592201
 30
0.0
 11
136.909456
 21
196.592201
 31
0.0
  0
LINE
  5
12D0
100
AcDbEntity
  8
10000_FRONT
370
    25
390
0
  6
CONTINUOUS
 62
     7
100
AcDbLine
 10
136.909456
 20
196.592201
 30
0.0
 11
138.12925
 21
194.910583
 31
0.0
  0
LINE
  5
12D1
100
AcDbEntity
  8
10000_FRONT
370
    25
390
0
  6
CONTINUOUS
 62
     7
100
AcDbLine
 10
138.12925
 20
194.910583
 30
0.0
 11
138.12925
 21
196.592201
 31
0.0
  0
LINE
  5
12D2
100
AcDbEntity
  8
10000_FRONT
370
    25
390
0
  6
CONTINUOUS
 62
     7
100
AcDbLine
 10
138.12925
 20
196.592201
 30
0.0
 11
138.26645
 21
196.592201
 31
0.0
  0
LINE
  5
12D3
100
AcDbEntity
  8
10000_FRONT
370
    25
390
0
  6
CONTINUOUS
 62
     7
100
AcDbLine
 10
138.26645
 20
196.592201
 30
0.0
 11
138.26645
 21
194.534199
 31
0.0
  0
LINE
  5
12D4
100
AcDbEntity
  8
10000_FRONT
370
    25
390
0
  6
CONTINUOUS
 62
     7
100
AcDbLine
 10
138.26645
 20
194.534199
 30
0.0
 11
138.232954
 21
194.534199
 31
0.0
  0
LINE
  5
12D5
100
AcDbEntity
  8
10000_FRONT
370
    25
390
0
  6
CONTINUOUS
 62
     7
100
AcDbLine
 10
138.232954
 20
194.534199
 30
0.0
 11
137.0145
 21
196.21582
 31
0.0
  0
LINE
  5
12D6
100
AcDbEntity
  8
10000_FRONT
370
    25
390
0
  6
CONTINUOUS
 62
     7
100
AcDbLine
 10
137.0145
 20
196.21582
 30
0.0
 11
137.0145
 21
194.534199
 31
0.0
  0
LINE
  5
12D7
100
AcDbEntity
  8
10000_FRONT
370
    25
390
0
  6
CONTINUOUS
 62
     7
100
AcDbLine
 10
137.0145
 20
194.534199
 30
0.0
 11
136.8773
 21
194.534199
 31
0.0
  0
LINE
  5
12D8
100
AcDbEntity
  8
10000_FRONT
370
    25
390
0
  6
CONTINUOUS
 62
     7
100
AcDbLine
 10
138.766534
 20
226.830038
 30
0.0
 11
138.671941
 21
227.027875
 31
0.0
  0
LINE
  5
12D9
100
AcDbEntity
  8
10000_FRONT
370
    25
390
0
  6
CONTINUOUS
 62
     7
100
AcDbLine
 10
138.671941
 20
227.027875
 30
0.0
 11
138.5744
 21
227.320957
 31
0.0
  0
LINE
  5
12DA
100
AcDbEntity
  8
10000_FRONT
370
    25
390
0
  6
CONTINUOUS
 62
     7
100
AcDbLine
 10
138.5744
 20
227.320957
 30
0.0
 11
138.5744
 21
227.805443
 31
0.0
  0
LINE
  5
12DB
100
AcDbEntity
  8
10000_FRONT
370
    25
390
0
  6
CONTINUOUS
 62
     7
100
AcDbLine
 10
138.5744
 20
227.805443
 30
0.0
 11
138.671941
 21
228.098525
 31
0.0
  0
LINE
  5
12DC
100
AcDbEntity
  8
10000_FRONT
370
    25
390
0
  6
CONTINUOUS
 62
     7
100
AcDbLine
 10
138.671941
 20
228.098525
 30
0.0
 11
138.766534
 21
228.296362
 31
0.0
  0
LINE
  5
12DD
100
AcDbEntity
  8
10000_FRONT
370
    25
390
0
  6
CONTINUOUS
 62
     7
100
AcDbLine
 10
138.766534
 20
228.296362
 30
0.0
 11
138.96483
 21
228.493282
 31
0.0
  0
LINE
  5
12DE
100
AcDbEntity
  8
10000_FRONT
370
    25
390
0
  6
CONTINUOUS
 62
     7
100
AcDbLine
 10
138.96483
 20
228.493282
 30
0.0
 11
139.164467
 21
228.5922
 31
0.0
  0
LINE
  5
12DF
100
AcDbEntity
  8
10000_FRONT
370
    25
390
0
  6
CONTINUOUS
 62
     7
100
AcDbLine
 10
139.164467
 20
228.5922
 30
0.0
 11
139.559721
 21
228.5922
 31
0.0
  0
LINE
  5
12E0
100
AcDbEntity
  8
10000_FRONT
370
    25
390
0
  6
CONTINUOUS
 62
     7
100
AcDbLine
 10
139.559721
 20
228.5922
 30
0.0
 11
139.760697
 21
228.494506
 31
0.0
  0
LINE
  5
12E1
100
AcDbEntity
  8
10000_FRONT
370
    25
390
0
  6
CONTINUOUS
 62
     7
100
AcDbLine
 10
139.760697
 20
228.494506
 30
0.0
 11
139.957655
 21
228.2982
 31
0.0
  0
LINE
  5
12E2
100
AcDbEntity
  8
10000_FRONT
370
    25
390
0
  6
CONTINUOUS
 62
     7
100
AcDbLine
 10
139.957655
 20
228.2982
 30
0.0
 11
140.070201
 21
228.07035
 31
0.0
  0
LINE
  5
12E3
100
AcDbEntity
  8
10000_FRONT
370
    25
390
0
  6
CONTINUOUS
 62
     7
100
AcDbLine
 10
140.070201
 20
228.07035
 30
0.0
 11
139.925499
 21
228.07035
 31
0.0
  0
LINE
  5
12E4
100
AcDbEntity
  8
10000_FRONT
370
    25
390
0
  6
CONTINUOUS
 62
     7
100
AcDbLine
 10
139.925499
 20
228.07035
 30
0.0
 11
139.82367
 21
228.270025
 31
0.0
  0
LINE
  5
12E5
100
AcDbEntity
  8
10000_FRONT
370
    25
390
0
  6
CONTINUOUS
 62
     7
100
AcDbLine
 10
139.82367
 20
228.270025
 30
0.0
 11
139.732561
 21
228.361288
 31
0.0
  0
LINE
  5
12E6
100
AcDbEntity
  8
10000_FRONT
370
    25
390
0
  6
CONTINUOUS
 62
     7
100
AcDbLine
 10
139.732561
 20
228.361288
 30
0.0
 11
139.549003
 21
228.455
 31
0.0
  0
LINE
  5
12E7
100
AcDbEntity
  8
10000_FRONT
370
    25
390
0
  6
CONTINUOUS
 62
     7
100
AcDbLine
 10
139.549003
 20
228.455
 30
0.0
 11
139.176526
 21
228.455
 31
0.0
  0
LINE
  5
12E8
100
AcDbEntity
  8
10000_FRONT
370
    25
390
0
  6
CONTINUOUS
 62
     7
100
AcDbLine
 10
139.176526
 20
228.455
 30
0.0
 11
138.991628
 21
228.363738
 31
0.0
  0
LINE
  5
12E9
100
AcDbEntity
  8
10000_FRONT
370
    25
390
0
  6
CONTINUOUS
 62
     7
100
AcDbLine
 10
138.991628
 20
228.363738
 30
0.0
 11
138.805388
 21
228.080762
 31
0.0
  0
LINE
  5
12EA
100
AcDbEntity
  8
10000_FRONT
370
    25
390
0
  6
CONTINUOUS
 62
     7
100
AcDbLine
 10
138.805388
 20
228.080762
 30
0.0
 11
138.7116
 21
227.800544
 31
0.0
  0
LINE
  5
12EB
100
AcDbEntity
  8
10000_FRONT
370
    25
390
0
  6
CONTINUOUS
 62
     7
100
AcDbLine
 10
138.7116
 20
227.800544
 30
0.0
 11
138.7116
 21
227.325857
 31
0.0
  0
LINE
  5
12EC
100
AcDbEntity
  8
10000_FRONT
370
    25
390
0
  6
CONTINUOUS
 62
     7
100
AcDbLine
 10
138.7116
 20
227.325857
 30
0.0
 11
138.805388
 21
227.045638
 31
0.0
  0
LINE
  5
12ED
100
AcDbEntity
  8
10000_FRONT
370
    25
390
0
  6
CONTINUOUS
 62
     7
100
AcDbLine
 10
138.805388
 20
227.045638
 30
0.0
 11
138.991628
 21
226.762662
 31
0.0
  0
LINE
  5
12EE
100
AcDbEntity
  8
10000_FRONT
370
    25
390
0
  6
CONTINUOUS
 62
     7
100
AcDbLine
 10
138.991628
 20
226.762662
 30
0.0
 11
139.176526
 21
226.6714
 31
0.0
  0
LINE
  5
12EF
100
AcDbEntity
  8
10000_FRONT
370
    25
390
0
  6
CONTINUOUS
 62
     7
100
AcDbLine
 10
139.176526
 20
226.6714
 30
0.0
 11
139.549003
 21
226.6714
 31
0.0
  0
LINE
  5
12F0
100
AcDbEntity
  8
10000_FRONT
370
    25
390
0
  6
CONTINUOUS
 62
     7
100
AcDbLine
 10
139.549003
 20
226.6714
 30
0.0
 11
139.732561
 21
226.765112
 31
0.0
  0
LINE
  5
12F1
100
AcDbEntity
  8
10000_FRONT
370
    25
390
0
  6
CONTINUOUS
 62
     7
100
AcDbLine
 10
139.732561
 20
226.765112
 30
0.0
 11
139.82367
 21
226.856375
 31
0.0
  0
LINE
  5
12F2
100
AcDbEntity
  8
10000_FRONT
370
    25
390
0
  6
CONTINUOUS
 62
     7
100
AcDbLine
 10
139.82367
 20
226.856375
 30
0.0
 11
139.925499
 21
227.05605
 31
0.0
  0
LINE
  5
12F3
100
AcDbEntity
  8
10000_FRONT
370
    25
390
0
  6
CONTINUOUS
 62
     7
100
AcDbLine
 10
139.925499
 20
227.05605
 30
0.0
 11
140.070201
 21
227.05605
 31
0.0
  0
LINE
  5
12F4
100
AcDbEntity
  8
10000_FRONT
370
    25
390
0
  6
CONTINUOUS
 62
     7
100
AcDbLine
 10
140.070201
 20
227.05605
 30
0.0
 11
139.957655
 21
226.8282
 31
0.0
  0
LINE
  5
12F5
100
AcDbEntity
  8
10000_FRONT
370
    25
390
0
  6
CONTINUOUS
 62
     7
100
AcDbLine
 10
139.957655
 20
226.8282
 30
0.0
 11
139.760697
 21
226.631894
 31
0.0
  0
LINE
  5
12F6
100
AcDbEntity
  8
10000_FRONT
370
    25
390
0
  6
CONTINUOUS
 62
     7
100
AcDbLine
 10
139.760697
 20
226.631894
 30
0.0
 11
139.559721
 21
226.5342
 31
0.0
  0
LINE
  5
12F7
100
AcDbEntity
  8
10000_FRONT
370
    25
390
0
  6
CONTINUOUS
 62
     7
100
AcDbLine
 10
139.559721
 20
226.5342
 30
0.0
 11
139.164467
 21
226.5342
 31
0.0
  0
LINE
  5
12F8
100
AcDbEntity
  8
10000_FRONT
370
    25
390
0
  6
CONTINUOUS
 62
     7
100
AcDbLine
 10
139.164467
 20
226.5342
 30
0.0
 11
138.96483
 21
226.633119
 31
0.0
  0
LINE
  5
12F9
100
AcDbEntity
  8
10000_FRONT
370
    25
390
0
  6
CONTINUOUS
 62
     7
100
AcDbLine
 10
138.96483
 20
226.633119
 30
0.0
 11
138.766534
 21
226.830038
 31
0.0
  0
LINE
  5
12FA
100
AcDbEntity
  8
10000_FRONT
370
    25
390
0
  6
CONTINUOUS
 62
     7
100
AcDbLine
 10
147.466534
 20
226.830038
 30
0.0
 11
147.371941
 21
227.027875
 31
0.0
  0
LINE
  5
12FB
100
AcDbEntity
  8
10000_FRONT
370
    25
390
0
  6
CONTINUOUS
 62
     7
100
AcDbLine
 10
147.371941
 20
227.027875
 30
0.0
 11
147.2744
 21
227.320957
 31
0.0
  0
LINE
  5
12FC
100
AcDbEntity
  8
10000_FRONT
370
    25
390
0
  6
CONTINUOUS
 62
     7
100
AcDbLine
 10
147.2744
 20
227.320957
 30
0.0
 11
147.2744
 21
227.805443
 31
0.0
  0
LINE
  5
12FD
100
AcDbEntity
  8
10000_FRONT
370
    25
390
0
  6
CONTINUOUS
 62
     7
100
AcDbLine
 10
147.2744
 20
227.805443
 30
0.0
 11
147.371941
 21
228.098525
 31
0.0
  0
LINE
  5
12FE
100
AcDbEntity
  8
10000_FRONT
370
    25
390
0
  6
CONTINUOUS
 62
     7
100
AcDbLine
 10
147.371941
 20
228.098525
 30
0.0
 11
147.466534
 21
228.296362
 31
0.0
  0
LINE
  5
12FF
100
AcDbEntity
  8
10000_FRONT
370
    25
390
0
  6
CONTINUOUS
 62
     7
100
AcDbLine
 10
147.466534
 20
228.296362
 30
0.0
 11
147.664831
 21
228.493282
 31
0.0
  0
LINE
  5
1300
100
AcDbEntity
  8
10000_FRONT
370
    25
390
0
  6
CONTINUOUS
 62
     7
100
AcDbLine
 10
147.664831
 20
228.493282
 30
0.0
 11
147.864467
 21
228.5922
 31
0.0
  0
LINE
  5
1301
100
AcDbEntity
  8
10000_FRONT
370
    25
390
0
  6
CONTINUOUS
 62
     7
100
AcDbLine
 10
147.864467
 20
228.5922
 30
0.0
 11
148.259722
 21
228.5922
 31
0.0
  0
LINE
  5
1302
100
AcDbEntity
  8
10000_FRONT
370
    25
390
0
  6
CONTINUOUS
 62
     7
100
AcDbLine
 10
148.259722
 20
228.5922
 30
0.0
 11
148.460698
 21
228.494506
 31
0.0
  0
LINE
  5
1303
100
AcDbEntity
  8
10000_FRONT
370
    25
390
0
  6
CONTINUOUS
 62
     7
100
AcDbLine
 10
148.460698
 20
228.494506
 30
0.0
 11
148.657655
 21
228.2982
 31
0.0
  0
LINE
  5
1304
100
AcDbEntity
  8
10000_FRONT
370
    25
390
0
  6
CONTINUOUS
 62
     7
100
AcDbLine
 10
148.657655
 20
228.2982
 30
0.0
 11
148.770201
 21
228.07035
 31
0.0
  0
LINE
  5
1305
100
AcDbEntity
  8
10000_FRONT
370
    25
390
0
  6
CONTINUOUS
 62
     7
100
AcDbLine
 10
148.770201
 20
228.07035
 30
0.0
 11
148.625499
 21
228.07035
 31
0.0
  0
LINE
  5
1306
100
AcDbEntity
  8
10000_FRONT
370
    25
390
0
  6
CONTINUOUS
 62
     7
100
AcDbLine
 10
148.625499
 20
228.07035
 30
0.0
 11
148.52367
 21
228.270025
 31
0.0
  0
LINE
  5
1307
100
AcDbEntity
  8
10000_FRONT
370
    25
390
0
  6
CONTINUOUS
 62
     7
100
AcDbLine
 10
148.52367
 20
228.270025
 30
0.0
 11
148.432561
 21
228.361288
 31
0.0
  0
LINE
  5
1308
100
AcDbEntity
  8
10000_FRONT
370
    25
390
0
  6
CONTINUOUS
 62
     7
100
AcDbLine
 10
148.432561
 20
228.361288
 30
0.0
 11
148.249002
 21
228.455
 31
0.0
  0
LINE
  5
1309
100
AcDbEntity
  8
10000_FRONT
370
    25
390
0
  6
CONTINUOUS
 62
     7
100
AcDbLine
 10
148.249002
 20
228.455
 30
0.0
 11
147.876526
 21
228.455
 31
0.0
  0
LINE
  5
130A
100
AcDbEntity
  8
10000_FRONT
370
    25
390
0
  6
CONTINUOUS
 62
     7
100
AcDbLine
 10
147.876526
 20
228.455
 30
0.0
 11
147.691627
 21
228.363738
 31
0.0
  0
LINE
  5
130B
100
AcDbEntity
  8
10000_FRONT
370
    25
390
0
  6
CONTINUOUS
 62
     7
100
AcDbLine
 10
147.691627
 20
228.363738
 30
0.0
 11
147.505389
 21
228.080762
 31
0.0
  0
LINE
  5
130C
100
AcDbEntity
  8
10000_FRONT
370
    25
390
0
  6
CONTINUOUS
 62
     7
100
AcDbLine
 10
147.505389
 20
228.080762
 30
0.0
 11
147.4116
 21
227.800544
 31
0.0
  0
LINE
  5
130D
100
AcDbEntity
  8
10000_FRONT
370
    25
390
0
  6
CONTINUOUS
 62
     7
100
AcDbLine
 10
147.4116
 20
227.800544
 30
0.0
 11
147.4116
 21
227.325857
 31
0.0
  0
LINE
  5
130E
100
AcDbEntity
  8
10000_FRONT
370
    25
390
0
  6
CONTINUOUS
 62
     7
100
AcDbLine
 10
147.4116
 20
227.325857
 30
0.0
 11
147.505389
 21
227.045638
 31
0.0
  0
LINE
  5
130F
100
AcDbEntity
  8
10000_FRONT
370
    25
390
0
  6
CONTINUOUS
 62
     7
100
AcDbLine
 10
147.505389
 20
227.045638
 30
0.0
 11
147.691627
 21
226.762662
 31
0.0
  0
LINE
  5
1310
100
AcDbEntity
  8
10000_FRONT
370
    25
390
0
  6
CONTINUOUS
 62
     7
100
AcDbLine
 10
147.691627
 20
226.762662
 30
0.0
 11
147.876526
 21
226.6714
 31
0.0
  0
LINE
  5
1311
100
AcDbEntity
  8
10000_FRONT
370
    25
390
0
  6
CONTINUOUS
 62
     7
100
AcDbLine
 10
147.876526
 20
226.6714
 30
0.0
 11
148.249002
 21
226.6714
 31
0.0
  0
LINE
  5
1312
100
AcDbEntity
  8
10000_FRONT
370
    25
390
0
  6
CONTINUOUS
 62
     7
100
AcDbLine
 10
148.249002
 20
226.6714
 30
0.0
 11
148.432561
 21
226.765112
 31
0.0
  0
LINE
  5
1313
100
AcDbEntity
  8
10000_FRONT
370
    25
390
0
  6
CONTINUOUS
 62
     7
100
AcDbLine
 10
148.432561
 20
226.765112
 30
0.0
 11
148.52367
 21
226.856375
 31
0.0
  0
LINE
  5
1314
100
AcDbEntity
  8
10000_FRONT
370
    25
390
0
  6
CONTINUOUS
 62
     7
100
AcDbLine
 10
148.52367
 20
226.856375
 30
0.0
 11
148.625499
 21
227.05605
 31
0.0
  0
LINE
  5
1315
100
AcDbEntity
  8
10000_FRONT
370
    25
390
0
  6
CONTINUOUS
 62
     7
100
AcDbLine
 10
148.625499
 20
227.05605
 30
0.0
 11
148.770201
 21
227.05605
 31
0.0
  0
LINE
  5
1316
100
AcDbEntity
  8
10000_FRONT
370
    25
390
0
  6
CONTINUOUS
 62
     7
100
AcDbLine
 10
148.770201
 20
227.05605
 30
0.0
 11
148.657655
 21
226.8282
 31
0.0
  0
LINE
  5
1317
100
AcDbEntity
  8
10000_FRONT
370
    25
390
0
  6
CONTINUOUS
 62
     7
100
AcDbLine
 10
148.657655
 20
226.8282
 30
0.0
 11
148.460698
 21
226.631894
 31
0.0
  0
LINE
  5
1318
100
AcDbEntity
  8
10000_FRONT
370
    25
390
0
  6
CONTINUOUS
 62
     7
100
AcDbLine
 10
148.460698
 20
226.631894
 30
0.0
 11
148.259722
 21
226.5342
 31
0.0
  0
LINE
  5
1319
100
AcDbEntity
  8
10000_FRONT
370
    25
390
0
  6
CONTINUOUS
 62
     7
100
AcDbLine
 10
148.259722
 20
226.5342
 30
0.0
 11
147.864467
 21
226.5342
 31
0.0
  0
LINE
  5
131A
100
AcDbEntity
  8
10000_FRONT
370
    25
390
0
  6
CONTINUOUS
 62
     7
100
AcDbLine
 10
147.864467
 20
226.5342
 30
0.0
 11
147.664831
 21
226.633119
 31
0.0
  0
LINE
  5
131B
100
AcDbEntity
  8
10000_FRONT
370
    25
390
0
  6
CONTINUOUS
 62
     7
100
AcDbLine
 10
147.664831
 20
226.633119
 30
0.0
 11
147.466534
 21
226.830038
 31
0.0
  0
LINE
  5
131C
100
AcDbEntity
  8
10000_FRONT
370
    25
390
0
  6
CONTINUOUS
 62
     7
100
AcDbLine
 10
155.766534
 20
226.830038
 30
0.0
 11
155.671941
 21
227.027875
 31
0.0
  0
LINE
  5
131D
100
AcDbEntity
  8
10000_FRONT
370
    25
390
0
  6
CONTINUOUS
 62
     7
100
AcDbLine
 10
155.671941
 20
227.027875
 30
0.0
 11
155.5744
 21
227.320957
 31
0.0
  0
LINE
  5
131E
100
AcDbEntity
  8
10000_FRONT
370
    25
390
0
  6
CONTINUOUS
 62
     7
100
AcDbLine
 10
155.5744
 20
227.320957
 30
0.0
 11
155.5744
 21
227.805443
 31
0.0
  0
LINE
  5
131F
100
AcDbEntity
  8
10000_FRONT
370
    25
390
0
  6
CONTINUOUS
 62
     7
100
AcDbLine
 10
155.5744
 20
227.805443
 30
0.0
 11
155.671941
 21
228.098525
 31
0.0
  0
LINE
  5
1320
100
AcDbEntity
  8
10000_FRONT
370
    25
390
0
  6
CONTINUOUS
 62
     7
100
AcDbLine
 10
155.671941
 20
228.098525
 30
0.0
 11
155.766534
 21
228.296362
 31
0.0
  0
LINE
  5
1321
100
AcDbEntity
  8
10000_FRONT
370
    25
390
0
  6
CONTINUOUS
 62
     7
100
AcDbLine
 10
155.766534
 20
228.296362
 30
0.0
 11
155.96483
 21
228.493282
 31
0.0
  0
LINE
  5
1322
100
AcDbEntity
  8
10000_FRONT
370
    25
390
0
  6
CONTINUOUS
 62
     7
100
AcDbLine
 10
155.96483
 20
228.493282
 30
0.0
 11
156.164467
 21
228.5922
 31
0.0
  0
LINE
  5
1323
100
AcDbEntity
  8
10000_FRONT
370
    25
390
0
  6
CONTINUOUS
 62
     7
100
AcDbLine
 10
156.164467
 20
228.5922
 30
0.0
 11
156.559721
 21
228.5922
 31
0.0
  0
LINE
  5
1324
100
AcDbEntity
  8
10000_FRONT
370
    25
390
0
  6
CONTINUOUS
 62
     7
100
AcDbLine
 10
156.559721
 20
228.5922
 30
0.0
 11
156.760698
 21
228.494506
 31
0.0
  0
LINE
  5
1325
100
AcDbEntity
  8
10000_FRONT
370
    25
390
0
  6
CONTINUOUS
 62
     7
100
AcDbLine
 10
156.760698
 20
228.494506
 30
0.0
 11
156.957654
 21
228.2982
 31
0.0
  0
LINE
  5
1326
100
AcDbEntity
  8
10000_FRONT
370
    25
390
0
  6
CONTINUOUS
 62
     7
100
AcDbLine
 10
156.957654
 20
228.2982
 30
0.0
 11
157.070201
 21
228.07035
 31
0.0
  0
LINE
  5
1327
100
AcDbEntity
  8
10000_FRONT
370
    25
390
0
  6
CONTINUOUS
 62
     7
100
AcDbLine
 10
157.070201
 20
228.07035
 30
0.0
 11
156.925498
 21
228.07035
 31
0.0
  0
LINE
  5
1328
100
AcDbEntity
  8
10000_FRONT
370
    25
390
0
  6
CONTINUOUS
 62
     7
100
AcDbLine
 10
156.925498
 20
228.07035
 30
0.0
 11
156.82367
 21
228.270025
 31
0.0
  0
LINE
  5
1329
100
AcDbEntity
  8
10000_FRONT
370
    25
390
0
  6
CONTINUOUS
 62
     7
100
AcDbLine
 10
156.82367
 20
228.270025
 30
0.0
 11
156.732561
 21
228.361288
 31
0.0
  0
LINE
  5
132A
100
AcDbEntity
  8
10000_FRONT
370
    25
390
0
  6
CONTINUOUS
 62
     7
100
AcDbLine
 10
156.732561
 20
228.361288
 30
0.0
 11
156.549002
 21
228.455
 31
0.0
  0
LINE
  5
132B
100
AcDbEntity
  8
10000_FRONT
370
    25
390
0
  6
CONTINUOUS
 62
     7
100
AcDbLine
 10
156.549002
 20
228.455
 30
0.0
 11
156.176526
 21
228.455
 31
0.0
  0
LINE
  5
132C
100
AcDbEntity
  8
10000_FRONT
370
    25
390
0
  6
CONTINUOUS
 62
     7
100
AcDbLine
 10
156.176526
 20
228.455
 30
0.0
 11
155.991627
 21
228.363738
 31
0.0
  0
LINE
  5
132D
100
AcDbEntity
  8
10000_FRONT
370
    25
390
0
  6
CONTINUOUS
 62
     7
100
AcDbLine
 10
155.991627
 20
228.363738
 30
0.0
 11
155.805389
 21
228.080762
 31
0.0
  0
LINE
  5
132E
100
AcDbEntity
  8
10000_FRONT
370
    25
390
0
  6
CONTINUOUS
 62
     7
100
AcDbLine
 10
155.805389
 20
228.080762
 30
0.0
 11
155.7116
 21
227.800544
 31
0.0
  0
LINE
  5
132F
100
AcDbEntity
  8
10000_FRONT
370
    25
390
0
  6
CONTINUOUS
 62
     7
100
AcDbLine
 10
155.7116
 20
227.800544
 30
0.0
 11
155.7116
 21
227.325857
 31
0.0
  0
LINE
  5
1330
100
AcDbEntity
  8
10000_FRONT
370
    25
390
0
  6
CONTINUOUS
 62
     7
100
AcDbLine
 10
155.7116
 20
227.325857
 30
0.0
 11
155.805389
 21
227.045638
 31
0.0
  0
LINE
  5
1331
100
AcDbEntity
  8
10000_FRONT
370
    25
390
0
  6
CONTINUOUS
 62
     7
100
AcDbLine
 10
155.805389
 20
227.045638
 30
0.0
 11
155.991627
 21
226.762662
 31
0.0
  0
LINE
  5
1332
100
AcDbEntity
  8
10000_FRONT
370
    25
390
0
  6
CONTINUOUS
 62
     7
100
AcDbLine
 10
155.991627
 20
226.762662
 30
0.0
 11
156.176526
 21
226.6714
 31
0.0
  0
LINE
  5
1333
100
AcDbEntity
  8
10000_FRONT
370
    25
390
0
  6
CONTINUOUS
 62
     7
100
AcDbLine
 10
156.176526
 20
226.6714
 30
0.0
 11
156.549002
 21
226.6714
 31
0.0
  0
LINE
  5
1334
100
AcDbEntity
  8
10000_FRONT
370
    25
390
0
  6
CONTINUOUS
 62
     7
100
AcDbLine
 10
156.549002
 20
226.6714
 30
0.0
 11
156.732561
 21
226.765112
 31
0.0
  0
LINE
  5
1335
100
AcDbEntity
  8
10000_FRONT
370
    25
390
0
  6
CONTINUOUS
 62
     7
100
AcDbLine
 10
156.732561
 20
226.765112
 30
0.0
 11
156.82367
 21
226.856375
 31
0.0
  0
LINE
  5
1336
100
AcDbEntity
  8
10000_FRONT
370
    25
390
0
  6
CONTINUOUS
 62
     7
100
AcDbLine
 10
156.82367
 20
226.856375
 30
0.0
 11
156.925498
 21
227.05605
 31
0.0
  0
LINE
  5
1337
100
AcDbEntity
  8
10000_FRONT
370
    25
390
0
  6
CONTINUOUS
 62
     7
100
AcDbLine
 10
156.925498
 20
227.05605
 30
0.0
 11
157.070201
 21
227.05605
 31
0.0
  0
LINE
  5
1338
100
AcDbEntity
  8
10000_FRONT
370
    25
390
0
  6
CONTINUOUS
 62
     7
100
AcDbLine
 10
157.070201
 20
227.05605
 30
0.0
 11
156.957654
 21
226.8282
 31
0.0
  0
LINE
  5
1339
100
AcDbEntity
  8
10000_FRONT
370
    25
390
0
  6
CONTINUOUS
 62
     7
100
AcDbLine
 10
156.957654
 20
226.8282
 30
0.0
 11
156.760698
 21
226.631894
 31
0.0
  0
LINE
  5
133A
100
AcDbEntity
  8
10000_FRONT
370
    25
390
0
  6
CONTINUOUS
 62
     7
100
AcDbLine
 10
156.760698
 20
226.631894
 30
0.0
 11
156.559721
 21
226.5342
 31
0.0
  0
LINE
  5
133B
100
AcDbEntity
  8
10000_FRONT
370
    25
390
0
  6
CONTINUOUS
 62
     7
100
AcDbLine
 10
156.559721
 20
226.5342
 30
0.0
 11
156.164467
 21
226.5342
 31
0.0
  0
LINE
  5
133C
100
AcDbEntity
  8
10000_FRONT
370
    25
390
0
  6
CONTINUOUS
 62
     7
100
AcDbLine
 10
156.164467
 20
226.5342
 30
0.0
 11
155.96483
 21
226.633119
 31
0.0
  0
LINE
  5
133D
100
AcDbEntity
  8
10000_FRONT
370
    25
390
0
  6
CONTINUOUS
 62
     7
100
AcDbLine
 10
155.96483
 20
226.633119
 30
0.0
 11
155.766534
 21
226.830038
 31
0.0
  0
LINE
  5
133E
100
AcDbEntity
  8
10000_FRONT
370
    25
390
0
  6
CONTINUOUS
 62
     7
100
AcDbLine
 10
164.466534
 20
226.830038
 30
0.0
 11
164.371941
 21
227.027875
 31
0.0
  0
LINE
  5
133F
100
AcDbEntity
  8
10000_FRONT
370
    25
390
0
  6
CONTINUOUS
 62
     7
100
AcDbLine
 10
164.371941
 20
227.027875
 30
0.0
 11
164.2744
 21
227.320957
 31
0.0
  0
LINE
  5
1340
100
AcDbEntity
  8
10000_FRONT
370
    25
390
0
  6
CONTINUOUS
 62
     7
100
AcDbLine
 10
164.2744
 20
227.320957
 30
0.0
 11
164.2744
 21
227.805443
 31
0.0
  0
LINE
  5
1341
100
AcDbEntity
  8
10000_FRONT
370
    25
390
0
  6
CONTINUOUS
 62
     7
100
AcDbLine
 10
164.2744
 20
227.805443
 30
0.0
 11
164.371941
 21
228.098525
 31
0.0
  0
LINE
  5
1342
100
AcDbEntity
  8
10000_FRONT
370
    25
390
0
  6
CONTINUOUS
 62
     7
100
AcDbLine
 10
164.371941
 20
228.098525
 30
0.0
 11
164.466534
 21
228.296362
 31
0.0
  0
LINE
  5
1343
100
AcDbEntity
  8
10000_FRONT
370
    25
390
0
  6
CONTINUOUS
 62
     7
100
AcDbLine
 10
164.466534
 20
228.296362
 30
0.0
 11
164.66483
 21
228.493282
 31
0.0
  0
LINE
  5
1344
100
AcDbEntity
  8
10000_FRONT
370
    25
390
0
  6
CONTINUOUS
 62
     7
100
AcDbLine
 10
164.66483
 20
228.493282
 30
0.0
 11
164.864467
 21
228.5922
 31
0.0
  0
LINE
  5
1345
100
AcDbEntity
  8
10000_FRONT
370
    25
390
0
  6
CONTINUOUS
 62
     7
100
AcDbLine
 10
164.864467
 20
228.5922
 30
0.0
 11
165.259722
 21
228.5922
 31
0.0
  0
LINE
  5
1346
100
AcDbEntity
  8
10000_FRONT
370
    25
390
0
  6
CONTINUOUS
 62
     7
100
AcDbLine
 10
165.259722
 20
228.5922
 30
0.0
 11
165.460698
 21
228.494506
 31
0.0
  0
LINE
  5
1347
100
AcDbEntity
  8
10000_FRONT
370
    25
390
0
  6
CONTINUOUS
 62
     7
100
AcDbLine
 10
165.460698
 20
228.494506
 30
0.0
 11
165.657655
 21
228.2982
 31
0.0
  0
LINE
  5
1348
100
AcDbEntity
  8
10000_FRONT
370
    25
390
0
  6
CONTINUOUS
 62
     7
100
AcDbLine
 10
165.657655
 20
228.2982
 30
0.0
 11
165.770202
 21
228.07035
 31
0.0
  0
LINE
  5
1349
100
AcDbEntity
  8
10000_FRONT
370
    25
390
0
  6
CONTINUOUS
 62
     7
100
AcDbLine
 10
165.770202
 20
228.07035
 30
0.0
 11
165.625499
 21
228.07035
 31
0.0
  0
LINE
  5
134A
100
AcDbEntity
  8
10000_FRONT
370
    25
390
0
  6
CONTINUOUS
 62
     7
100
AcDbLine
 10
165.625499
 20
228.07035
 30
0.0
 11
165.52367
 21
228.270025
 31
0.0
  0
LINE
  5
134B
100
AcDbEntity
  8
10000_FRONT
370
    25
390
0
  6
CONTINUOUS
 62
     7
100
AcDbLine
 10
165.52367
 20
228.270025
 30
0.0
 11
165.432561
 21
228.361288
 31
0.0
  0
LINE
  5
134C
100
AcDbEntity
  8
10000_FRONT
370
    25
390
0
  6
CONTINUOUS
 62
     7
100
AcDbLine
 10
165.432561
 20
228.361288
 30
0.0
 11
165.249002
 21
228.455
 31
0.0
  0
LINE
  5
134D
100
AcDbEntity
  8
10000_FRONT
370
    25
390
0
  6
CONTINUOUS
 62
     7
100
AcDbLine
 10
165.249002
 20
228.455
 30
0.0
 11
164.876526
 21
228.455
 31
0.0
  0
LINE
  5
134E
100
AcDbEntity
  8
10000_FRONT
370
    25
390
0
  6
CONTINUOUS
 62
     7
100
AcDbLine
 10
164.876526
 20
228.455
 30
0.0
 11
164.691628
 21
228.363738
 31
0.0
  0
LINE
  5
134F
100
AcDbEntity
  8
10000_FRONT
370
    25
390
0
  6
CONTINUOUS
 62
     7
100
AcDbLine
 10
164.691628
 20
228.363738
 30
0.0
 11
164.505389
 21
228.080762
 31
0.0
  0
LINE
  5
1350
100
AcDbEntity
  8
10000_FRONT
370
    25
390
0
  6
CONTINUOUS
 62
     7
100
AcDbLine
 10
164.505389
 20
228.080762
 30
0.0
 11
164.4116
 21
227.800544
 31
0.0
  0
LINE
  5
1351
100
AcDbEntity
  8
10000_FRONT
370
    25
390
0
  6
CONTINUOUS
 62
     7
100
AcDbLine
 10
164.4116
 20
227.800544
 30
0.0
 11
164.4116
 21
227.325857
 31
0.0
  0
LINE
  5
1352
100
AcDbEntity
  8
10000_FRONT
370
    25
390
0
  6
CONTINUOUS
 62
     7
100
AcDbLine
 10
164.4116
 20
227.325857
 30
0.0
 11
164.505389
 21
227.045638
 31
0.0
  0
LINE
  5
1353
100
AcDbEntity
  8
10000_FRONT
370
    25
390
0
  6
CONTINUOUS
 62
     7
100
AcDbLine
 10
164.505389
 20
227.045638
 30
0.0
 11
164.691628
 21
226.762662
 31
0.0
  0
LINE
  5
1354
100
AcDbEntity
  8
10000_FRONT
370
    25
390
0
  6
CONTINUOUS
 62
     7
100
AcDbLine
 10
164.691628
 20
226.762662
 30
0.0
 11
164.876526
 21
226.6714
 31
0.0
  0
LINE
  5
1355
100
AcDbEntity
  8
10000_FRONT
370
    25
390
0
  6
CONTINUOUS
 62
     7
100
AcDbLine
 10
164.876526
 20
226.6714
 30
0.0
 11
165.249002
 21
226.6714
 31
0.0
  0
LINE
  5
1356
100
AcDbEntity
  8
10000_FRONT
370
    25
390
0
  6
CONTINUOUS
 62
     7
100
AcDbLine
 10
165.249002
 20
226.6714
 30
0.0
 11
165.432561
 21
226.765112
 31
0.0
  0
LINE
  5
1357
100
AcDbEntity
  8
10000_FRONT
370
    25
390
0
  6
CONTINUOUS
 62
     7
100
AcDbLine
 10
165.432561
 20
226.765112
 30
0.0
 11
165.52367
 21
226.856375
 31
0.0
  0
LINE
  5
1358
100
AcDbEntity
  8
10000_FRONT
370
    25
390
0
  6
CONTINUOUS
 62
     7
100
AcDbLine
 10
165.52367
 20
226.856375
 30
0.0
 11
165.625499
 21
227.05605
 31
0.0
  0
LINE
  5
1359
100
AcDbEntity
  8
10000_FRONT
370
    25
390
0
  6
CONTINUOUS
 62
     7
100
AcDbLine
 10
165.625499
 20
227.05605
 30
0.0
 11
165.770202
 21
227.05605
 31
0.0
  0
LINE
  5
135A
100
AcDbEntity
  8
10000_FRONT
370
    25
390
0
  6
CONTINUOUS
 62
     7
100
AcDbLine
 10
165.770202
 20
227.05605
 30
0.0
 11
165.657655
 21
226.8282
 31
0.0
  0
LINE
  5
135B
100
AcDbEntity
  8
10000_FRONT
370
    25
390
0
  6
CONTINUOUS
 62
     7
100
AcDbLine
 10
165.657655
 20
226.8282
 30
0.0
 11
165.460698
 21
226.631894
 31
0.0
  0
LINE
  5
135C
100
AcDbEntity
  8
10000_FRONT
370
    25
390
0
  6
CONTINUOUS
 62
     7
100
AcDbLine
 10
165.460698
 20
226.631894
 30
0.0
 11
165.259722
 21
226.5342
 31
0.0
  0
LINE
  5
135D
100
AcDbEntity
  8
10000_FRONT
370
    25
390
0
  6
CONTINUOUS
 62
     7
100
AcDbLine
 10
165.259722
 20
226.5342
 30
0.0
 11
164.864467
 21
226.5342
 31
0.0
  0
LINE
  5
135E
100
AcDbEntity
  8
10000_FRONT
370
    25
390
0
  6
CONTINUOUS
 62
     7
100
AcDbLine
 10
164.864467
 20
226.5342
 30
0.0
 11
164.66483
 21
226.633119
 31
0.0
  0
LINE
  5
135F
100
AcDbEntity
  8
10000_FRONT
370
    25
390
0
  6
CONTINUOUS
 62
     7
100
AcDbLine
 10
164.66483
 20
226.633119
 30
0.0
 11
164.466534
 21
226.830038
 31
0.0
  0
LINE
  5
1360
100
AcDbEntity
  8
10000_FRONT
370
    25
390
0
  6
CONTINUOUS
 62
     7
100
AcDbLine
 10
162.6773
 20
226.5342
 30
0.0
 11
162.6773
 21
228.5922
 31
0.0
  0
LINE
  5
1361
100
AcDbEntity
  8
10000_FRONT
370
    25
390
0
  6
CONTINUOUS
 62
     7
100
AcDbLine
 10
162.6773
 20
228.5922
 30
0.0
 11
162.709456
 21
228.5922
 31
0.0
  0
LINE
  5
1362
100
AcDbEntity
  8
10000_FRONT
370
    25
390
0
  6
CONTINUOUS
 62
     7
100
AcDbLine
 10
162.709456
 20
228.5922
 30
0.0
 11
163.92925
 21
226.910582
 31
0.0
  0
LINE
  5
1363
100
AcDbEntity
  8
10000_FRONT
370
    25
390
0
  6
CONTINUOUS
 62
     7
100
AcDbLine
 10
163.92925
 20
226.910582
 30
0.0
 11
163.92925
 21
228.5922
 31
0.0
  0
LINE
  5
1364
100
AcDbEntity
  8
10000_FRONT
370
    25
390
0
  6
CONTINUOUS
 62
     7
100
AcDbLine
 10
163.92925
 20
228.5922
 30
0.0
 11
164.06645
 21
228.5922
 31
0.0
  0
LINE
  5
1365
100
AcDbEntity
  8
10000_FRONT
370
    25
390
0
  6
CONTINUOUS
 62
     7
100
AcDbLine
 10
164.06645
 20
228.5922
 30
0.0
 11
164.06645
 21
226.5342
 31
0.0
  0
LINE
  5
1366
100
AcDbEntity
  8
10000_FRONT
370
    25
390
0
  6
CONTINUOUS
 62
     7
100
AcDbLine
 10
164.06645
 20
226.5342
 30
0.0
 11
164.032953
 21
226.5342
 31
0.0
  0
LINE
  5
1367
100
AcDbEntity
  8
10000_FRONT
370
    25
390
0
  6
CONTINUOUS
 62
     7
100
AcDbLine
 10
164.032953
 20
226.5342
 30
0.0
 11
162.8145
 21
228.215819
 31
0.0
  0
LINE
  5
1368
100
AcDbEntity
  8
10000_FRONT
370
    25
390
0
  6
CONTINUOUS
 62
     7
100
AcDbLine
 10
162.8145
 20
228.215819
 30
0.0
 11
162.8145
 21
226.5342
 31
0.0
  0
LINE
  5
1369
100
AcDbEntity
  8
10000_FRONT
370
    25
390
0
  6
CONTINUOUS
 62
     7
100
AcDbLine
 10
162.8145
 20
226.5342
 30
0.0
 11
162.6773
 21
226.5342
 31
0.0
  0
LINE
  5
136A
100
AcDbEntity
  8
10000_FRONT
370
    25
390
0
  6
CONTINUOUS
 62
     7
100
AcDbLine
 10
153.9773
 20
226.5342
 30
0.0
 11
153.9773
 21
228.5922
 31
0.0
  0
LINE
  5
136B
100
AcDbEntity
  8
10000_FRONT
370
    25
390
0
  6
CONTINUOUS
 62
     7
100
AcDbLine
 10
153.9773
 20
228.5922
 30
0.0
 11
154.009457
 21
228.5922
 31
0.0
  0
LINE
  5
136C
100
AcDbEntity
  8
10000_FRONT
370
    25
390
0
  6
CONTINUOUS
 62
     7
100
AcDbLine
 10
154.009457
 20
228.5922
 30
0.0
 11
155.22925
 21
226.910582
 31
0.0
  0
LINE
  5
136D
100
AcDbEntity
  8
10000_FRONT
370
    25
390
0
  6
CONTINUOUS
 62
     7
100
AcDbLine
 10
155.22925
 20
226.910582
 30
0.0
 11
155.22925
 21
228.5922
 31
0.0
  0
LINE
  5
136E
100
AcDbEntity
  8
10000_FRONT
370
    25
390
0
  6
CONTINUOUS
 62
     7
100
AcDbLine
 10
155.22925
 20
228.5922
 30
0.0
 11
155.36645
 21
228.5922
 31
0.0
  0
LINE
  5
136F
100
AcDbEntity
  8
10000_FRONT
370
    25
390
0
  6
CONTINUOUS
 62
     7
100
AcDbLine
 10
155.36645
 20
228.5922
 30
0.0
 11
155.36645
 21
226.5342
 31
0.0
  0
LINE
  5
1370
100
AcDbEntity
  8
10000_FRONT
370
    25
390
0
  6
CONTINUOUS
 62
     7
100
AcDbLine
 10
155.36645
 20
226.5342
 30
0.0
 11
155.332953
 21
226.5342
 31
0.0
  0
LINE
  5
1371
100
AcDbEntity
  8
10000_FRONT
370
    25
390
0
  6
CONTINUOUS
 62
     7
100
AcDbLine
 10
155.332953
 20
226.5342
 30
0.0
 11
154.1145
 21
228.215819
 31
0.0
  0
LINE
  5
1372
100
AcDbEntity
  8
10000_FRONT
370
    25
390
0
  6
CONTINUOUS
 62
     7
100
AcDbLine
 10
154.1145
 20
228.215819
 30
0.0
 11
154.1145
 21
226.5342
 31
0.0
  0
LINE
  5
1373
100
AcDbEntity
  8
10000_FRONT
370
    25
390
0
  6
CONTINUOUS
 62
     7
100
AcDbLine
 10
154.1145
 20
226.5342
 30
0.0
 11
153.9773
 21
226.5342
 31
0.0
  0
LINE
  5
1374
100
AcDbEntity
  8
10000_FRONT
370
    25
390
0
  6
CONTINUOUS
 62
     7
100
AcDbLine
 10
145.6773
 20
226.5342
 30
0.0
 11
145.6773
 21
228.5922
 31
0.0
  0
LINE
  5
1375
100
AcDbEntity
  8
10000_FRONT
370
    25
390
0
  6
CONTINUOUS
 62
     7
100
AcDbLine
 10
145.6773
 20
228.5922
 30
0.0
 11
145.709456
 21
228.5922
 31
0.0
  0
LINE
  5
1376
100
AcDbEntity
  8
10000_FRONT
370
    25
390
0
  6
CONTINUOUS
 62
     7
100
AcDbLine
 10
145.709456
 20
228.5922
 30
0.0
 11
146.92925
 21
226.910582
 31
0.0
  0
LINE
  5
1377
100
AcDbEntity
  8
10000_FRONT
370
    25
390
0
  6
CONTINUOUS
 62
     7
100
AcDbLine
 10
146.92925
 20
226.910582
 30
0.0
 11
146.92925
 21
228.5922
 31
0.0
  0
LINE
  5
1378
100
AcDbEntity
  8
10000_FRONT
370
    25
390
0
  6
CONTINUOUS
 62
     7
100
AcDbLine
 10
146.92925
 20
228.5922
 30
0.0
 11
147.06645
 21
228.5922
 31
0.0
  0
LINE
  5
1379
100
AcDbEntity
  8
10000_FRONT
370
    25
390
0
  6
CONTINUOUS
 62
     7
100
AcDbLine
 10
147.06645
 20
228.5922
 30
0.0
 11
147.06645
 21
226.5342
 31
0.0
  0
LINE
  5
137A
100
AcDbEntity
  8
10000_FRONT
370
    25
390
0
  6
CONTINUOUS
 62
     7
100
AcDbLine
 10
147.06645
 20
226.5342
 30
0.0
 11
147.032954
 21
226.5342
 31
0.0
  0
LINE
  5
137B
100
AcDbEntity
  8
10000_FRONT
370
    25
390
0
  6
CONTINUOUS
 62
     7
100
AcDbLine
 10
147.032954
 20
226.5342
 30
0.0
 11
145.8145
 21
228.215819
 31
0.0
  0
LINE
  5
137C
100
AcDbEntity
  8
10000_FRONT
370
    25
390
0
  6
CONTINUOUS
 62
     7
100
AcDbLine
 10
145.8145
 20
228.215819
 30
0.0
 11
145.8145
 21
226.5342
 31
0.0
  0
LINE
  5
137D
100
AcDbEntity
  8
10000_FRONT
370
    25
390
0
  6
CONTINUOUS
 62
     7
100
AcDbLine
 10
145.8145
 20
226.5342
 30
0.0
 11
145.6773
 21
226.5342
 31
0.0
  0
LINE
  5
137E
100
AcDbEntity
  8
10000_FRONT
370
    25
390
0
  6
CONTINUOUS
 62
     7
100
AcDbLine
 10
136.8773
 20
226.5342
 30
0.0
 11
136.8773
 21
228.5922
 31
0.0
  0
LINE
  5
137F
100
AcDbEntity
  8
10000_FRONT
370
    25
390
0
  6
CONTINUOUS
 62
     7
100
AcDbLine
 10
136.8773
 20
228.5922
 30
0.0
 11
136.909456
 21
228.5922
 31
0.0
  0
LINE
  5
1380
100
AcDbEntity
  8
10000_FRONT
370
    25
390
0
  6
CONTINUOUS
 62
     7
100
AcDbLine
 10
136.909456
 20
228.5922
 30
0.0
 11
138.12925
 21
226.910582
 31
0.0
  0
LINE
  5
1381
100
AcDbEntity
  8
10000_FRONT
370
    25
390
0
  6
CONTINUOUS
 62
     7
100
AcDbLine
 10
138.12925
 20
226.910582
 30
0.0
 11
138.12925
 21
228.5922
 31
0.0
  0
LINE
  5
1382
100
AcDbEntity
  8
10000_FRONT
370
    25
390
0
  6
CONTINUOUS
 62
     7
100
AcDbLine
 10
138.12925
 20
228.5922
 30
0.0
 11
138.26645
 21
228.5922
 31
0.0
  0
LINE
  5
1383
100
AcDbEntity
  8
10000_FRONT
370
    25
390
0
  6
CONTINUOUS
 62
     7
100
AcDbLine
 10
138.26645
 20
228.5922
 30
0.0
 11
138.26645
 21
226.5342
 31
0.0
  0
LINE
  5
1384
100
AcDbEntity
  8
10000_FRONT
370
    25
390
0
  6
CONTINUOUS
 62
     7
100
AcDbLine
 10
138.26645
 20
226.5342
 30
0.0
 11
138.232954
 21
226.5342
 31
0.0
  0
LINE
  5
1385
100
AcDbEntity
  8
10000_FRONT
370
    25
390
0
  6
CONTINUOUS
 62
     7
100
AcDbLine
 10
138.232954
 20
226.5342
 30
0.0
 11
137.0145
 21
228.215819
 31
0.0
  0
LINE
  5
1386
100
AcDbEntity
  8
10000_FRONT
370
    25
390
0
  6
CONTINUOUS
 62
     7
100
AcDbLine
 10
137.0145
 20
228.215819
 30
0.0
 11
137.0145
 21
226.5342
 31
0.0
  0
LINE
  5
1387
100
AcDbEntity
  8
10000_FRONT
370
    25
390
0
  6
CONTINUOUS
 62
     7
100
AcDbLine
 10
137.0145
 20
226.5342
 30
0.0
 11
136.8773
 21
226.5342
 31
0.0
  0
ARC
  5
1388
100
AcDbEntity
  8
10000_FRONT
370
    25
390
0
  6
CONTINUOUS
 62
     7
100
AcDbCircle
 10
164.25
 20
212.3
 30
0.0
 40
0.05
100
AcDbArc
 50
359.999126
 51
90.0
  0
LINE
  5
1389
100
AcDbEntity
  8
10000_FRONT
370
    25
390
0
  6
CONTINUOUS
 62
     7
100
AcDbLine
 10
159.35
 20
212.35
 30
0.0
 11
164.25
 21
212.35
 31
0.0
  0
ARC
  5
138A
100
AcDbEntity
  8
10000_FRONT
370
    25
390
0
  6
CONTINUOUS
 62
     7
100
AcDbCircle
 10
159.35
 20
212.3
 30
0.0
 40
0.05
100
AcDbArc
 50
89.999563
 51
180.000874
  0
LINE
  5
138B
100
AcDbEntity
  8
10000_FRONT
370
    25
390
0
  6
CONTINUOUS
 62
     7
100
AcDbLine
 10
159.3
 20
210.700001
 30
0.0
 11
159.3
 21
212.299999
 31
0.0
  0
ARC
  5
138C
100
AcDbEntity
  8
10000_FRONT
370
    25
390
0
  6
CONTINUOUS
 62
     7
100
AcDbCircle
 10
159.35
 20
210.7
 30
0.0
 40
0.05
100
AcDbArc
 50
179.999126
 51
270.000437
  0
LINE
  5
138D
100
AcDbEntity
  8
10000_FRONT
370
    25
390
0
  6
CONTINUOUS
 62
     7
100
AcDbLine
 10
164.25
 20
210.65
 30
0.0
 11
159.35
 21
210.65
 31
0.0
  0
ARC
  5
138E
100
AcDbEntity
  8
10000_FRONT
370
    25
390
0
  6
CONTINUOUS
 62
     7
100
AcDbCircle
 10
164.25
 20
210.7
 30
0.0
 40
0.05
100
AcDbArc
 50
270.0
 51
0.000874
  0
LINE
  5
138F
100
AcDbEntity
  8
10000_FRONT
370
    25
390
0
  6
CONTINUOUS
 62
     7
100
AcDbLine
 10
164.3
 20
212.299999
 30
0.0
 11
164.3
 21
210.700001
 31
0.0
  0
LINE
  5
1390
100
AcDbEntity
  8
10000_FRONT
370
    25
390
0
  6
CONTINUOUS
 62
     7
100
AcDbLine
 10
165.02
 20
212.049999
 30
0.0
 11
165.02
 21
210.950001
 31
0.0
  0
ARC
  5
1391
100
AcDbEntity
  8
10000_FRONT
370
    25
390
0
  6
CONTINUOUS
 62
     7
100
AcDbCircle
 10
164.02
 20
210.95
 30
0.0
 40
1.0
100
AcDbArc
 50
270.000026
 51
0.0
  0
LINE
  5
1392
100
AcDbEntity
  8
10000_FRONT
370
    25
390
0
  6
CONTINUOUS
 62
     7
100
AcDbLine
 10
164.02
 20
209.950001
 30
0.0
 11
159.58
 21
209.950001
 31
0.0
  0
ARC
  5
1393
100
AcDbEntity
  8
10000_FRONT
370
    25
390
0
  6
CONTINUOUS
 62
     7
100
AcDbCircle
 10
159.58
 20
210.95
 30
0.0
 40
1.0
100
AcDbArc
 50
180.0
 51
269.999996
  0
LINE
  5
1394
100
AcDbEntity
  8
10000_FRONT
370
    25
390
0
  6
CONTINUOUS
 62
     7
100
AcDbLine
 10
158.58
 20
210.950001
 30
0.0
 11
158.58
 21
212.049999
 31
0.0
  0
ARC
  5
1395
100
AcDbEntity
  8
10000_FRONT
370
    25
390
0
  6
CONTINUOUS
 62
     7
100
AcDbCircle
 10
164.02
 20
212.05
 30
0.0
 40
1.0
100
AcDbArc
 50
0.0
 51
89.999974
  0
LINE
  5
1396
100
AcDbEntity
  8
10000_FRONT
370
    25
390
0
  6
CONTINUOUS
 62
     7
100
AcDbLine
 10
159.58
 20
213.049999
 30
0.0
 11
164.02
 21
213.049999
 31
0.0
  0
ARC
  5
1397
100
AcDbEntity
  8
10000_FRONT
370
    25
390
0
  6
CONTINUOUS
 62
     7
100
AcDbCircle
 10
159.58
 20
212.05
 30
0.0
 40
1.0
100
AcDbArc
 50
90.000004
 51
180.0
  0
LINE
  5
1398
100
AcDbEntity
  8
10000_FRONT
370
    25
390
0
  6
CONTINUOUS
 62
     7
100
AcDbLine
 10
151.36
 20
215.0
 30
0.0
 11
151.36
 21
215.049999
 31
0.0
  0
LINE
  5
1399
100
AcDbEntity
  8
10000_FRONT
370
    25
390
0
  6
CONTINUOUS
 62
     7
100
AcDbLine
 10
150.04
 20
215.0
 30
0.0
 11
150.04
 21
215.049999
 31
0.0
  0
LINE
  5
139A
100
AcDbEntity
  8
10000_FRONT
370
    25
390
0
  6
CONTINUOUS
 62
     7
100
AcDbLine
 10
140.36
 20
215.0
 30
0.0
 11
140.36
 21
215.049999
 31
0.0
  0
LINE
  5
139B
100
AcDbEntity
  8
10000_FRONT
370
    25
390
0
  6
CONTINUOUS
 62
     7
100
AcDbLine
 10
139.04
 20
215.0
 30
0.0
 11
139.04
 21
215.049999
 31
0.0
  0
LINE
  5
139C
100
AcDbEntity
  8
10000_FRONT
370
    25
390
0
  6
CONTINUOUS
 62
     7
100
AcDbLine
 10
150.04
 20
207.950001
 30
0.0
 11
150.04
 21
208.0
 31
0.0
  0
LINE
  5
139D
100
AcDbEntity
  8
10000_FRONT
370
    25
390
0
  6
CONTINUOUS
 62
     7
100
AcDbLine
 10
151.36
 20
207.950001
 30
0.0
 11
151.36
 21
208.0
 31
0.0
  0
LINE
  5
139E
100
AcDbEntity
  8
10000_FRONT
370
    25
390
0
  6
CONTINUOUS
 62
     7
100
AcDbLine
 10
139.04
 20
207.950001
 30
0.0
 11
139.04
 21
208.0
 31
0.0
  0
LINE
  5
139F
100
AcDbEntity
  8
10000_FRONT
370
    25
390
0
  6
CONTINUOUS
 62
     7
100
AcDbLine
 10
140.36
 20
207.950001
 30
0.0
 11
140.36
 21
208.0
 31
0.0
  0
LINE
  5
13A0
100
AcDbEntity
  8
10000_FRONT
370
    25
390
0
  6
CONTINUOUS
 62
     7
100
AcDbLine
 10
135.2
 20
208.0
 30
0.0
 11
135.2
 21
215.0
 31
0.0
  0
LINE
  5
13A1
100
AcDbEntity
  8
10000_FRONT
370
    25
390
0
  6
CONTINUOUS
 62
     7
100
AcDbLine
 10
135.2
 20
215.0
 30
0.0
 11
155.2
 21
215.0
 31
0.0
  0
LINE
  5
13A2
100
AcDbEntity
  8
10000_FRONT
370
    25
390
0
  6
CONTINUOUS
 62
     7
100
AcDbLine
 10
155.2
 20
215.0
 30
0.0
 11
155.2
 21
208.0
 31
0.0
  0
LINE
  5
13A3
100
AcDbEntity
  8
10000_FRONT
370
    25
390
0
  6
CONTINUOUS
 62
     7
100
AcDbLine
 10
155.2
 20
208.0
 30
0.0
 11
135.2
 21
208.0
 31
0.0
  0
LINE
  5
13A4
100
AcDbEntity
  8
10000_FRONT
370
    25
390
0
  6
CONTINUOUS
 62
     7
100
AcDbLine
 10
155.36
 20
207.950001
 30
0.0
 11
155.36
 21
213.950001
 31
0.0
  0
LINE
  5
13A5
100
AcDbEntity
  8
10000_FRONT
370
    25
390
0
  6
CONTINUOUS
 62
     7
100
AcDbLine
 10
156.56
 20
213.950001
 30
0.0
 11
156.56
 21
207.950001
 31
0.0
  0
LINE
  5
13A6
100
AcDbEntity
  8
10000_FRONT
370
    25
390
0
  6
CONTINUOUS
 62
     7
100
AcDbLine
 10
134.209999
 20
192.25
 30
0.0
 11
134.209999
 21
193.5
 31
0.0
  0
LINE
  5
13A7
100
AcDbEntity
  8
10000_FRONT
370
    25
390
0
  6
CONTINUOUS
 62
     7
100
AcDbLine
 10
133.01
 20
194.358932
 30
0.0
 11
133.01
 21
192.25
 31
0.0
  0
LINE
  5
13A8
100
AcDbEntity
  8
10000_FRONT
370
    25
390
0
  6
CONTINUOUS
 62
     7
100
AcDbLine
 10
133.01
 20
192.25
 30
0.0
 11
134.209999
 21
192.25
 31
0.0
  0
LINE
  5
13A9
100
AcDbEntity
  8
10000_FRONT
370
    25
390
0
  6
CONTINUOUS
 62
     7
100
AcDbLine
 10
133.01
 20
230.75
 30
0.0
 11
133.01
 21
228.641067
 31
0.0
  0
LINE
  5
13AA
100
AcDbEntity
  8
10000_FRONT
370
    25
390
0
  6
CONTINUOUS
 62
     7
100
AcDbLine
 10
134.209999
 20
229.5
 30
0.0
 11
134.209999
 21
230.75
 31
0.0
  0
LINE
  5
13AB
100
AcDbEntity
  8
10000_FRONT
370
    25
390
0
  6
CONTINUOUS
 62
     7
100
AcDbLine
 10
133.01
 20
230.75
 30
0.0
 11
134.209999
 21
230.75
 31
0.0
  0
LINE
  5
13AC
100
AcDbEntity
  8
10000_FRONT
370
    25
390
0
  6
CONTINUOUS
 62
     7
100
AcDbLine
 10
142.01
 20
230.75
 30
0.0
 11
142.01
 21
229.5
 31
0.0
  0
LINE
  5
13AD
100
AcDbEntity
  8
10000_FRONT
370
    25
390
0
  6
CONTINUOUS
 62
     7
100
AcDbLine
 10
142.803333
 20
229.5
 30
0.0
 11
142.803333
 21
230.75
 31
0.0
  0
LINE
  5
13AE
100
AcDbEntity
  8
10000_FRONT
370
    25
390
0
  6
CONTINUOUS
 62
     7
100
AcDbLine
 10
142.01
 20
230.75
 30
0.0
 11
142.803333
 21
230.75
 31
0.0
  0
LINE
  5
13AF
100
AcDbEntity
  8
10000_FRONT
370
    25
390
0
  6
CONTINUOUS
 62
     7
100
AcDbLine
 10
150.603333
 20
230.75
 30
0.0
 11
150.603333
 21
229.5
 31
0.0
  0
LINE
  5
13B0
100
AcDbEntity
  8
10000_FRONT
370
    25
390
0
  6
CONTINUOUS
 62
     7
100
AcDbLine
 10
151.396667
 20
229.5
 30
0.0
 11
151.396667
 21
230.75
 31
0.0
  0
LINE
  5
13B1
100
AcDbEntity
  8
10000_FRONT
370
    25
390
0
  6
CONTINUOUS
 62
     7
100
AcDbLine
 10
150.603333
 20
230.75
 30
0.0
 11
151.396667
 21
230.75
 31
0.0
  0
LINE
  5
13B2
100
AcDbEntity
  8
10000_FRONT
370
    25
390
0
  6
CONTINUOUS
 62
     7
100
AcDbLine
 10
159.196667
 20
230.75
 30
0.0
 11
159.196667
 21
229.5
 31
0.0
  0
LINE
  5
13B3
100
AcDbEntity
  8
10000_FRONT
370
    25
390
0
  6
CONTINUOUS
 62
     7
100
AcDbLine
 10
159.99
 20
229.5
 30
0.0
 11
159.99
 21
230.75
 31
0.0
  0
LINE
  5
13B4
100
AcDbEntity
  8
10000_FRONT
370
    25
390
0
  6
CONTINUOUS
 62
     7
100
AcDbLine
 10
159.196667
 20
230.75
 30
0.0
 11
159.99
 21
230.75
 31
0.0
  0
LINE
  5
13B5
100
AcDbEntity
  8
10000_FRONT
370
    25
390
0
  6
CONTINUOUS
 62
     7
100
AcDbLine
 10
168.99
 20
228.641067
 30
0.0
 11
168.99
 21
230.75
 31
0.0
  0
LINE
  5
13B6
100
AcDbEntity
  8
10000_FRONT
370
    25
390
0
  6
CONTINUOUS
 62
     7
100
AcDbLine
 10
167.790001
 20
230.75
 30
0.0
 11
168.99
 21
230.75
 31
0.0
  0
LINE
  5
13B7
100
AcDbEntity
  8
10000_FRONT
370
    25
390
0
  6
CONTINUOUS
 62
     7
100
AcDbLine
 10
167.790001
 20
230.75
 30
0.0
 11
167.790001
 21
229.5
 31
0.0
  0
LINE
  5
13B8
100
AcDbEntity
  8
10000_FRONT
370
    25
390
0
  6
CONTINUOUS
 62
     7
100
AcDbLine
 10
167.790001
 20
193.5
 30
0.0
 11
167.790001
 21
192.25
 31
0.0
  0
LINE
  5
13B9
100
AcDbEntity
  8
10000_FRONT
370
    25
390
0
  6
CONTINUOUS
 62
     7
100
AcDbLine
 10
167.790001
 20
192.25
 30
0.0
 11
168.99
 21
192.25
 31
0.0
  0
LINE
  5
13BA
100
AcDbEntity
  8
10000_FRONT
370
    25
390
0
  6
CONTINUOUS
 62
     7
100
AcDbLine
 10
168.99
 20
192.25
 30
0.0
 11
168.99
 21
194.358932
 31
0.0
  0
LINE
  5
13BB
100
AcDbEntity
  8
10000_FRONT
370
    25
390
0
  6
CONTINUOUS
 62
     7
100
AcDbLine
 10
159.99
 20
192.25
 30
0.0
 11
159.99
 21
193.5
 31
0.0
  0
LINE
  5
13BC
100
AcDbEntity
  8
10000_FRONT
370
    25
390
0
  6
CONTINUOUS
 62
     7
100
AcDbLine
 10
159.196667
 20
193.5
 30
0.0
 11
159.196667
 21
192.25
 31
0.0
  0
LINE
  5
13BD
100
AcDbEntity
  8
10000_FRONT
370
    25
390
0
  6
CONTINUOUS
 62
     7
100
AcDbLine
 10
159.196667
 20
192.25
 30
0.0
 11
159.99
 21
192.25
 31
0.0
  0
LINE
  5
13BE
100
AcDbEntity
  8
10000_FRONT
370
    25
390
0
  6
CONTINUOUS
 62
     7
100
AcDbLine
 10
151.396667
 20
192.25
 30
0.0
 11
151.396667
 21
193.5
 31
0.0
  0
LINE
  5
13BF
100
AcDbEntity
  8
10000_FRONT
370
    25
390
0
  6
CONTINUOUS
 62
     7
100
AcDbLine
 10
150.603333
 20
193.5
 30
0.0
 11
150.603333
 21
192.25
 31
0.0
  0
LINE
  5
13C0
100
AcDbEntity
  8
10000_FRONT
370
    25
390
0
  6
CONTINUOUS
 62
     7
100
AcDbLine
 10
150.603333
 20
192.25
 30
0.0
 11
151.396667
 21
192.25
 31
0.0
  0
LINE
  5
13C1
100
AcDbEntity
  8
10000_FRONT
370
    25
390
0
  6
CONTINUOUS
 62
     7
100
AcDbLine
 10
142.803333
 20
192.25
 30
0.0
 11
142.803333
 21
193.5
 31
0.0
  0
LINE
  5
13C2
100
AcDbEntity
  8
10000_FRONT
370
    25
390
0
  6
CONTINUOUS
 62
     7
100
AcDbLine
 10
142.01
 20
193.5
 30
0.0
 11
142.01
 21
192.25
 31
0.0
  0
LINE
  5
13C3
100
AcDbEntity
  8
10000_FRONT
370
    25
390
0
  6
CONTINUOUS
 62
     7
100
AcDbLine
 10
142.01
 20
192.25
 30
0.0
 11
142.803333
 21
192.25
 31
0.0
  0
LINE
  5
13C4
100
AcDbEntity
  8
10000_FRONT
370
    25
390
0
  6
CONTINUOUS
 62
     7
100
AcDbLine
 10
160.150013
 20
198.400002
 30
0.0
 11
163.750013
 21
198.400002
 31
0.0
  0
LINE
  5
13C5
100
AcDbEntity
  8
10000_FRONT
370
    25
390
0
  6
CONTINUOUS
 62
     7
100
AcDbLine
 10
164.050013
 20
198.400002
 30
0.0
 11
167.650013
 21
198.400002
 31
0.0
  0
LINE
  5
13C6
100
AcDbEntity
  8
10000_FRONT
370
    25
390
0
  6
CONTINUOUS
 62
     7
100
AcDbLine
 10
160.150013
 20
224.6
 30
0.0
 11
163.750013
 21
224.6
 31
0.0
  0
LINE
  5
13C7
100
AcDbEntity
  8
10000_FRONT
370
    25
390
0
  6
CONTINUOUS
 62
     7
100
AcDbLine
 10
164.050013
 20
224.6
 30
0.0
 11
167.650013
 21
224.6
 31
0.0
  0
LINE
  5
13C8
100
AcDbEntity
  8
10000_FRONT
370
    25
390
0
  6
CONTINUOUS
 62
     7
100
AcDbLine
 10
151.550013
 20
224.6
 30
0.0
 11
155.150013
 21
224.6
 31
0.0
  0
LINE
  5
13C9
100
AcDbEntity
  8
10000_FRONT
370
    25
390
0
  6
CONTINUOUS
 62
     7
100
AcDbLine
 10
155.450013
 20
224.6
 30
0.0
 11
159.050013
 21
224.6
 31
0.0
  0
LINE
  5
13CA
100
AcDbEntity
  8
10000_FRONT
370
    25
390
0
  6
CONTINUOUS
 62
     7
100
AcDbLine
 10
142.950013
 20
198.400002
 30
0.0
 11
146.550013
 21
198.400002
 31
0.0
  0
LINE
  5
13CB
100
AcDbEntity
  8
10000_FRONT
370
    25
390
0
  6
CONTINUOUS
 62
     7
100
AcDbLine
 10
146.850013
 20
198.400002
 30
0.0
 11
150.450013
 21
198.400002
 31
0.0
  0
LINE
  5
13CC
100
AcDbEntity
  8
10000_FRONT
370
    25
390
0
  6
CONTINUOUS
 62
     7
100
AcDbLine
 10
142.950013
 20
224.6
 30
0.0
 11
146.550013
 21
224.6
 31
0.0
  0
LINE
  5
13CD
100
AcDbEntity
  8
10000_FRONT
370
    25
390
0
  6
CONTINUOUS
 62
     7
100
AcDbLine
 10
146.850013
 20
224.6
 30
0.0
 11
150.450013
 21
224.6
 31
0.0
  0
LINE
  5
13CE
100
AcDbEntity
  8
10000_FRONT
370
    25
390
0
  6
CONTINUOUS
 62
     7
100
AcDbLine
 10
134.350014
 20
198.400002
 30
0.0
 11
137.950013
 21
198.400002
 31
0.0
  0
LINE
  5
13CF
100
AcDbEntity
  8
10000_FRONT
370
    25
390
0
  6
CONTINUOUS
 62
     7
100
AcDbLine
 10
138.250013
 20
198.400002
 30
0.0
 11
141.850013
 21
198.400002
 31
0.0
  0
LINE
  5
13D0
100
AcDbEntity
  8
10000_FRONT
370
    25
390
0
  6
CONTINUOUS
 62
     7
100
AcDbLine
 10
151.550013
 20
198.400002
 30
0.0
 11
155.150013
 21
198.400002
 31
0.0
  0
LINE
  5
13D1
100
AcDbEntity
  8
10000_FRONT
370
    25
390
0
  6
CONTINUOUS
 62
     7
100
AcDbLine
 10
155.450013
 20
198.400002
 30
0.0
 11
159.050013
 21
198.400002
 31
0.0
  0
LINE
  5
13D2
100
AcDbEntity
  8
10000_FRONT
370
    25
390
0
  6
CONTINUOUS
 62
     7
100
AcDbLine
 10
134.350014
 20
224.6
 30
0.0
 11
137.950013
 21
224.6
 31
0.0
  0
LINE
  5
13D3
100
AcDbEntity
  8
10000_FRONT
370
    25
390
0
  6
CONTINUOUS
 62
     7
100
AcDbLine
 10
138.250013
 20
224.6
 30
0.0
 11
141.850013
 21
224.6
 31
0.0
  0
LINE
  5
13D4
100
AcDbEntity
  8
10000_FRONT
370
    25
390
0
  6
CONTINUOUS
 62
     7
100
AcDbLine
 10
159.196667
 20
190.75
 30
0.0
 11
159.196667
 21
192.25
 31
0.0
  0
LINE
  5
13D5
100
AcDbEntity
  8
10000_FRONT
370
    25
390
0
  6
CONTINUOUS
 62
     7
100
AcDbLine
 10
142.803333
 20
230.75
 30
0.0
 11
142.803333
 21
232.25
 31
0.0
  0
LINE
  5
13D6
100
AcDbEntity
  8
10000_FRONT
370
    25
390
0
  6
CONTINUOUS
 62
     7
100
AcDbLine
 10
134.35
 20
224.5
 30
0.0
 11
137.95
 21
224.5
 31
0.0
  0
LINE
  5
13D7
100
AcDbEntity
  8
10000_FRONT
370
    25
390
0
  6
CONTINUOUS
 62
     7
100
AcDbLine
 10
137.95
 20
198.5
 30
0.0
 11
134.35
 21
198.5
 31
0.0
  0
LINE
  5
13D8
100
AcDbEntity
  8
10000_FRONT
370
    25
390
0
  6
CONTINUOUS
 62
     7
100
AcDbLine
 10
142.95
 20
224.5
 30
0.0
 11
146.55
 21
224.5
 31
0.0
  0
LINE
  5
13D9
100
AcDbEntity
  8
10000_FRONT
370
    25
390
0
  6
CONTINUOUS
 62
     7
100
AcDbLine
 10
146.55
 20
198.5
 30
0.0
 11
142.95
 21
198.5
 31
0.0
  0
LINE
  5
13DA
100
AcDbEntity
  8
10000_FRONT
370
    25
390
0
  6
CONTINUOUS
 62
     7
100
AcDbLine
 10
151.55
 20
224.5
 30
0.0
 11
155.15
 21
224.5
 31
0.0
  0
LINE
  5
13DB
100
AcDbEntity
  8
10000_FRONT
370
    25
390
0
  6
CONTINUOUS
 62
     7
100
AcDbLine
 10
155.15
 20
198.5
 30
0.0
 11
151.55
 21
198.5
 31
0.0
  0
LINE
  5
13DC
100
AcDbEntity
  8
10000_FRONT
370
    25
390
0
  6
CONTINUOUS
 62
     7
100
AcDbLine
 10
160.15
 20
224.5
 30
0.0
 11
163.75
 21
224.5
 31
0.0
  0
LINE
  5
13DD
100
AcDbEntity
  8
10000_FRONT
370
    25
390
0
  6
CONTINUOUS
 62
     7
100
AcDbLine
 10
163.75
 20
198.5
 30
0.0
 11
160.15
 21
198.5
 31
0.0
  0
LINE
  5
13DE
100
AcDbEntity
  8
10000_FRONT
370
    25
390
0
  6
CONTINUOUS
 62
     7
100
AcDbLine
 10
138.25
 20
224.5
 30
0.0
 11
141.85
 21
224.5
 31
0.0
  0
LINE
  5
13DF
100
AcDbEntity
  8
10000_FRONT
370
    25
390
0
  6
CONTINUOUS
 62
     7
100
AcDbLine
 10
141.85
 20
198.5
 30
0.0
 11
138.25
 21
198.5
 31
0.0
  0
LINE
  5
13E0
100
AcDbEntity
  8
10000_FRONT
370
    25
390
0
  6
CONTINUOUS
 62
     7
100
AcDbLine
 10
146.85
 20
224.5
 30
0.0
 11
150.45
 21
224.5
 31
0.0
  0
LINE
  5
13E1
100
AcDbEntity
  8
10000_FRONT
370
    25
390
0
  6
CONTINUOUS
 62
     7
100
AcDbLine
 10
150.45
 20
198.5
 30
0.0
 11
146.85
 21
198.5
 31
0.0
  0
LINE
  5
13E2
100
AcDbEntity
  8
10000_FRONT
370
    25
390
0
  6
CONTINUOUS
 62
     7
100
AcDbLine
 10
155.45
 20
224.5
 30
0.0
 11
159.05
 21
224.5
 31
0.0
  0
LINE
  5
13E3
100
AcDbEntity
  8
10000_FRONT
370
    25
390
0
  6
CONTINUOUS
 62
     7
100
AcDbLine
 10
159.05
 20
198.5
 30
0.0
 11
155.45
 21
198.5
 31
0.0
  0
LINE
  5
13E4
100
AcDbEntity
  8
10000_FRONT
370
    25
390
0
  6
CONTINUOUS
 62
     7
100
AcDbLine
 10
164.05
 20
224.5
 30
0.0
 11
167.65
 21
224.5
 31
0.0
  0
LINE
  5
13E5
100
AcDbEntity
  8
10000_FRONT
370
    25
390
0
  6
CONTINUOUS
 62
     7
100
AcDbLine
 10
167.65
 20
198.5
 30
0.0
 11
164.05
 21
198.5
 31
0.0
  0
LINE
  5
13E6
100
AcDbEntity
  8
10000_FRONT
370
    25
390
0
  6
CONTINUOUS
 62
     7
100
AcDbLine
 10
142.803333
 20
190.75
 30
0.0
 11
142.803333
 21
192.25
 31
0.0
  0
LINE
  5
13E7
100
AcDbEntity
  8
10000_FRONT
370
    25
390
0
  6
CONTINUOUS
 62
     7
100
AcDbLine
 10
134.209999
 20
190.75
 30
0.0
 11
134.209999
 21
192.25
 31
0.0
  0
LINE
  5
13E8
100
AcDbEntity
  8
10000_FRONT
370
    25
390
0
  6
CONTINUOUS
 62
     7
100
AcDbLine
 10
134.209999
 20
230.75
 30
0.0
 11
134.209999
 21
232.25
 31
0.0
  0
LINE
  5
13E9
100
AcDbEntity
  8
10000_FRONT
370
    25
390
0
  6
CONTINUOUS
 62
     7
100
AcDbLine
 10
159.196667
 20
230.75
 30
0.0
 11
159.196667
 21
232.25
 31
0.0
  0
LINE
  5
13EA
100
AcDbEntity
  8
10000_FRONT
370
    25
390
0
  6
CONTINUOUS
 62
     7
100
AcDbLine
 10
168.99
 20
230.75
 30
0.0
 11
168.99
 21
231.45
 31
0.0
  0
LINE
  5
13EB
100
AcDbEntity
  8
10000_FRONT
370
    25
390
0
  6
CONTINUOUS
 62
     7
100
AcDbLine
 10
168.99
 20
191.549999
 30
0.0
 11
168.99
 21
192.25
 31
0.0
  0
LINE
  5
13EC
100
AcDbEntity
  8
10000_FRONT
370
    25
390
0
  6
CONTINUOUS
 62
     7
100
AcDbLine
 10
142.01
 20
232.25
 30
0.0
 11
142.803333
 21
232.25
 31
0.0
  0
LINE
  5
13ED
100
AcDbEntity
  8
10000_FRONT
370
    25
390
0
  6
CONTINUOUS
 62
     7
100
AcDbLine
 10
151.396667
 20
230.75
 30
0.0
 11
151.396667
 21
232.25
 31
0.0
  0
LINE
  5
13EE
100
AcDbEntity
  8
10000_FRONT
370
    25
390
0
  6
CONTINUOUS
 62
     7
100
AcDbLine
 10
150.603333
 20
232.25
 30
0.0
 11
151.396667
 21
232.25
 31
0.0
  0
LINE
  5
13EF
100
AcDbEntity
  8
10000_FRONT
370
    25
390
0
  6
CONTINUOUS
 62
     7
100
AcDbLine
 10
159.99
 20
230.75
 30
0.0
 11
159.99
 21
232.25
 31
0.0
  0
LINE
  5
13F0
100
AcDbEntity
  8
10000_FRONT
370
    25
390
0
  6
CONTINUOUS
 62
     7
100
AcDbLine
 10
159.196667
 20
232.25
 30
0.0
 11
159.99
 21
232.25
 31
0.0
  0
LINE
  5
13F1
100
AcDbEntity
  8
10000_FRONT
370
    25
390
0
  6
CONTINUOUS
 62
     7
100
AcDbLine
 10
168.190001
 20
232.25
 30
0.0
 11
168.235519
 21
232.248661
 31
0.0
  0
LINE
  5
13F2
100
AcDbEntity
  8
10000_FRONT
370
    25
390
0
  6
CONTINUOUS
 62
     7
100
AcDbLine
 10
168.235519
 20
232.248661
 30
0.0
 11
168.281815
 21
232.24459
 31
0.0
  0
LINE
  5
13F3
100
AcDbEntity
  8
10000_FRONT
370
    25
390
0
  6
CONTINUOUS
 62
     7
100
AcDbLine
 10
168.281815
 20
232.24459
 30
0.0
 11
168.328712
 21
232.237705
 31
0.0
  0
LINE
  5
13F4
100
AcDbEntity
  8
10000_FRONT
370
    25
390
0
  6
CONTINUOUS
 62
     7
100
AcDbLine
 10
168.328712
 20
232.237705
 30
0.0
 11
168.375919
 21
232.227923
 31
0.0
  0
LINE
  5
13F5
100
AcDbEntity
  8
10000_FRONT
370
    25
390
0
  6
CONTINUOUS
 62
     7
100
AcDbLine
 10
168.375919
 20
232.227923
 30
0.0
 11
168.423141
 21
232.21516
 31
0.0
  0
LINE
  5
13F6
100
AcDbEntity
  8
10000_FRONT
370
    25
390
0
  6
CONTINUOUS
 62
     7
100
AcDbLine
 10
168.423141
 20
232.21516
 30
0.0
 11
168.470085
 21
232.199332
 31
0.0
  0
LINE
  5
13F7
100
AcDbEntity
  8
10000_FRONT
370
    25
390
0
  6
CONTINUOUS
 62
     7
100
AcDbLine
 10
168.470085
 20
232.199332
 30
0.0
 11
168.51646
 21
232.180357
 31
0.0
  0
LINE
  5
13F8
100
AcDbEntity
  8
10000_FRONT
370
    25
390
0
  6
CONTINUOUS
 62
     7
100
AcDbLine
 10
168.51646
 20
232.180357
 30
0.0
 11
168.561968
 21
232.158198
 31
0.0
  0
LINE
  5
13F9
100
AcDbEntity
  8
10000_FRONT
370
    25
390
0
  6
CONTINUOUS
 62
     7
100
AcDbLine
 10
168.561968
 20
232.158198
 30
0.0
 11
168.606339
 21
232.13296
 31
0.0
  0
LINE
  5
13FA
100
AcDbEntity
  8
10000_FRONT
370
    25
390
0
  6
CONTINUOUS
 62
     7
100
AcDbLine
 10
168.606339
 20
232.13296
 30
0.0
 11
168.649307
 21
232.104778
 31
0.0
  0
LINE
  5
13FB
100
AcDbEntity
  8
10000_FRONT
370
    25
390
0
  6
CONTINUOUS
 62
     7
100
AcDbLine
 10
168.649307
 20
232.104778
 30
0.0
 11
168.690615
 21
232.073784
 31
0.0
  0
LINE
  5
13FC
100
AcDbEntity
  8
10000_FRONT
370
    25
390
0
  6
CONTINUOUS
 62
     7
100
AcDbLine
 10
168.690615
 20
232.073784
 30
0.0
 11
168.73
 21
232.040113
 31
0.0
  0
LINE
  5
13FD
100
AcDbEntity
  8
10000_FRONT
370
    25
390
0
  6
CONTINUOUS
 62
     7
100
AcDbLine
 10
168.73
 20
232.040113
 30
0.0
 11
168.767199
 21
232.003898
 31
0.0
  0
LINE
  5
13FE
100
AcDbEntity
  8
10000_FRONT
370
    25
390
0
  6
CONTINUOUS
 62
     7
100
AcDbLine
 10
168.767199
 20
232.003898
 30
0.0
 11
168.802048
 21
231.965155
 31
0.0
  0
LINE
  5
13FF
100
AcDbEntity
  8
10000_FRONT
370
    25
390
0
  6
CONTINUOUS
 62
     7
100
AcDbLine
 10
168.802048
 20
231.965155
 30
0.0
 11
168.835583
 21
231.92234
 31
0.0
  0
LINE
  5
1400
100
AcDbEntity
  8
10000_FRONT
370
    25
390
0
  6
CONTINUOUS
 62
     7
100
AcDbLine
 10
168.835583
 20
231.92234
 30
0.0
 11
168.867561
 21
231.875126
 31
0.0
  0
LINE
  5
1401
100
AcDbEntity
  8
10000_FRONT
370
    25
390
0
  6
CONTINUOUS
 62
     7
100
AcDbLine
 10
168.867561
 20
231.875126
 30
0.0
 11
168.897234
 21
231.823768
 31
0.0
  0
LINE
  5
1402
100
AcDbEntity
  8
10000_FRONT
370
    25
390
0
  6
CONTINUOUS
 62
     7
100
AcDbLine
 10
168.897234
 20
231.823768
 30
0.0
 11
168.923849
 21
231.768517
 31
0.0
  0
LINE
  5
1403
100
AcDbEntity
  8
10000_FRONT
370
    25
390
0
  6
CONTINUOUS
 62
     7
100
AcDbLine
 10
168.923849
 20
231.768517
 30
0.0
 11
168.946651
 21
231.709638
 31
0.0
  0
LINE
  5
1404
100
AcDbEntity
  8
10000_FRONT
370
    25
390
0
  6
CONTINUOUS
 62
     7
100
AcDbLine
 10
168.946651
 20
231.709638
 30
0.0
 11
168.96505
 21
231.64763
 31
0.0
  0
LINE
  5
1405
100
AcDbEntity
  8
10000_FRONT
370
    25
390
0
  6
CONTINUOUS
 62
     7
100
AcDbLine
 10
168.96505
 20
231.64763
 30
0.0
 11
168.978659
 21
231.583207
 31
0.0
  0
LINE
  5
1406
100
AcDbEntity
  8
10000_FRONT
370
    25
390
0
  6
CONTINUOUS
 62
     7
100
AcDbLine
 10
168.978659
 20
231.583207
 30
0.0
 11
168.987103
 21
231.517091
 31
0.0
  0
LINE
  5
1407
100
AcDbEntity
  8
10000_FRONT
370
    25
390
0
  6
CONTINUOUS
 62
     7
100
AcDbLine
 10
168.987103
 20
231.517091
 30
0.0
 11
168.99
 21
231.45
 31
0.0
  0
LINE
  5
1408
100
AcDbEntity
  8
10000_FRONT
370
    25
390
0
  6
CONTINUOUS
 62
     7
100
AcDbLine
 10
167.790001
 20
232.25
 30
0.0
 11
168.190001
 21
232.25
 31
0.0
  0
LINE
  5
1409
100
AcDbEntity
  8
10000_FRONT
370
    25
390
0
  6
CONTINUOUS
 62
     7
100
AcDbLine
 10
151.396667
 20
190.75
 30
0.0
 11
151.396667
 21
192.25
 31
0.0
  0
LINE
  5
140A
100
AcDbEntity
  8
10000_FRONT
370
    25
390
0
  6
CONTINUOUS
 62
     7
100
AcDbLine
 10
159.99
 20
190.75
 30
0.0
 11
159.99
 21
192.25
 31
0.0
  0
LINE
  5
140B
100
AcDbEntity
  8
10000_FRONT
370
    25
390
0
  6
CONTINUOUS
 62
     7
100
AcDbLine
 10
167.790001
 20
230.75
 30
0.0
 11
167.790001
 21
232.25
 31
0.0
  0
LINE
  5
140C
100
AcDbEntity
  8
10000_FRONT
370
    25
390
0
  6
CONTINUOUS
 62
     7
100
AcDbLine
 10
167.790001
 20
190.75
 30
0.0
 11
167.790001
 21
192.25
 31
0.0
  0
LINE
  5
140D
100
AcDbEntity
  8
10000_FRONT
370
    25
390
0
  6
CONTINUOUS
 62
     7
100
AcDbLine
 10
168.190001
 20
190.75
 30
0.0
 11
167.790001
 21
190.75
 31
0.0
  0
LINE
  5
140E
100
AcDbEntity
  8
10000_FRONT
370
    25
390
0
  6
CONTINUOUS
 62
     7
100
AcDbLine
 10
168.99
 20
191.549999
 30
0.0
 11
168.987103
 21
191.48291
 31
0.0
  0
LINE
  5
140F
100
AcDbEntity
  8
10000_FRONT
370
    25
390
0
  6
CONTINUOUS
 62
     7
100
AcDbLine
 10
168.987103
 20
191.48291
 30
0.0
 11
168.978659
 21
191.416794
 31
0.0
  0
LINE
  5
1410
100
AcDbEntity
  8
10000_FRONT
370
    25
390
0
  6
CONTINUOUS
 62
     7
100
AcDbLine
 10
168.978659
 20
191.416794
 30
0.0
 11
168.96505
 21
191.352371
 31
0.0
  0
LINE
  5
1411
100
AcDbEntity
  8
10000_FRONT
370
    25
390
0
  6
CONTINUOUS
 62
     7
100
AcDbLine
 10
168.96505
 20
191.352371
 30
0.0
 11
168.946651
 21
191.290363
 31
0.0
  0
LINE
  5
1412
100
AcDbEntity
  8
10000_FRONT
370
    25
390
0
  6
CONTINUOUS
 62
     7
100
AcDbLine
 10
168.946651
 20
191.290363
 30
0.0
 11
168.923849
 21
191.231483
 31
0.0
  0
LINE
  5
1413
100
AcDbEntity
  8
10000_FRONT
370
    25
390
0
  6
CONTINUOUS
 62
     7
100
AcDbLine
 10
168.923849
 20
191.231483
 30
0.0
 11
168.897234
 21
191.176231
 31
0.0
  0
LINE
  5
1414
100
AcDbEntity
  8
10000_FRONT
370
    25
390
0
  6
CONTINUOUS
 62
     7
100
AcDbLine
 10
168.897234
 20
191.176231
 30
0.0
 11
168.867561
 21
191.124874
 31
0.0
  0
LINE
  5
1415
100
AcDbEntity
  8
10000_FRONT
370
    25
390
0
  6
CONTINUOUS
 62
     7
100
AcDbLine
 10
168.867561
 20
191.124874
 30
0.0
 11
168.835583
 21
191.07766
 31
0.0
  0
LINE
  5
1416
100
AcDbEntity
  8
10000_FRONT
370
    25
390
0
  6
CONTINUOUS
 62
     7
100
AcDbLine
 10
168.835583
 20
191.07766
 30
0.0
 11
168.802048
 21
191.034843
 31
0.0
  0
LINE
  5
1417
100
AcDbEntity
  8
10000_FRONT
370
    25
390
0
  6
CONTINUOUS
 62
     7
100
AcDbLine
 10
168.802048
 20
191.034843
 30
0.0
 11
168.767199
 21
190.996101
 31
0.0
  0
LINE
  5
1418
100
AcDbEntity
  8
10000_FRONT
370
    25
390
0
  6
CONTINUOUS
 62
     7
100
AcDbLine
 10
168.767199
 20
190.996101
 30
0.0
 11
168.73
 21
190.959888
 31
0.0
  0
LINE
  5
1419
100
AcDbEntity
  8
10000_FRONT
370
    25
390
0
  6
CONTINUOUS
 62
     7
100
AcDbLine
 10
168.73
 20
190.959888
 30
0.0
 11
168.690615
 21
190.926216
 31
0.0
  0
LINE
  5
141A
100
AcDbEntity
  8
10000_FRONT
370
    25
390
0
  6
CONTINUOUS
 62
     7
100
AcDbLine
 10
168.690615
 20
190.926216
 30
0.0
 11
168.649307
 21
190.895222
 31
0.0
  0
LINE
  5
141B
100
AcDbEntity
  8
10000_FRONT
370
    25
390
0
  6
CONTINUOUS
 62
     7
100
AcDbLine
 10
168.649307
 20
190.895222
 30
0.0
 11
168.606339
 21
190.867039
 31
0.0
  0
LINE
  5
141C
100
AcDbEntity
  8
10000_FRONT
370
    25
390
0
  6
CONTINUOUS
 62
     7
100
AcDbLine
 10
168.606339
 20
190.867039
 30
0.0
 11
168.561968
 21
190.841801
 31
0.0
  0
LINE
  5
141D
100
AcDbEntity
  8
10000_FRONT
370
    25
390
0
  6
CONTINUOUS
 62
     7
100
AcDbLine
 10
168.561968
 20
190.841801
 30
0.0
 11
168.51646
 21
190.819641
 31
0.0
  0
LINE
  5
141E
100
AcDbEntity
  8
10000_FRONT
370
    25
390
0
  6
CONTINUOUS
 62
     7
100
AcDbLine
 10
168.51646
 20
190.819641
 30
0.0
 11
168.470085
 21
190.800667
 31
0.0
  0
LINE
  5
141F
100
AcDbEntity
  8
10000_FRONT
370
    25
390
0
  6
CONTINUOUS
 62
     7
100
AcDbLine
 10
168.470085
 20
190.800667
 30
0.0
 11
168.423141
 21
190.78484
 31
0.0
  0
LINE
  5
1420
100
AcDbEntity
  8
10000_FRONT
370
    25
390
0
  6
CONTINUOUS
 62
     7
100
AcDbLine
 10
168.423141
 20
190.78484
 30
0.0
 11
168.375919
 21
190.772076
 31
0.0
  0
LINE
  5
1421
100
AcDbEntity
  8
10000_FRONT
370
    25
390
0
  6
CONTINUOUS
 62
     7
100
AcDbLine
 10
168.375919
 20
190.772076
 30
0.0
 11
168.328712
 21
190.762295
 31
0.0
  0
LINE
  5
1422
100
AcDbEntity
  8
10000_FRONT
370
    25
390
0
  6
CONTINUOUS
 62
     7
100
AcDbLine
 10
168.328712
 20
190.762295
 30
0.0
 11
168.281815
 21
190.755409
 31
0.0
  0
LINE
  5
1423
100
AcDbEntity
  8
10000_FRONT
370
    25
390
0
  6
CONTINUOUS
 62
     7
100
AcDbLine
 10
168.281815
 20
190.755409
 30
0.0
 11
168.235519
 21
190.751339
 31
0.0
  0
LINE
  5
1424
100
AcDbEntity
  8
10000_FRONT
370
    25
390
0
  6
CONTINUOUS
 62
     7
100
AcDbLine
 10
168.235519
 20
190.751339
 30
0.0
 11
168.190001
 21
190.75
 31
0.0
  0
LINE
  5
1425
100
AcDbEntity
  8
10000_FRONT
370
    25
390
0
  6
CONTINUOUS
 62
     7
100
AcDbLine
 10
133.01
 20
191.549999
 30
0.0
 11
133.01
 21
192.25
 31
0.0
  0
LINE
  5
1426
100
AcDbEntity
  8
10000_FRONT
370
    25
390
0
  6
CONTINUOUS
 62
     7
100
AcDbLine
 10
133.01
 20
230.75
 30
0.0
 11
133.01
 21
231.45
 31
0.0
  0
LINE
  5
1427
100
AcDbEntity
  8
10000_FRONT
370
    25
390
0
  6
CONTINUOUS
 62
     7
100
AcDbLine
 10
150.603333
 20
230.75
 30
0.0
 11
150.603333
 21
232.25
 31
0.0
  0
LINE
  5
1428
100
AcDbEntity
  8
10000_FRONT
370
    25
390
0
  6
CONTINUOUS
 62
     7
100
AcDbLine
 10
142.01
 20
230.75
 30
0.0
 11
142.01
 21
232.25
 31
0.0
  0
LINE
  5
1429
100
AcDbEntity
  8
10000_FRONT
370
    25
390
0
  6
CONTINUOUS
 62
     7
100
AcDbLine
 10
159.99
 20
190.75
 30
0.0
 11
159.196667
 21
190.75
 31
0.0
  0
LINE
  5
142A
100
AcDbEntity
  8
10000_FRONT
370
    25
390
0
  6
CONTINUOUS
 62
     7
100
AcDbLine
 10
150.603333
 20
190.75
 30
0.0
 11
150.603333
 21
192.25
 31
0.0
  0
LINE
  5
142B
100
AcDbEntity
  8
10000_FRONT
370
    25
390
0
  6
CONTINUOUS
 62
     7
100
AcDbLine
 10
151.396667
 20
190.75
 30
0.0
 11
150.603333
 21
190.75
 31
0.0
  0
LINE
  5
142C
100
AcDbEntity
  8
10000_FRONT
370
    25
390
0
  6
CONTINUOUS
 62
     7
100
AcDbLine
 10
142.01
 20
190.75
 30
0.0
 11
142.01
 21
192.25
 31
0.0
  0
LINE
  5
142D
100
AcDbEntity
  8
10000_FRONT
370
    25
390
0
  6
CONTINUOUS
 62
     7
100
AcDbLine
 10
142.803333
 20
190.75
 30
0.0
 11
142.01
 21
190.75
 31
0.0
  0
LINE
  5
142E
100
AcDbEntity
  8
10000_FRONT
370
    25
390
0
  6
CONTINUOUS
 62
     7
100
AcDbLine
 10
133.809999
 20
190.75
 30
0.0
 11
133.764481
 21
190.751339
 31
0.0
  0
LINE
  5
142F
100
AcDbEntity
  8
10000_FRONT
370
    25
390
0
  6
CONTINUOUS
 62
     7
100
AcDbLine
 10
133.764481
 20
190.751339
 30
0.0
 11
133.718185
 21
190.755409
 31
0.0
  0
LINE
  5
1430
100
AcDbEntity
  8
10000_FRONT
370
    25
390
0
  6
CONTINUOUS
 62
     7
100
AcDbLine
 10
133.718185
 20
190.755409
 30
0.0
 11
133.671288
 21
190.762295
 31
0.0
  0
LINE
  5
1431
100
AcDbEntity
  8
10000_FRONT
370
    25
390
0
  6
CONTINUOUS
 62
     7
100
AcDbLine
 10
133.671288
 20
190.762295
 30
0.0
 11
133.624081
 21
190.772076
 31
0.0
  0
LINE
  5
1432
100
AcDbEntity
  8
10000_FRONT
370
    25
390
0
  6
CONTINUOUS
 62
     7
100
AcDbLine
 10
133.624081
 20
190.772076
 30
0.0
 11
133.576859
 21
190.78484
 31
0.0
  0
LINE
  5
1433
100
AcDbEntity
  8
10000_FRONT
370
    25
390
0
  6
CONTINUOUS
 62
     7
100
AcDbLine
 10
133.576859
 20
190.78484
 30
0.0
 11
133.529915
 21
190.800667
 31
0.0
  0
LINE
  5
1434
100
AcDbEntity
  8
10000_FRONT
370
    25
390
0
  6
CONTINUOUS
 62
     7
100
AcDbLine
 10
133.529915
 20
190.800667
 30
0.0
 11
133.48354
 21
190.819641
 31
0.0
  0
LINE
  5
1435
100
AcDbEntity
  8
10000_FRONT
370
    25
390
0
  6
CONTINUOUS
 62
     7
100
AcDbLine
 10
133.48354
 20
190.819641
 30
0.0
 11
133.438032
 21
190.841801
 31
0.0
  0
LINE
  5
1436
100
AcDbEntity
  8
10000_FRONT
370
    25
390
0
  6
CONTINUOUS
 62
     7
100
AcDbLine
 10
133.438032
 20
190.841801
 30
0.0
 11
133.393661
 21
190.867039
 31
0.0
  0
LINE
  5
1437
100
AcDbEntity
  8
10000_FRONT
370
    25
390
0
  6
CONTINUOUS
 62
     7
100
AcDbLine
 10
133.393661
 20
190.867039
 30
0.0
 11
133.350693
 21
190.895222
 31
0.0
  0
LINE
  5
1438
100
AcDbEntity
  8
10000_FRONT
370
    25
390
0
  6
CONTINUOUS
 62
     7
100
AcDbLine
 10
133.350693
 20
190.895222
 30
0.0
 11
133.309385
 21
190.926216
 31
0.0
  0
LINE
  5
1439
100
AcDbEntity
  8
10000_FRONT
370
    25
390
0
  6
CONTINUOUS
 62
     7
100
AcDbLine
 10
133.309385
 20
190.926216
 30
0.0
 11
133.27
 21
190.959888
 31
0.0
  0
LINE
  5
143A
100
AcDbEntity
  8
10000_FRONT
370
    25
390
0
  6
CONTINUOUS
 62
     7
100
AcDbLine
 10
133.27
 20
190.959888
 30
0.0
 11
133.232801
 21
190.996101
 31
0.0
  0
LINE
  5
143B
100
AcDbEntity
  8
10000_FRONT
370
    25
390
0
  6
CONTINUOUS
 62
     7
100
AcDbLine
 10
133.232801
 20
190.996101
 30
0.0
 11
133.197952
 21
191.034843
 31
0.0
  0
LINE
  5
143C
100
AcDbEntity
  8
10000_FRONT
370
    25
390
0
  6
CONTINUOUS
 62
     7
100
AcDbLine
 10
133.197952
 20
191.034843
 30
0.0
 11
133.164417
 21
191.07766
 31
0.0
  0
LINE
  5
143D
100
AcDbEntity
  8
10000_FRONT
370
    25
390
0
  6
CONTINUOUS
 62
     7
100
AcDbLine
 10
133.164417
 20
191.07766
 30
0.0
 11
133.132439
 21
191.124874
 31
0.0
  0
LINE
  5
143E
100
AcDbEntity
  8
10000_FRONT
370
    25
390
0
  6
CONTINUOUS
 62
     7
100
AcDbLine
 10
133.132439
 20
191.124874
 30
0.0
 11
133.102766
 21
191.176231
 31
0.0
  0
LINE
  5
143F
100
AcDbEntity
  8
10000_FRONT
370
    25
390
0
  6
CONTINUOUS
 62
     7
100
AcDbLine
 10
133.102766
 20
191.176231
 30
0.0
 11
133.076151
 21
191.231483
 31
0.0
  0
LINE
  5
1440
100
AcDbEntity
  8
10000_FRONT
370
    25
390
0
  6
CONTINUOUS
 62
     7
100
AcDbLine
 10
133.076151
 20
191.231483
 30
0.0
 11
133.053349
 21
191.290363
 31
0.0
  0
LINE
  5
1441
100
AcDbEntity
  8
10000_FRONT
370
    25
390
0
  6
CONTINUOUS
 62
     7
100
AcDbLine
 10
133.053349
 20
191.290363
 30
0.0
 11
133.03495
 21
191.352371
 31
0.0
  0
LINE
  5
1442
100
AcDbEntity
  8
10000_FRONT
370
    25
390
0
  6
CONTINUOUS
 62
     7
100
AcDbLine
 10
133.03495
 20
191.352371
 30
0.0
 11
133.021341
 21
191.416794
 31
0.0
  0
LINE
  5
1443
100
AcDbEntity
  8
10000_FRONT
370
    25
390
0
  6
CONTINUOUS
 62
     7
100
AcDbLine
 10
133.021341
 20
191.416794
 30
0.0
 11
133.012897
 21
191.48291
 31
0.0
  0
LINE
  5
1444
100
AcDbEntity
  8
10000_FRONT
370
    25
390
0
  6
CONTINUOUS
 62
     7
100
AcDbLine
 10
133.012897
 20
191.48291
 30
0.0
 11
133.01
 21
191.549999
 31
0.0
  0
LINE
  5
1445
100
AcDbEntity
  8
10000_FRONT
370
    25
390
0
  6
CONTINUOUS
 62
     7
100
AcDbLine
 10
134.209999
 20
190.75
 30
0.0
 11
133.809999
 21
190.75
 31
0.0
  0
LINE
  5
1446
100
AcDbEntity
  8
10000_FRONT
370
    25
390
0
  6
CONTINUOUS
 62
     7
100
AcDbLine
 10
133.809999
 20
232.25
 30
0.0
 11
134.209999
 21
232.25
 31
0.0
  0
LINE
  5
1447
100
AcDbEntity
  8
10000_FRONT
370
    25
390
0
  6
CONTINUOUS
 62
     7
100
AcDbLine
 10
133.01
 20
231.45
 30
0.0
 11
133.012875
 21
231.516942
 31
0.0
  0
LINE
  5
1448
100
AcDbEntity
  8
10000_FRONT
370
    25
390
0
  6
CONTINUOUS
 62
     7
100
AcDbLine
 10
133.012875
 20
231.516942
 30
0.0
 11
133.021242
 21
231.582664
 31
0.0
  0
LINE
  5
1449
100
AcDbEntity
  8
10000_FRONT
370
    25
390
0
  6
CONTINUOUS
 62
     7
100
AcDbLine
 10
133.021242
 20
231.582664
 30
0.0
 11
133.034712
 21
231.646597
 31
0.0
  0
LINE
  5
144A
100
AcDbEntity
  8
10000_FRONT
370
    25
390
0
  6
CONTINUOUS
 62
     7
100
AcDbLine
 10
133.034712
 20
231.646597
 30
0.0
 11
133.052898
 21
231.708173
 31
0.0
  0
LINE
  5
144B
100
AcDbEntity
  8
10000_FRONT
370
    25
390
0
  6
CONTINUOUS
 62
     7
100
AcDbLine
 10
133.052898
 20
231.708173
 30
0.0
 11
133.075413
 21
231.766825
 31
0.0
  0
LINE
  5
144C
100
AcDbEntity
  8
10000_FRONT
370
    25
390
0
  6
CONTINUOUS
 62
     7
100
AcDbLine
 10
133.075413
 20
231.766825
 30
0.0
 11
133.101814
 21
231.822041
 31
0.0
  0
LINE
  5
144D
100
AcDbEntity
  8
10000_FRONT
370
    25
390
0
  6
CONTINUOUS
 62
     7
100
AcDbLine
 10
133.101814
 20
231.822041
 30
0.0
 11
133.131464
 21
231.873581
 31
0.0
  0
LINE
  5
144E
100
AcDbEntity
  8
10000_FRONT
370
    25
390
0
  6
CONTINUOUS
 62
     7
100
AcDbLine
 10
133.131464
 20
231.873581
 30
0.0
 11
133.163706
 21
231.921278
 31
0.0
  0
LINE
  5
144F
100
AcDbEntity
  8
10000_FRONT
370
    25
390
0
  6
CONTINUOUS
 62
     7
100
AcDbLine
 10
133.163706
 20
231.921278
 30
0.0
 11
133.197876
 21
231.964961
 31
0.0
  0
LINE
  5
1450
100
AcDbEntity
  8
10000_FRONT
370
    25
390
0
  6
CONTINUOUS
 62
     7
100
AcDbLine
 10
133.197876
 20
231.964961
 30
0.0
 11
133.23332
 21
232.004464
 31
0.0
  0
LINE
  5
1451
100
AcDbEntity
  8
10000_FRONT
370
    25
390
0
  6
CONTINUOUS
 62
     7
100
AcDbLine
 10
133.23332
 20
232.004464
 30
0.0
 11
133.269918
 21
232.040142
 31
0.0
  0
LINE
  5
1452
100
AcDbEntity
  8
10000_FRONT
370
    25
390
0
  6
CONTINUOUS
 62
     7
100
AcDbLine
 10
133.269918
 20
232.040142
 30
0.0
 11
133.308794
 21
232.073387
 31
0.0
  0
LINE
  5
1453
100
AcDbEntity
  8
10000_FRONT
370
    25
390
0
  6
CONTINUOUS
 62
     7
100
AcDbLine
 10
133.308794
 20
232.073387
 30
0.0
 11
133.34976
 21
232.104139
 31
0.0
  0
LINE
  5
1454
100
AcDbEntity
  8
10000_FRONT
370
    25
390
0
  6
CONTINUOUS
 62
     7
100
AcDbLine
 10
133.34976
 20
232.104139
 30
0.0
 11
133.392534
 21
232.132234
 31
0.0
  0
LINE
  5
1455
100
AcDbEntity
  8
10000_FRONT
370
    25
390
0
  6
CONTINUOUS
 62
     7
100
AcDbLine
 10
133.392534
 20
232.132234
 30
0.0
 11
133.436832
 21
232.157511
 31
0.0
  0
LINE
  5
1456
100
AcDbEntity
  8
10000_FRONT
370
    25
390
0
  6
CONTINUOUS
 62
     7
100
AcDbLine
 10
133.436832
 20
232.157511
 30
0.0
 11
133.48237
 21
232.179808
 31
0.0
  0
LINE
  5
1457
100
AcDbEntity
  8
10000_FRONT
370
    25
390
0
  6
CONTINUOUS
 62
     7
100
AcDbLine
 10
133.48237
 20
232.179808
 30
0.0
 11
133.528862
 21
232.198966
 31
0.0
  0
LINE
  5
1458
100
AcDbEntity
  8
10000_FRONT
370
    25
390
0
  6
CONTINUOUS
 62
     7
100
AcDbLine
 10
133.528862
 20
232.198966
 30
0.0
 11
133.575993
 21
232.214934
 31
0.0
  0
LINE
  5
1459
100
AcDbEntity
  8
10000_FRONT
370
    25
390
0
  6
CONTINUOUS
 62
     7
100
AcDbLine
 10
133.575993
 20
232.214934
 30
0.0
 11
133.623436
 21
232.227798
 31
0.0
  0
LINE
  5
145A
100
AcDbEntity
  8
10000_FRONT
370
    25
390
0
  6
CONTINUOUS
 62
     7
100
AcDbLine
 10
133.623436
 20
232.227798
 30
0.0
 11
133.67087
 21
232.237646
 31
0.0
  0
LINE
  5
145B
100
AcDbEntity
  8
10000_FRONT
370
    25
390
0
  6
CONTINUOUS
 62
     7
100
AcDbLine
 10
133.67087
 20
232.237646
 30
0.0
 11
133.717972
 21
232.244568
 31
0.0
  0
LINE
  5
145C
100
AcDbEntity
  8
10000_FRONT
370
    25
390
0
  6
CONTINUOUS
 62
     7
100
AcDbLine
 10
133.717972
 20
232.244568
 30
0.0
 11
133.764416
 21
232.248656
 31
0.0
  0
LINE
  5
145D
100
AcDbEntity
  8
10000_FRONT
370
    25
390
0
  6
CONTINUOUS
 62
     7
100
AcDbLine
 10
133.764416
 20
232.248656
 30
0.0
 11
133.809999
 21
232.25
 31
0.0
  0
ARC
  5
145E
100
AcDbEntity
  8
10000_FRONT
370
    25
390
0
  6
CONTINUOUS
 62
     7
100
AcDbCircle
 10
150.04
 20
214.909994
 30
0.0
 40
0.34
100
AcDbArc
 50
155.683281
 51
164.649489
  0
ARC
  5
145F
100
AcDbEntity
  8
10000_FRONT
370
    25
390
0
  6
CONTINUOUS
 62
     7
100
AcDbCircle
 10
139.04
 20
214.909994
 30
0.0
 40
0.34
100
AcDbArc
 50
155.683314
 51
164.649494
  0
ARC
  5
1460
100
AcDbEntity
  8
10000_FRONT
370
    25
390
0
  6
CONTINUOUS
 62
     7
100
AcDbCircle
 10
151.36
 20
208.090006
 30
0.0
 40
0.34
100
AcDbArc
 50
335.683284
 51
344.649491
  0
ARC
  5
1461
100
AcDbEntity
  8
10000_FRONT
370
    25
390
0
  6
CONTINUOUS
 62
     7
100
AcDbCircle
 10
140.36
 20
208.090006
 30
0.0
 40
0.34
100
AcDbArc
 50
335.683288
 51
344.649477
  0
ARC
  5
1462
100
AcDbEntity
  8
10000_FRONT
370
    25
390
0
  6
CONTINUOUS
 62
     7
100
AcDbCircle
 10
151.36
 20
214.909994
 30
0.0
 40
0.34
100
AcDbArc
 50
15.350509
 51
24.316716
  0
ARC
  5
1463
100
AcDbEntity
  8
10000_FRONT
370
    25
390
0
  6
CONTINUOUS
 62
     7
100
AcDbCircle
 10
140.36
 20
214.909994
 30
0.0
 40
0.34
100
AcDbArc
 50
15.350523
 51
24.316712
  0
ARC
  5
1464
100
AcDbEntity
  8
10000_FRONT
370
    25
390
0
  6
CONTINUOUS
 62
     7
100
AcDbCircle
 10
150.04
 20
208.090006
 30
0.0
 40
0.34
100
AcDbArc
 50
195.350511
 51
204.316719
  0
ARC
  5
1465
100
AcDbEntity
  8
10000_FRONT
370
    25
390
0
  6
CONTINUOUS
 62
     7
100
AcDbCircle
 10
139.04
 20
208.090006
 30
0.0
 40
0.34
100
AcDbArc
 50
195.350506
 51
204.316686
  0
LINE
  5
1466
100
AcDbEntity
  8
90000_FRAME
370
    13
  6
CONTINUOUS
 62
     7
100
AcDbLine
 10
50.704072
 20
59.496858
 30
0.0
 11
50.704072
 21
329.496858
 31
0.0
  0
LINE
  5
1467
100
AcDbEntity
  8
90000_FRAME
370
    13
  6
CONTINUOUS
 62
     7
100
AcDbLine
 10
250.704072
 20
329.496858
 30
0.0
 11
50.704072
 21
329.496858
 31
0.0
  0
LINE
  5
1468
100
AcDbEntity
  8
91000_TIP
370
    13
  6
CONTINUOUS
 62
     7
100
AcDbLine
 10
82.083533
 20
75.706949
 30
0.0
 11
92.083533
 21
78.206949
 31
0.0
  0
LINE
  5
1469
100
AcDbEntity
  8
91000_TIP
370
    13
  6
CONTINUOUS
 62
     7
100
AcDbLine
 10
80.804022
 20
73.206949
 30
0.0
 11
104.406012
 21
73.206949
 31
0.0
  0
LINE
  5
146A
100
AcDbEntity
  8
91000_TIP
370
    13
  6
CONTINUOUS
 62
     7
100
AcDbLine
 10
82.083533
 20
70.706949
 30
0.0
 11
92.083533
 21
68.206949
 31
0.0
  0
LINE
  5
146B
100
AcDbEntity
  8
91000_TIP
370
    13
  6
CONTINUOUS
 62
     7
100
AcDbLine
 10
82.083533
 20
75.706949
 30
0.0
 11
82.083533
 21
70.706949
 31
0.0
  0
LINE
  5
146C
100
AcDbEntity
  8
91000_TIP
370
    13
  6
CONTINUOUS
 62
     7
100
AcDbLine
 10
92.083533
 20
78.206949
 30
0.0
 11
92.083533
 21
68.206949
 31
0.0
  0
LINE
  5
146D
100
AcDbEntity
  8
91000_TIP
370
    13
  6
CONTINUOUS
 62
     7
100
AcDbLine
 10
98.583532
 20
67.485468
 30
0.0
 11
98.583532
 21
78.768854
 31
0.0
  0
CIRCLE
  5
146E
100
AcDbEntity
  8
91000_TIP
370
    13
  6
CONTINUOUS
 62
     7
100
AcDbCircle
 10
98.583532
 20
73.206949
 30
0.0
 40
5.0
  0
CIRCLE
  5
146F
100
AcDbEntity
  8
91000_TIP
370
    13
  6
CONTINUOUS
 62
     7
100
AcDbCircle
 10
98.583532
 20
73.206949
 30
0.0
 40
2.5
  0
TEXT
  5
1470
100
AcDbEntity
  8
90000_FRAME
370
    13
  6
CONTINUOUS
 62
     7
100
AcDbText
 10
111.263613
 20
84.274562
 30
0.0
 40
2.2
  1
All dimensions are in millimeters (mm)
 41
0.961374
100
AcDbText
  0
TEXT
  5
1471
100
AcDbEntity
  8
90000_FRAME
370
    13
  6
CONTINUOUS
 62
     7
100
AcDbText
 10
111.263613
 20
87.403585
 30
0.0
 40
2.2
  1
Alle Bemassungswerte sind in Millimeter (mm) angegeben.
 41
0.825144
100
AcDbText
  0
LINE
  5
1472
100
AcDbEntity
  8
90000_FRAME
370
    13
  6
CONTINUOUS
 62
     7
100
AcDbLine
 10
250.704072
 20
59.496858
 30
0.0
 11
250.704072
 21
329.496858
 31
0.0
  0
LINE
  5
1473
100
AcDbEntity
  8
90000_FRAME
370
    13
  6
CONTINUOUS
 62
     7
100
AcDbLine
 10
250.704072
 20
59.496858
 30
0.0
 11
50.704072
 21
59.496858
 31
0.0
  0
TEXT
  5
1474
100
AcDbEntity
  8
90000_FRAME
370
    13
  6
CONTINUOUS
 62
     7
100
AcDbText
 10
162.152155
 20
77.2
 30
0.0
 40
3.0
  1
3RH2911-2GA04
 41
0.784213
100
AcDbText
  0
TEXT
  5
1475
100
AcDbEntity
  8
90000_FRAME
370
    13
  6
CONTINUOUS
 62
     7
100
AcDbText
 10
203.864072
 20
66.396858
 30
0.0
 40
2.2
  1
Massstab/Scale:
 41
0.9
100
AcDbText
  0
TEXT
  5
1476
100
AcDbEntity
  8
90000_FRAME
370
    13
  6
CONTINUOUS
 62
     7
100
AcDbText
 10
162.0
 20
66.396858
 30
0.0
 40
2.2
  1
Format/Size: DIN A4
 41
0.803258
100
AcDbText
  0
LINE
  5
1477
100
AcDbEntity
  8
90000_FRAME
370
    13
  6
CONTINUOUS
 62
     7
100
AcDbLine
 10
245.704072
 20
64.496858
 30
0.0
 11
245.704072
 21
82.496858
 31
0.0
  0
LINE
  5
1478
100
AcDbEntity
  8
90000_FRAME
370
    13
  6
CONTINUOUS
 62
     7
100
AcDbLine
 10
203.204072
 20
64.496858
 30
0.0
 11
203.204072
 21
70.496858
 31
0.0
  0
LINE
  5
1479
100
AcDbEntity
  8
90000_FRAME
370
    13
  6
CONTINUOUS
 62
     7
100
AcDbLine
 10
160.704072
 20
64.496858
 30
0.0
 11
160.704072
 21
82.496858
 31
0.0
  0
LINE
  5
147A
100
AcDbEntity
  8
90000_FRAME
370
    13
  6
CONTINUOUS
 62
     7
100
AcDbLine
 10
110.704072
 20
82.496858
 30
0.0
 11
245.704072
 21
82.496858
 31
0.0
  0
LINE
  5
147B
100
AcDbEntity
  8
90000_FRAME
370
    13
  6
CONTINUOUS
 62
     7
100
AcDbLine
 10
160.704072
 20
70.496858
 30
0.0
 11
245.704072
 21
70.496858
 31
0.0
  0
LINE
  5
147C
100
AcDbEntity
  8
90000_FRAME
370
    13
  6
CONTINUOUS
 62
     7
100
AcDbLine
 10
110.704072
 20
64.496858
 30
0.0
 11
110.704072
 21
82.496858
 31
0.0
  0
LINE
  5
147D
100
AcDbEntity
  8
90000_FRAME
370
    13
  6
CONTINUOUS
 62
     7
100
AcDbLine
 10
110.704072
 20
64.496858
 30
0.0
 11
245.704072
 21
64.496858
 31
0.0
  0
LINE
  5
147E
100
AcDbEntity
  8
90000_FRAME
370
    13
  6
CONTINUOUS
 62
     7
100
AcDbLine
 10
124.890272
 20
75.911406
 30
0.0
 11
124.890272
 21
71.158137
 31
0.0
  0
LINE
  5
147F
100
AcDbEntity
  8
90000_FRAME
370
    13
  6
CONTINUOUS
 62
     7
100
AcDbLine
 10
126.316253
 20
75.911406
 30
0.0
 11
126.316253
 21
71.158137
 31
0.0
  0
LINE
  5
1480
100
AcDbEntity
  8
90000_FRAME
370
    13
  6
CONTINUOUS
 62
     7
100
AcDbLine
 10
124.890272
 20
71.158137
 30
0.0
 11
126.316253
 21
71.158137
 31
0.0
  0
LINE
  5
1481
100
AcDbEntity
  8
90000_FRAME
370
    13
  6
CONTINUOUS
 62
     7
100
AcDbLine
 10
124.890272
 20
75.911406
 30
0.0
 11
126.316253
 21
75.911406
 31
0.0
  0
LINE
  5
1482
100
AcDbEntity
  8
90000_FRAME
370
    13
  6
CONTINUOUS
 62
     7
100
AcDbLine
 10
127.409505
 20
75.911406
 30
0.0
 11
127.409505
 21
71.158137
 31
0.0
  0
LINE
  5
1483
100
AcDbEntity
  8
90000_FRAME
370
    13
  6
CONTINUOUS
 62
     7
100
AcDbLine
 10
127.409505
 20
71.158137
 30
0.0
 11
130.974457
 21
71.158137
 31
0.0
  0
LINE
  5
1484
100
AcDbEntity
  8
90000_FRAME
370
    13
  6
CONTINUOUS
 62
     7
100
AcDbLine
 10
130.974457
 20
72.061258
 30
0.0
 11
128.787953
 21
72.061258
 31
0.0
  0
LINE
  5
1485
100
AcDbEntity
  8
90000_FRAME
370
    13
  6
CONTINUOUS
 62
     7
100
AcDbLine
 10
130.974457
 20
72.061258
 30
0.0
 11
130.974457
 21
71.158137
 31
0.0
  0
LINE
  5
1486
100
AcDbEntity
  8
90000_FRAME
370
    13
  6
CONTINUOUS
 62
     7
100
AcDbLine
 10
130.926924
 20
75.911406
 30
0.0
 11
127.409505
 21
75.911406
 31
0.0
  0
LINE
  5
1487
100
AcDbEntity
  8
90000_FRAME
370
    13
  6
CONTINUOUS
 62
     7
100
AcDbLine
 10
130.926924
 20
75.032051
 30
0.0
 11
128.787953
 21
75.032051
 31
0.0
  0
LINE
  5
1488
100
AcDbEntity
  8
90000_FRAME
370
    13
  6
CONTINUOUS
 62
     7
100
AcDbLine
 10
130.926924
 20
75.911406
 30
0.0
 11
130.926924
 21
75.032051
 31
0.0
  0
LINE
  5
1489
100
AcDbEntity
  8
90000_FRAME
370
    13
  6
CONTINUOUS
 62
     7
100
AcDbLine
 10
130.641728
 20
73.178276
 30
0.0
 11
128.787953
 21
73.178276
 31
0.0
  0
LINE
  5
148A
100
AcDbEntity
  8
90000_FRAME
370
    13
  6
CONTINUOUS
 62
     7
100
AcDbLine
 10
130.641728
 20
73.962566
 30
0.0
 11
130.641728
 21
73.178276
 31
0.0
  0
LINE
  5
148B
100
AcDbEntity
  8
90000_FRAME
370
    13
  6
CONTINUOUS
 62
     7
100
AcDbLine
 10
130.641728
 20
73.962566
 30
0.0
 11
128.787953
 21
73.962566
 31
0.0
  0
LINE
  5
148C
100
AcDbEntity
  8
90000_FRAME
370
    13
  6
CONTINUOUS
 62
     7
100
AcDbLine
 10
128.787953
 20
75.032051
 30
0.0
 11
128.787953
 21
73.962566
 31
0.0
  0
LINE
  5
148D
100
AcDbEntity
  8
90000_FRAME
370
    13
  6
CONTINUOUS
 62
     7
100
AcDbLine
 10
128.787953
 20
73.178276
 30
0.0
 11
128.787953
 21
72.061258
 31
0.0
  0
LINE
  5
148E
100
AcDbEntity
  8
90000_FRAME
370
    13
  6
CONTINUOUS
 62
     7
100
AcDbLine
 10
131.782513
 20
71.158137
 30
0.0
 11
131.782513
 21
75.911406
 31
0.0
  0
LINE
  5
148F
100
AcDbEntity
  8
90000_FRAME
370
    13
  6
CONTINUOUS
 62
     7
100
AcDbLine
 10
131.782513
 20
71.158137
 30
0.0
 11
132.733166
 21
71.158137
 31
0.0
  0
LINE
  5
1490
100
AcDbEntity
  8
90000_FRAME
370
    13
  6
CONTINUOUS
 62
     7
100
AcDbLine
 10
137.629034
 20
75.911406
 30
0.0
 11
137.629034
 21
71.158137
 31
0.0
  0
LINE
  5
1491
100
AcDbEntity
  8
90000_FRAME
370
    13
  6
CONTINUOUS
 62
     7
100
AcDbLine
 10
137.629034
 20
71.158137
 30
0.0
 11
136.250586
 21
71.158137
 31
0.0
  0
LINE
  5
1492
100
AcDbEntity
  8
90000_FRAME
370
    13
  6
CONTINUOUS
 62
     7
100
AcDbLine
 10
134.064082
 20
71.110604
 30
0.0
 11
134.91967
 21
71.110604
 31
0.0
  0
LINE
  5
1493
100
AcDbEntity
  8
90000_FRAME
370
    13
  6
CONTINUOUS
 62
     7
100
AcDbLine
 10
134.064082
 20
71.110604
 30
0.0
 11
132.733166
 21
74.200229
 31
0.0
  0
LINE
  5
1494
100
AcDbEntity
  8
90000_FRAME
370
    13
  6
CONTINUOUS
 62
     7
100
AcDbLine
 10
132.733166
 20
71.158137
 30
0.0
 11
132.733166
 21
74.200229
 31
0.0
  0
LINE
  5
1495
100
AcDbEntity
  8
90000_FRAME
370
    13
  6
CONTINUOUS
 62
     7
100
AcDbLine
 10
136.250586
 20
74.247762
 30
0.0
 11
134.91967
 21
71.110604
 31
0.0
  0
LINE
  5
1496
100
AcDbEntity
  8
90000_FRAME
370
    13
  6
CONTINUOUS
 62
     7
100
AcDbLine
 10
133.493689
 20
75.911406
 30
0.0
 11
131.782513
 21
75.911406
 31
0.0
  0
LINE
  5
1497
100
AcDbEntity
  8
90000_FRAME
370
    13
  6
CONTINUOUS
 62
     7
100
AcDbLine
 10
137.629034
 20
75.911406
 30
0.0
 11
135.917857
 21
75.911406
 31
0.0
  0
LINE
  5
1498
100
AcDbEntity
  8
90000_FRAME
370
    13
  6
CONTINUOUS
 62
     7
100
AcDbLine
 10
133.493689
 20
75.911406
 30
0.0
 11
134.729539
 21
73.011912
 31
0.0
  0
LINE
  5
1499
100
AcDbEntity
  8
90000_FRAME
370
    13
  6
CONTINUOUS
 62
     7
100
AcDbLine
 10
135.917857
 20
75.911406
 30
0.0
 11
134.729539
 21
73.011912
 31
0.0
  0
LINE
  5
149A
100
AcDbEntity
  8
90000_FRAME
370
    13
  6
CONTINUOUS
 62
     7
100
AcDbLine
 10
136.250586
 20
74.247762
 30
0.0
 11
136.250586
 21
71.158137
 31
0.0
  0
LINE
  5
149B
100
AcDbEntity
  8
90000_FRAME
370
    13
  6
CONTINUOUS
 62
     7
100
AcDbLine
 10
138.722285
 20
75.911406
 30
0.0
 11
138.722285
 21
71.158137
 31
0.0
  0
LINE
  5
149C
100
AcDbEntity
  8
90000_FRAME
370
    13
  6
CONTINUOUS
 62
     7
100
AcDbLine
 10
138.722285
 20
71.158137
 30
0.0
 11
142.287237
 21
71.158137
 31
0.0
  0
LINE
  5
149D
100
AcDbEntity
  8
90000_FRAME
370
    13
  6
CONTINUOUS
 62
     7
100
AcDbLine
 10
142.287237
 20
72.061258
 30
0.0
 11
140.100733
 21
72.061258
 31
0.0
  0
LINE
  5
149E
100
AcDbEntity
  8
90000_FRAME
370
    13
  6
CONTINUOUS
 62
     7
100
AcDbLine
 10
142.287237
 20
72.061258
 30
0.0
 11
142.287237
 21
71.158137
 31
0.0
  0
LINE
  5
149F
100
AcDbEntity
  8
90000_FRAME
370
    13
  6
CONTINUOUS
 62
     7
100
AcDbLine
 10
142.239705
 20
75.911406
 30
0.0
 11
138.722285
 21
75.911406
 31
0.0
  0
LINE
  5
14A0
100
AcDbEntity
  8
90000_FRAME
370
    13
  6
CONTINUOUS
 62
     7
100
AcDbLine
 10
142.239705
 20
75.032051
 30
0.0
 11
140.100733
 21
75.032051
 31
0.0
  0
LINE
  5
14A1
100
AcDbEntity
  8
90000_FRAME
370
    13
  6
CONTINUOUS
 62
     7
100
AcDbLine
 10
142.239705
 20
75.911406
 30
0.0
 11
142.239705
 21
75.032051
 31
0.0
  0
LINE
  5
14A2
100
AcDbEntity
  8
90000_FRAME
370
    13
  6
CONTINUOUS
 62
     7
100
AcDbLine
 10
141.954508
 20
73.178276
 30
0.0
 11
140.100733
 21
73.178276
 31
0.0
  0
LINE
  5
14A3
100
AcDbEntity
  8
90000_FRAME
370
    13
  6
CONTINUOUS
 62
     7
100
AcDbLine
 10
141.954508
 20
73.962566
 30
0.0
 11
141.954508
 21
73.178276
 31
0.0
  0
LINE
  5
14A4
100
AcDbEntity
  8
90000_FRAME
370
    13
  6
CONTINUOUS
 62
     7
100
AcDbLine
 10
141.954508
 20
73.962566
 30
0.0
 11
140.100733
 21
73.962566
 31
0.0
  0
LINE
  5
14A5
100
AcDbEntity
  8
90000_FRAME
370
    13
  6
CONTINUOUS
 62
     7
100
AcDbLine
 10
140.100733
 20
75.032051
 30
0.0
 11
140.100733
 21
73.962566
 31
0.0
  0
LINE
  5
14A6
100
AcDbEntity
  8
90000_FRAME
370
    13
  6
CONTINUOUS
 62
     7
100
AcDbLine
 10
140.100733
 20
73.178276
 30
0.0
 11
140.100733
 21
72.061258
 31
0.0
  0
LINE
  5
14A7
100
AcDbEntity
  8
90000_FRAME
370
    13
  6
CONTINUOUS
 62
     7
100
AcDbLine
 10
143.071527
 20
71.158137
 30
0.0
 11
143.071527
 21
75.911406
 31
0.0
  0
LINE
  5
14A8
100
AcDbEntity
  8
90000_FRAME
370
    13
  6
CONTINUOUS
 62
     7
100
AcDbLine
 10
147.254403
 20
75.911406
 30
0.0
 11
147.254403
 21
71.158137
 31
0.0
  0
LINE
  5
14A9
100
AcDbEntity
  8
90000_FRAME
370
    13
  6
CONTINUOUS
 62
     7
100
AcDbLine
 10
143.071527
 20
71.158137
 30
0.0
 11
144.02218
 21
71.158137
 31
0.0
  0
LINE
  5
14AA
100
AcDbEntity
  8
90000_FRAME
370
    13
  6
CONTINUOUS
 62
     7
100
AcDbLine
 10
147.254403
 20
75.911406
 30
0.0
 11
146.30375
 21
75.911406
 31
0.0
  0
LINE
  5
14AB
100
AcDbEntity
  8
90000_FRAME
370
    13
  6
CONTINUOUS
 62
     7
100
AcDbLine
 10
144.616339
 20
75.911406
 30
0.0
 11
143.071527
 21
75.911406
 31
0.0
  0
LINE
  5
14AC
100
AcDbEntity
  8
90000_FRAME
370
    13
  6
CONTINUOUS
 62
     7
100
AcDbLine
 10
147.254403
 20
71.158137
 30
0.0
 11
145.733357
 21
71.158137
 31
0.0
  0
LINE
  5
14AD
100
AcDbEntity
  8
90000_FRAME
370
    13
  6
CONTINUOUS
 62
     7
100
AcDbLine
 10
145.733357
 20
71.158137
 30
0.0
 11
144.02218
 21
74.200229
 31
0.0
  0
LINE
  5
14AE
100
AcDbEntity
  8
90000_FRAME
370
    13
  6
CONTINUOUS
 62
     7
100
AcDbLine
 10
144.616339
 20
75.911406
 30
0.0
 11
146.30375
 21
72.964379
 31
0.0
  0
LINE
  5
14AF
100
AcDbEntity
  8
90000_FRAME
370
    13
  6
CONTINUOUS
 62
     7
100
AcDbLine
 10
146.30375
 20
75.911406
 30
0.0
 11
146.30375
 21
72.964379
 31
0.0
  0
LINE
  5
14B0
100
AcDbEntity
  8
90000_FRAME
370
    13
  6
CONTINUOUS
 62
     7
100
AcDbLine
 10
144.02218
 20
71.158137
 30
0.0
 11
144.02218
 21
74.200229
 31
0.0
  0
LINE
  5
14B1
100
AcDbEntity
  8
90000_FRAME
370
    13
  6
CONTINUOUS
 62
     7
100
AcDbLine
 10
148.062459
 20
71.253202
 30
0.0
 11
148.062459
 21
72.203856
 31
0.0
  0
LINE
  5
14B2
100
AcDbEntity
  8
90000_FRAME
370
    13
  6
CONTINUOUS
 62
     7
100
AcDbLine
 10
151.389748
 20
74.91322
 30
0.0
 11
151.389748
 21
75.863874
 31
0.0
  0
ARC
  5
14B3
100
AcDbEntity
  8
90000_FRAME
370
    13
  6
CONTINUOUS
 62
     7
100
AcDbCircle
 10
149.7671
 20
73.115296
 30
0.0
 40
1.111619
100
AcDbArc
 50
277.709996
 51
295.688493
  0
ARC
  5
14B4
100
AcDbEntity
  8
90000_FRAME
370
    13
  6
CONTINUOUS
 62
     7
100
AcDbCircle
 10
150.05141
 20
72.39047
 30
0.0
 40
0.340169
100
AcDbArc
 50
305.503221
 51
72.46529
  0
ARC
  5
14B5
100
AcDbEntity
  8
90000_FRAME
370
    13
  6
CONTINUOUS
 62
     7
100
AcDbCircle
 10
149.485416
 20
75.792177
 30
0.0
 40
4.756795
100
AcDbArc
 50
252.59392
 51
280.98166
  0
ARC
  5
14B6
100
AcDbEntity
  8
90000_FRAME
370
    13
  6
CONTINUOUS
 62
     7
100
AcDbCircle
 10
149.940252
 20
73.174163
 30
0.0
 40
2.100727
100
AcDbArc
 50
282.405836
 51
311.864443
  0
ARC
  5
14B7
100
AcDbEntity
  8
90000_FRAME
370
    13
  6
CONTINUOUS
 62
     7
100
AcDbCircle
 10
149.666688
 20
74.782505
 30
0.0
 40
0.302963
100
AcDbArc
 50
154.440035
 51
221.82017
  0
ARC
  5
14B8
100
AcDbEntity
  8
90000_FRAME
370
    13
  6
CONTINUOUS
 62
     7
100
AcDbCircle
 10
149.745909
 20
74.703284
 30
0.0
 40
0.410309
100
AcDbArc
 50
102.828783
 51
149.225964
  0
ARC
  5
14B9
100
AcDbEntity
  8
90000_FRAME
370
    13
  6
CONTINUOUS
 62
     7
100
AcDbCircle
 10
150.162935
 20
72.960948
 30
0.0
 40
2.201837
100
AcDbArc
 50
84.040006
 51
103.342766
  0
ARC
  5
14BA
100
AcDbEntity
  8
90000_FRAME
370
    13
  6
CONTINUOUS
 62
     7
100
AcDbCircle
 10
149.821972
 20
70.543584
 30
0.0
 40
4.642374
100
AcDbArc
 50
70.262586
 51
82.952419
  0
ARC
  5
14BB
100
AcDbEntity
  8
90000_FRAME
370
    13
  6
CONTINUOUS
 62
     7
100
AcDbCircle
 10
149.307953
 20
75.215207
 30
0.0
 40
3.258756
100
AcDbArc
 50
247.530021
 51
280.757952
  0
ARC
  5
14BC
100
AcDbEntity
  8
90000_FRAME
370
    13
  6
CONTINUOUS
 62
     7
100
AcDbCircle
 10
142.922987
 20
56.963687
 30
0.0
 40
17.331608
100
AcDbArc
 50
65.341467
 51
67.399777
  0
ARC
  5
14BD
100
AcDbEntity
  8
90000_FRAME
370
    13
  6
CONTINUOUS
 62
     7
100
AcDbCircle
 10
153.718849
 20
82.756114
 30
0.0
 40
10.629164
100
AcDbArc
 50
242.86201
 51
247.104203
  0
ARC
  5
14BE
100
AcDbEntity
  8
90000_FRAME
370
    13
  6
CONTINUOUS
 62
     7
100
AcDbCircle
 10
149.863948
 20
75.222182
 30
0.0
 40
2.166292
100
AcDbArc
 50
227.311928
 51
242.704032
  0
ARC
  5
14BF
100
AcDbEntity
  8
90000_FRAME
370
    13
  6
CONTINUOUS
 62
     7
100
AcDbCircle
 10
149.259917
 20
74.516505
 30
0.0
 40
1.238522
100
AcDbArc
 50
194.795219
 51
225.717655
  0
ARC
  5
14C0
100
AcDbEntity
  8
90000_FRAME
370
    13
  6
CONTINUOUS
 62
     7
100
AcDbCircle
 10
149.322075
 20
74.556725
 30
0.0
 40
1.309092
100
AcDbArc
 50
164.197486
 51
195.802514
  0
ARC
  5
14C1
100
AcDbEntity
  8
90000_FRAME
370
    13
  6
CONTINUOUS
 62
     7
100
AcDbCircle
 10
149.879099
 20
73.668457
 30
0.0
 40
2.366925
100
AcDbArc
 50
86.221802
 51
120.42726
  0
ARC
  5
14C2
100
AcDbEntity
  8
90000_FRAME
370
    13
  6
CONTINUOUS
 62
     7
100
AcDbCircle
 10
149.610242
 20
66.97229
 30
0.0
 40
9.067905
100
AcDbArc
 50
78.682705
 51
87.31476
  0
ARC
  5
14C3
100
AcDbEntity
  8
90000_FRAME
370
    13
  6
CONTINUOUS
 62
     7
100
AcDbCircle
 10
149.154173
 20
74.664232
 30
0.0
 40
1.119747
100
AcDbArc
 50
142.813918
 51
167.152295
  0
ARC
  5
14C4
100
AcDbEntity
  8
90000_FRAME
370
    13
  6
CONTINUOUS
 62
     7
100
AcDbCircle
 10
149.499483
 20
74.357651
 30
0.0
 40
1.580547
100
AcDbArc
 50
121.214095
 51
141.525477
  0
ARC
  5
14C5
100
AcDbEntity
  8
90000_FRAME
370
    13
  6
CONTINUOUS
 62
     7
100
AcDbCircle
 10
150.076657
 20
75.168708
 30
0.0
 40
0.866128
100
AcDbArc
 50
222.776039
 51
239.036243
  0
ARC
  5
14C6
100
AcDbEntity
  8
90000_FRAME
370
    13
  6
CONTINUOUS
 62
     7
100
AcDbCircle
 10
147.569947
 20
67.838436
 30
0.0
 40
6.858774
100
AcDbArc
 50
59.902027
 51
68.203648
  0
ARC
  5
14C7
100
AcDbEntity
  8
90000_FRAME
370
    13
  6
CONTINUOUS
 62
     7
100
AcDbCircle
 10
150.978442
 20
76.764322
 30
0.0
 40
2.698741
100
AcDbArc
 50
240.0482
 51
251.377967
  0
ARC
  5
14C8
100
AcDbEntity
  8
90000_FRAME
370
    13
  6
CONTINUOUS
 62
     7
100
AcDbCircle
 10
150.312985
 20
72.607424
 30
0.0
 40
1.433447
100
AcDbArc
 50
315.890455
 51
333.522926
  0
ARC
  5
14C9
100
AcDbEntity
  8
90000_FRAME
370
    13
  6
CONTINUOUS
 62
     7
100
AcDbCircle
 10
150.317623
 20
72.554016
 30
0.0
 40
1.406229
100
AcDbArc
 50
335.386797
 51
24.391512
  0
ARC
  5
14CA
100
AcDbEntity
  8
90000_FRAME
370
    13
  6
CONTINUOUS
 62
     7
100
AcDbCircle
 10
150.245418
 20
72.47616
 30
0.0
 40
1.504703
100
AcDbArc
 50
25.956292
 51
59.483483
  0
LINE
  5
14CB
100
AcDbEntity
  8
90000_FRAME
370
    13
  6
CONTINUOUS
 62
     7
100
AcDbLine
 10
120.469732
 20
71.253202
 30
0.0
 11
120.469732
 21
72.203856
 31
0.0
  0
LINE
  5
14CC
100
AcDbEntity
  8
90000_FRAME
370
    13
  6
CONTINUOUS
 62
     7
100
AcDbLine
 10
123.797021
 20
74.91322
 30
0.0
 11
123.797021
 21
75.863874
 31
0.0
  0
ARC
  5
14CD
100
AcDbEntity
  8
90000_FRAME
370
    13
  6
CONTINUOUS
 62
     7
100
AcDbCircle
 10
122.174373
 20
73.115296
 30
0.0
 40
1.111619
100
AcDbArc
 50
277.709996
 51
295.688493
  0
ARC
  5
14CE
100
AcDbEntity
  8
90000_FRAME
370
    13
  6
CONTINUOUS
 62
     7
100
AcDbCircle
 10
122.458683
 20
72.39047
 30
0.0
 40
0.340169
100
AcDbArc
 50
305.503221
 51
72.46529
  0
ARC
  5
14CF
100
AcDbEntity
  8
90000_FRAME
370
    13
  6
CONTINUOUS
 62
     7
100
AcDbCircle
 10
121.892689
 20
75.792177
 30
0.0
 40
4.756795
100
AcDbArc
 50
252.59392
 51
280.98166
  0
ARC
  5
14D0
100
AcDbEntity
  8
90000_FRAME
370
    13
  6
CONTINUOUS
 62
     7
100
AcDbCircle
 10
122.347525
 20
73.174163
 30
0.0
 40
2.100727
100
AcDbArc
 50
282.405836
 51
311.864443
  0
ARC
  5
14D1
100
AcDbEntity
  8
90000_FRAME
370
    13
  6
CONTINUOUS
 62
     7
100
AcDbCircle
 10
122.07396
 20
74.782505
 30
0.0
 40
0.302963
100
AcDbArc
 50
154.440035
 51
221.82017
  0
ARC
  5
14D2
100
AcDbEntity
  8
90000_FRAME
370
    13
  6
CONTINUOUS
 62
     7
100
AcDbCircle
 10
122.153182
 20
74.703284
 30
0.0
 40
0.410309
100
AcDbArc
 50
102.828783
 51
149.225964
  0
ARC
  5
14D3
100
AcDbEntity
  8
90000_FRAME
370
    13
  6
CONTINUOUS
 62
     7
100
AcDbCircle
 10
122.570208
 20
72.960948
 30
0.0
 40
2.201837
100
AcDbArc
 50
84.040006
 51
103.342766
  0
ARC
  5
14D4
100
AcDbEntity
  8
90000_FRAME
370
    13
  6
CONTINUOUS
 62
     7
100
AcDbCircle
 10
122.229245
 20
70.543584
 30
0.0
 40
4.642374
100
AcDbArc
 50
70.262586
 51
82.952419
  0
ARC
  5
14D5
100
AcDbEntity
  8
90000_FRAME
370
    13
  6
CONTINUOUS
 62
     7
100
AcDbCircle
 10
121.715226
 20
75.215207
 30
0.0
 40
3.258756
100
AcDbArc
 50
247.530021
 51
280.757952
  0
ARC
  5
14D6
100
AcDbEntity
  8
90000_FRAME
370
    13
  6
CONTINUOUS
 62
     7
100
AcDbCircle
 10
115.33026
 20
56.963687
 30
0.0
 40
17.331608
100
AcDbArc
 50
65.341467
 51
67.399777
  0
ARC
  5
14D7
100
AcDbEntity
  8
90000_FRAME
370
    13
  6
CONTINUOUS
 62
     7
100
AcDbCircle
 10
126.126122
 20
82.756114
 30
0.0
 40
10.629164
100
AcDbArc
 50
242.86201
 51
247.104203
  0
ARC
  5
14D8
100
AcDbEntity
  8
90000_FRAME
370
    13
  6
CONTINUOUS
 62
     7
100
AcDbCircle
 10
122.271221
 20
75.222182
 30
0.0
 40
2.166292
100
AcDbArc
 50
227.311928
 51
242.704032
  0
ARC
  5
14D9
100
AcDbEntity
  8
90000_FRAME
370
    13
  6
CONTINUOUS
 62
     7
100
AcDbCircle
 10
121.66719
 20
74.516505
 30
0.0
 40
1.238522
100
AcDbArc
 50
194.795219
 51
225.717655
  0
ARC
  5
14DA
100
AcDbEntity
  8
90000_FRAME
370
    13
  6
CONTINUOUS
 62
     7
100
AcDbCircle
 10
122.286372
 20
73.668457
 30
0.0
 40
2.366925
100
AcDbArc
 50
86.221802
 51
120.42726
  0
ARC
  5
14DB
100
AcDbEntity
  8
90000_FRAME
370
    13
  6
CONTINUOUS
 62
     7
100
AcDbCircle
 10
122.017515
 20
66.97229
 30
0.0
 40
9.067905
100
AcDbArc
 50
78.682705
 51
87.31476
  0
ARC
  5
14DC
100
AcDbEntity
  8
90000_FRAME
370
    13
  6
CONTINUOUS
 62
     7
100
AcDbCircle
 10
121.906756
 20
74.357651
 30
0.0
 40
1.580547
100
AcDbArc
 50
121.214095
 51
141.525477
  0
ARC
  5
14DD
100
AcDbEntity
  8
90000_FRAME
370
    13
  6
CONTINUOUS
 62
     7
100
AcDbCircle
 10
122.48393
 20
75.168708
 30
0.0
 40
0.866128
100
AcDbArc
 50
222.776039
 51
239.036243
  0
ARC
  5
14DE
100
AcDbEntity
  8
90000_FRAME
370
    13
  6
CONTINUOUS
 62
     7
100
AcDbCircle
 10
119.97722
 20
67.838436
 30
0.0
 40
6.858774
100
AcDbArc
 50
59.902027
 51
68.203648
  0
ARC
  5
14DF
100
AcDbEntity
  8
90000_FRAME
370
    13
  6
CONTINUOUS
 62
     7
100
AcDbCircle
 10
123.385715
 20
76.764322
 30
0.0
 40
2.698741
100
AcDbArc
 50
240.0482
 51
251.377967
  0
ARC
  5
14E0
100
AcDbEntity
  8
90000_FRAME
370
    13
  6
CONTINUOUS
 62
     7
100
AcDbCircle
 10
122.720258
 20
72.607424
 30
0.0
 40
1.433447
100
AcDbArc
 50
315.890455
 51
333.522926
  0
ARC
  5
14E1
100
AcDbEntity
  8
90000_FRAME
370
    13
  6
CONTINUOUS
 62
     7
100
AcDbCircle
 10
122.724896
 20
72.554016
 30
0.0
 40
1.406229
100
AcDbArc
 50
335.386797
 51
24.391512
  0
ARC
  5
14E2
100
AcDbEntity
  8
90000_FRAME
370
    13
  6
CONTINUOUS
 62
     7
100
AcDbCircle
 10
122.652691
 20
72.47616
 30
0.0
 40
1.504703
100
AcDbArc
 50
25.956292
 51
59.483483
  0
LINE
  5
14E3
100
AcDbEntity
  8
90000_FRAME
370
    13
  6
CONTINUOUS
 62
     7
100
AcDbLine
 10
120.661561
 20
75.330601
 30
0.0
 11
120.935627
 21
75.604674
 31
0.0
  0
ARC
  5
14E4
100
AcDbEntity
  8
90000_FRAME
370
    13
  6
CONTINUOUS
 62
     7
100
AcDbCircle
 10
121.729348
 20
74.556725
 30
0.0
 40
1.309092
100
AcDbArc
 50
164.197486
 51
195.802514
  0
ARC
  5
14E5
100
AcDbEntity
  8
90000_FRAME
370
    13
  6
CONTINUOUS
 62
     7
100
AcDbCircle
 10
121.561446
 20
74.664232
 30
0.0
 40
1.119747
100
AcDbArc
 50
142.813918
 51
167.152295
  0
TEXT
  5
14E6
100
AcDbEntity
  8
90000_FRAME
370
    13
  6
CONTINUOUS
 62
     7
100
AcDbText
 10
232.0
 20
66.3969
 30
0.0
 40
2.2
  1
1:1
 41
0.9
100
AcDbText
  0
TEXT
  5
14E7
100
AcDbEntity
  8
90000_FRAME
370
    13
  6
CONTINUOUS
 62
     7
100
AcDbText
 10
162.0
 20
72.2
 30
0.0
 40
2.2
  1

 41
0.784213
100
AcDbText
  0
ENDSEC
  0
SECTION
  2
OBJECTS
  0
DICTIONARY
  5
FE4
100
AcDbDictionary
280
     0
281
     1
  3
ACAD_GROUP
350
FE5
  3
ACAD_MLINESTYLE
350
FE6
  0
DICTIONARY
  5
FE5
102
{ACAD_REACTORS
330
FE4
102
}
100
AcDbDictionary
280
     0
281
     1
  0
DICTIONARY
  5
FE6
102
{ACAD_REACTORS
330
FE4
102
}
100
AcDbDictionary
280
     0
281
     1
  3
Standard
350
FE7
  0
MLINESTYLE
  5
FE7
102
{ACAD_REACTORS
330
FE6
102
}
100
AcDbMlineStyle
  2
Standard
 70
     0
  3

 62
     0
 51
90.0
 52
90.0
 71
     2
 49
0.5
 62
   256
  6
ByLayer
 49
-0.5
 62
   256
  6
ByLayer
  0
ENDSEC
  0
EOF
