  0
SECTION
  2
HEADER
  9
$ACADVER
  1
AC1015
  9
$ACADMAINTVER
 70
     6
  9
$DWGCODEPAGE
  3
ANSI_1252
  9
$INSBASE
 10
0.0
 20
0.0
 30
0.0
  9
$EXTMIN
 10
69.395417
 20
287.976483
 30
-1.0
  9
$EXTMAX
 10
1026.514554
 20
492.804657
 30
0.7
  9
$LIMMIN
 10
0.0
 20
0.0
  9
$LIMMAX
 10
12.0
 20
9.0
  9
$ORTHOMODE
 70
     0
  9
$REGENMODE
 70
     1
  9
$FILLMODE
 70
     1
  9
$QTEXTMODE
 70
     0
  9
$MIRRTEXT
 70
     0
  9
$LTSCALE
 40
5.0
  9
$ATTMODE
 70
     1
  9
$TEXTSIZE
 40
0.2
  9
$TRACEWID
 40
0.05
  9
$TEXTSTYLE
  7
STANDARD
  9
$CLAYER
  8
0
  9
$CELTYPE
  6
ByLayer
  9
$CECOLOR
 62
   256
  9
$CELTSCALE
 40
1.0
  9
$DISPSILH
 70
     0
  9
$DIMSCALE
 40
1.0
  9
$DIMASZ
 40
0.18
  9
$DIMEXO
 40
0.0625
  9
$DIMDLI
 40
0.38
  9
$DIMRND
 40
0.0
  9
$DIMDLE
 40
0.0
  9
$DIMEXE
 40
0.18
  9
$DIMTP
 40
0.0
  9
$DIMTM
 40
0.0
  9
$DIMTXT
 40
0.18
  9
$DIMCEN
 40
0.09
  9
$DIMTSZ
 40
0.0
  9
$DIMTOL
 70
     0
  9
$DIMLIM
 70
     0
  9
$DIMTIH
 70
     1
  9
$DIMTOH
 70
     1
  9
$DIMSE1
 70
     0
  9
$DIMSE2
 70
     0
  9
$DIMTAD
 70
     0
  9
$DIMZIN
 70
     0
  9
$DIMBLK
  1

  9
$DIMASO
 70
     1
  9
$DIMSHO
 70
     1
  9
$DIMPOST
  1

  9
$DIMAPOST
  1

  9
$DIMALT
 70
     0
  9
$DIMALTD
 70
     2
  9
$DIMALTF
 40
25.4
  9
$DIMLFAC
 40
1.0
  9
$DIMTOFL
 70
     0
  9
$DIMTVP
 40
0.0
  9
$DIMTIX
 70
     0
  9
$DIMSOXD
 70
     0
  9
$DIMSAH
 70
     0
  9
$DIMBLK1
  1

  9
$DIMBLK2
  1

  9
$DIMSTYLE
  2
STANDARD
  9
$DIMCLRD
 70
     0
  9
$DIMCLRE
 70
     0
  9
$DIMCLRT
 70
     0
  9
$DIMTFAC
 40
1.0
  9
$DIMGAP
 40
0.09
  9
$DIMJUST
 70
     0
  9
$DIMSD1
 70
     0
  9
$DIMSD2
 70
     0
  9
$DIMTOLJ
 70
     1
  9
$DIMTZIN
 70
     0
  9
$DIMALTZ
 70
     0
  9
$DIMALTTZ
 70
     0
  9
$DIMUPT
 70
     0
  9
$DIMDEC
 70
     4
  9
$DIMTDEC
 70
     4
  9
$DIMALTU
 70
     2
  9
$DIMALTTD
 70
     2
  9
$DIMTXSTY
  7
STANDARD
  9
$DIMAUNIT
 70
     0
  9
$DIMADEC
 70
     0
  9
$DIMALTRND
 40
0.0
  9
$DIMAZIN
 70
     0
  9
$DIMDSEP
 70
     0
  9
$DIMATFIT
 70
     3
  9
$DIMFRAC
 70
     0
  9
$DIMLDRBLK
  1

  9
$DIMLUNIT
 70
     2
  9
$DIMLWD
 70
     0
  9
$DIMLWE
 70
     0
  9
$DIMTMOVE
 70
     0
  9
$LUNITS
 70
     2
  9
$LUPREC
 70
     4
  9
$SKETCHINC
 40
0.1
  9
$FILLETRAD
 40
0.0
  9
$AUNITS
 70
     0
  9
$AUPREC
 70
     0
  9
$MENU
  1
.
  9
$ELEVATION
 40
0.0
  9
$PELEVATION
 40
0.0
  9
$THICKNESS
 40
0.0
  9
$LIMCHECK
 70
     0
  9
$CHAMFERA
 40
0.0
  9
$CHAMFERB
 40
0.0
  9
$CHAMFERC
 40
0.0
  9
$CHAMFERD
 40
0.0
  9
$SKPOLY
 70
     0
  9
$TDCREATE
 40
2453353.758792454
  9
$TDUCREATE
 40
0.000000000
  9
$TDUPDATE
 40
0.000000000
  9
$TDUUPDATE
 40
2447892.958333334
  9
$TDINDWG
 40
19583144.0627810880
  9
$TDUSRTIMER
 40
0.0000000000
  9
$USRTIMER
 70
     1
  9
$ANGBASE
 50
0.0
  9
$ANGDIR
 70
     0
  9
$PDMODE
 70
     0
  9
$PDSIZE
 40
0.0
  9
$PLINEWID
 40
0.0
  9
$SPLFRAME
 70
     0
  9
$SPLINETYPE
 70
     6
  9
$SPLINESEGS
 70
     8
  9
$HANDSEED
  5
1381
  9
$SURFTAB1
 70
     6
  9
$SURFTAB2
 70
     6
  9
$SURFTYPE
 70
     6
  9
$SURFU
 70
     6
  9
$SURFV
 70
     6
  9
$UCSBASE
  2

  9
$UCSNAME
  2

  9
$UCSORG
 10
0.0
 20
0.0
 30
0.0
  9
$UCSXDIR
 10
1.0
 20
0.0
 30
0.0
  9
$UCSYDIR
 10
0.0
 20
1.0
 30
0.0
  9
$UCSORTHOREF
  2

  9
$UCSORTHOVIEW
 70
     0
  9
$UCSORGTOP
 10
0.0
 20
0.0
 30
0.0
  9
$UCSORGBOTTOM
 10
0.0
 20
0.0
 30
0.0
  9
$UCSORGLEFT
 10
0.0
 20
0.0
 30
0.0
  9
$UCSORGRIGHT
 10
0.0
 20
0.0
 30
0.0
  9
$UCSORGFRONT
 10
0.0
 20
0.0
 30
0.0
  9
$UCSORGBACK
 10
0.0
 20
0.0
 30
0.0
  9
$PUCSBASE
  2

  9
$PUCSNAME
  2

  9
$PUCSORG
 10
0.0
 20
0.0
 30
0.0
  9
$PUCSXDIR
 10
1.0
 20
0.0
 30
0.0
  9
$PUCSYDIR
 10
0.0
 20
1.0
 30
0.0
  9
$PUCSORTHOREF
  2

  9
$PUCSORTHOVIEW
 70
     0
  9
$PUCSORGTOP
 10
0.0
 20
0.0
 30
0.0
  9
$PUCSORGBOTTOM
 10
0.0
 20
0.0
 30
0.0
  9
$PUCSORGLEFT
 10
0.0
 20
0.0
 30
0.0
  9
$PUCSORGRIGHT
 10
0.0
 20
0.0
 30
0.0
  9
$PUCSORGFRONT
 10
0.0
 20
0.0
 30
0.0
  9
$PUCSORGBACK
 10
0.0
 20
0.0
 30
0.0
  9
$USERI1
 70
     0
  9
$USERI2
 70
     0
  9
$USERI3
 70
     0
  9
$USERI4
 70
     0
  9
$USERI5
 70
     0
  9
$USERR1
 40
0.0
  9
$USERR2
 40
0.0
  9
$USERR3
 40
0.0
  9
$USERR4
 40
0.0
  9
$USERR5
 40
0.0
  9
$WORLDVIEW
 70
     1
  9
$SHADEDGE
 70
     3
  9
$SHADEDIF
 70
    70
  9
$TILEMODE
 70
     1
  9
$MAXACTVP
 70
    64
  9
$PINSBASE
 10
0.0
 20
0.0
 30
0.0
  9
$PLIMCHECK
 70
     0
  9
$PEXTMIN
 10
0.0
 20
0.0
 30
0.0
  9
$PEXTMAX
 10
0.0
 20
0.0
 30
0.0
  9
$PLIMMIN
 10
0.0
 20
0.0
  9
$PLIMMAX
 10
0.0
 20
0.0
  9
$UNITMODE
 70
     0
  9
$VISRETAIN
 70
     1
  9
$PLINEGEN
 70
     0
  9
$PSLTSCALE
 70
     1
  9
$TREEDEPTH
 70
  3020
  9
$CMLSTYLE
  2
Standard
  9
$CMLJUST
 70
     0
  9
$CMLSCALE
 40
1.0
  9
$PROXYGRAPHICS
 70
     0
  9
$MEASUREMENT
 70
     0
  9
$CELWEIGHT
370
     0
  9
$ENDCAPS
280
     0
  9
$JOINSTYLE
280
     0
  9
$LWDISPLAY
290
     0
  9
$INSUNITS
 70
     0
  9
$HYPERLINKBASE
  1

  9
$STYLESHEET
  1

  9
$XEDIT
290
     1
  9
$CEPSNTYPE
380
     0
  9
$PSTYLEMODE
290
     1
  9
$FINGERPRINTGUID
  2

  9
$VERSIONGUID
  2

  9
$EXTNAMES
290
     1
  9
$PSVPSCALE
 40
0.0
  0
ENDSEC
  0
SECTION
  2
CLASSES
  0
CLASS
  1
LWPOLYLINE
  2
AcDbPolyline
  3
AutoCAD 2000
 90
        0
280
     0
281
     1
  0
CLASS
  1
IMAGE
  2
AcDbRasterImage
  3
ISM
 90
      127
280
     0
281
     1
  0
CLASS
  1
OLE2FRAME
  2
AcDbOle2Frame
  3
AutoCAD 2000
 90
        0
280
     0
281
     1
  0
CLASS
  1
HATCH
  2
AcDbHatch
  3
AutoCAD 2000
 90
        0
280
     0
281
     1
  0
CLASS
  1
DICTIONARYVAR
  2
AcDbDictionaryVar
  3
AutoCAD 2000
 90
        0
280
     0
281
     0
  0
CLASS
  1
RASTERVARIABLES
  2
AcDbRasterVariables
  3
ISM
 90
        0
280
     0
281
     0
  0
CLASS
  1
IMAGEDEF
  2
AcDbRasterImageDef
  3
ISM
 90
        0
280
     0
281
     0
  0
CLASS
  1
IMAGEDEF_REACTOR
  2
AcDbRasterImageDefReactor
  3
ISM
 90
        1
280
     0
281
     0
  0
CLASS
  1
IDBUFFER
  2
AcDbIdBuffer
  3
AutoCAD 2000
 90
        0
280
     0
281
     0
  0
CLASS
  1
SPATIAL_FILTER
  2
AcDbSpatialFilter
  3
AutoCAD 2000
 90
        0
280
     0
281
     0
  0
CLASS
  1
XRECORD
  2
AcDbXrecord
  3
AutoCAD 2000
 90
        0
280
     0
281
     0
  0
CLASS
  1
SORTENTSTABLE
  2
AcDbSortentsTable
  3
AutoCAD 2000
 90
        0
280
     0
281
     0
  0
CLASS
  1
LAYER_INDEX
  2
AcDbLayerIndex
  3
AutoCAD 2000
 90
        0
280
     0
281
     0
  0
CLASS
  1
SPATIAL_INDEX
  2
AcDbSpatialIndex
  3
AutoCAD 2000
 90
        0
280
     0
281
     0
  0
CLASS
  1
OBJECT_PTR
  2
CAseDLPNTableRecord
  3
"ASE-LPNTableRecord"
 90
        1
280
     0
281
     0
  0
CLASS
  1
LAYOUT
  2
AcDbLayout
  3
AutoCAD 2000
 90
        0
280
     0
281
     0
  0
CLASS
  1
PLOTSETTINGS
  2
AcDbPlotSettings
  3
AutoCAD 2000
 90
        0
280
     0
281
     0
  0
CLASS
  1
ACDBDICTIONARYWDFLT
  2
AcDbDictionaryWithDefault
  3
AutoCAD 2000
 90
        0
280
     0
281
     0
  0
CLASS
  1
ACDBPLACEHOLDER
  2
AcDbPlaceHolder
  3
AutoCAD 2000
 90
        0
280
     0
281
     0
  0
CLASS
  1
VBA_PROJECT
  2
AcDbVbaProject
  3
acadvba
 90
        0
280
     0
281
     0
  0
CLASS
  1
WIPEOUT
  2
AcDbWipeout
  3
WipeOut|AutoCAD Express Tool|expresstools@autodesk.com
 90
      127
280
     0
281
     1
  0
CLASS
  1
WIPEOUTVARIABLES
  2
AcDbWipeoutVariables
  3
WipeOut|AutoCAD Express Tool|expresstools@autodesk.com
 90
        0
280
     0
281
     0
  0
CLASS
  1
RTEXT
  2
RText
  3
RText|AutoCAD Express Tool|expresstools@autodesk.com
 90
        0
280
     0
281
     1
  0
CLASS
  1
ARCALIGNEDTEXT
  2
AcDbArcAlignedText
  3
ATEXT|AutoCAD Express Tool|expresstools@autodesk.com
 90
        0
280
     0
281
     1
  0
ENDSEC
  0
SECTION
  2
TABLES
  0
TABLE
  2
VPORT
  5
FB2
100
AcDbSymbolTable
 70
     1
  0
VPORT
  5
FD1
100
AcDbSymbolTableRecord
100
AcDbViewportTableRecord
  2
*ACTIVE
 70
     0
 10
0.0
 20
0.0
 11
1.0
 21
1.0
 12
450.328833
 22
266.374849
 13
0.0
 23
0.0
 14
0.5
 24
0.5
 15
0.5
 25
0.5
 16
0.0
 26
0.0
 36
1.0
 17
0.0
 27
0.0
 37
0.0
 40
620.078606
 41
1.701534
 42
50.0
 43
0.0
 44
0.0
 50
0.0
 51
0.0
 71
    16
 72
  1000
 73
     1
 74
     3
 75
     0
 76
     0
 77
     0
 78
     0
281
     0
 65
     0
110
0.0
120
0.0
130
0.0
111
1.0
121
0.0
131
0.0
112
0.0
122
1.0
132
0.0
345
0
346
0
 79
     0
146
0.0
  0
ENDTAB
  0
TABLE
  2
LTYPE
  5
FAF
100
AcDbSymbolTable
 70
     6
  0
LTYPE
  5
FB8
100
AcDbSymbolTableRecord
100
AcDbLinetypeTableRecord
  2
ByBlock
 70
    64
  3

 72
    65
 73
     0
 40
0.0
  0
LTYPE
  5
FB9
100
AcDbSymbolTableRecord
100
AcDbLinetypeTableRecord
  2
ByLayer
 70
    64
  3

 72
    65
 73
     0
 40
0.0
  0
LTYPE
  5
FBA
100
AcDbSymbolTableRecord
100
AcDbLinetypeTableRecord
  2
CONTINUOUS
 70
     0
  3
Solid line
 72
    65
 73
     0
 40
0.0
  0
LTYPE
  5
FBB
100
AcDbSymbolTableRecord
100
AcDbLinetypeTableRecord
  2
CENTER
 70
     0
  3
____ _ ____ _ ____ _ ____ _ ____ _ ____ _ ____
 72
    65
 73
     4
 40
0.6
 49
0.375
 74
     0
 49
-0.075
 74
     0
 49
0.075
 74
     0
 49
-0.075
 74
     0
  0
LTYPE
  5
FBC
100
AcDbSymbolTableRecord
100
AcDbLinetypeTableRecord
  2
ACAD_ISO02W100
 70
     0
  3
ISO Strichlinie __ __ __ __ __ __ __ __ __ __ _
 72
    65
 73
     2
 40
15.0
 49
12.0
 74
     0
 49
-3.0
 74
     0
  0
LTYPE
  5
FBD
100
AcDbSymbolTableRecord
100
AcDbLinetypeTableRecord
  2
DASHED
 70
     0
  3
_ _ _ _ _ _ _ _ _ _ _ _ _ _ _ _ _ _ _ _ _ _ _ _
 72
    65
 73
     2
 40
0.375
 49
0.25
 74
     0
 49
-0.125
 74
     0
  0
ENDTAB
  0
TABLE
  2
LAYER
  5
FAD
100
AcDbSymbolTable
 70
     5
  0
LAYER
  5
FBE
100
AcDbSymbolTableRecord
100
AcDbLayerTableRecord
  2
0
 70
     0
 62
     7
  6
CONTINUOUS
290
     1
370
    -3
390
0
  0
LAYER
  5
FBF
100
AcDbSymbolTableRecord
100
AcDbLayerTableRecord
  2
90000_FRAME
 70
     0
 62
     7
  6
CONTINUOUS
290
     1
370
    -3
390
0
  0
LAYER
  5
FC0
100
AcDbSymbolTableRecord
100
AcDbLayerTableRecord
  2
91000_TIP
 70
     0
 62
     7
  6
CONTINUOUS
290
     1
370
    -3
390
0
  0
LAYER
  5
FC1
100
AcDbSymbolTableRecord
100
AcDbLayerTableRecord
  2
10000_FRONT
 70
     0
 62
     7
  6
CONTINUOUS
290
     1
370
    -3
390
0
  0
LAYER
  5
FC5
100
AcDbSymbolTableRecord
100
AcDbLayerTableRecord
  2
DEFPOINTS
 70
     0
 62
     7
  6
CONTINUOUS
290
     0
370
    -3
390
0
  0
ENDTAB
  0
TABLE
  2
STYLE
  5
FAE
100
AcDbSymbolTable
 70
     1
  0
STYLE
  5
FD5
100
AcDbSymbolTableRecord
100
AcDbTextStyleTableRecord
  2
STANDARD
 70
     0
 40
0.0
 41
1.0
 50
0.0
 71
     0
 42
0.2
  3
txt.shx
  4

  0
ENDTAB
  0
TABLE
  2
VIEW
  5
FB0
100
AcDbSymbolTable
 70
     0
  0
ENDTAB
  0
TABLE
  2
UCS
  5
FB1
100
AcDbSymbolTable
 70
     0
  0
ENDTAB
  0
TABLE
  2
APPID
  5
FB3
100
AcDbSymbolTable
 70
     3
  0
APPID
  5
FD2
100
AcDbSymbolTableRecord
100
AcDbRegAppTableRecord
  2
ACAD
 70
     0
  0
APPID
  5
FD3
100
AcDbSymbolTableRecord
100
AcDbRegAppTableRecord
  2
AUSTER_ANSICHT
 70
     0
  0
APPID
  5
FD4
100
AcDbSymbolTableRecord
100
AcDbRegAppTableRecord
  2
AUSTER_FOLIE
 70
     0
  0
ENDTAB
  0
TABLE
  2
DIMSTYLE
  5
FB4
100
AcDbSymbolTable
 70
     3
100
AcDbDimStyleTable
 71
     0
  0
DIMSTYLE
105
FDF
100
AcDbSymbolTableRecord
100
AcDbDimStyleTableRecord
  2
STANDARD
 70
     0
  3

  4

 40
1.0
 41
0.18
 42
0.0625
 43
0.38
 44
0.18
 45
0.0
 46
0.0
 47
0.0
 48
0.0
 71
     0
 72
     0
 73
     1
 74
     1
 75
     0
 76
     0
 77
     0
 78
     0
 79
     0
140
0.18
141
0.09
142
0.0
143
25.4
144
1.0
145
0.0
146
1.0
147
0.09
148
0.0
170
     0
171
     2
172
     0
173
     0
174
     0
175
     0
176
     0
177
     0
178
     0
179
     0
271
     4
272
     4
273
     2
274
     2
275
     0
276
     0
277
     2
278
    46
279
     0
280
     0
281
     0
282
     0
283
     1
284
     0
285
     0
286
     0
288
     0
289
     3
340
FD5
341
0
342
0
343
0
344
0
371
    -2
372
    -2
  0
DIMSTYLE
105
FE0
100
AcDbSymbolTableRecord
100
AcDbDimStyleTableRecord
  2
DSTYLE1
 70
     0
  3

  4

 40
1.0
 41
3.0
 42
0.0
 43
0.38
 44
1.0
 45
0.0
 46
0.0
 47
0.0
 48
0.0
 71
     0
 72
     0
 73
     0
 74
     0
 75
     0
 76
     0
 77
     1
 78
     3
 79
     0
140
2.5
141
0.09
142
0.0
143
0.03937
144
1.0
145
0.0
146
1.0
147
1.0
148
0.0
170
     0
171
     2
172
     0
173
     0
174
     0
175
     0
176
     0
177
     0
178
     0
179
     0
271
     4
272
     4
273
     2
274
     2
275
     0
276
     0
277
     2
278
    46
279
     0
280
     0
281
     0
282
     0
283
     1
284
     0
285
     0
286
     0
288
     0
289
     3
340
FD5
341
0
342
0
343
0
344
0
371
    -2
372
    -2
  0
DIMSTYLE
105
FE1
100
AcDbSymbolTableRecord
100
AcDbDimStyleTableRecord
  2
H035
 70
     0
  3

  4

 40
0.0
 41
3.5
 42
0.0
 43
3.75
 44
2.0
 45
0.0
 46
0.0
 47
0.0
 48
0.0
 71
     0
 72
     0
 73
     0
 74
     0
 75
     0
 76
     0
 77
     1
 78
     8
 79
     0
140
3.5
141
2.5
142
0.0
143
0.039
144
1.0
145
0.0
146
1.0
147
0.5
148
0.0
170
     0
171
     4
172
     1
173
     0
174
     0
175
     0
176
   256
177
     7
178
     7
179
     0
271
     4
272
     4
273
     2
274
     2
275
     0
276
     0
277
     2
278
    46
279
     0
280
     0
281
     0
282
     0
283
     1
284
     0
285
     0
286
     0
288
     0
289
     3
340
FD5
341
0
342
0
343
0
344
0
371
    -2
372
    -2
  0
ENDTAB
  0
TABLE
  2
BLOCK_RECORD
  5
FDA
100
AcDbSymbolTable
 70
     2
  0
BLOCK_RECORD
  5
FD8
100
AcDbSymbolTableRecord
100
AcDbBlockTableRecord
  2
*Model_Space
340
0
  0
BLOCK_RECORD
  5
FD9
100
AcDbSymbolTableRecord
100
AcDbBlockTableRecord
  2
*Paper_Space
340
0
  0
BLOCK_RECORD
  5
FD6
100
AcDbSymbolTableRecord
100
AcDbBlockTableRecord
  2
$MODEL_SPACE
340
0
  0
BLOCK_RECORD
  5
FD7
100
AcDbSymbolTableRecord
100
AcDbBlockTableRecord
  2
$PAPER_SPACE
340
0
  0
ENDTAB
  0
ENDSEC
  0
SECTION
  2
BLOCKS
  0
BLOCK
  5
FDB
100
AcDbEntity
  8
0
390
0
100
AcDbBlockBegin
  2
*Model_Space
 70
     0
 10
0.0
 20
0.0
 30
0.0
  3
*Model_Space
  1

  0
ENDBLK
  5
FDC
100
AcDbEntity
  8
0
390
0
100
AcDbBlockEnd
  0
BLOCK
  5
FDD
100
AcDbEntity
 67
     1
  8
0
390
0
100
AcDbBlockBegin
  2
*Paper_Space
 70
     0
 10
0.0
 20
0.0
 30
0.0
  3
*Paper_Space
  1

  0
ENDBLK
  5
FDE
100
AcDbEntity
 67
     1
  8
0
390
0
100
AcDbBlockEnd
  0
BLOCK
  5
FE2
100
AcDbEntity
  8
0
100
AcDbBlockBegin
  2
$MODEL_SPACE
 70
     0
 10
0.0
 20
0.0
 30
0.0
  3
$MODEL_SPACE
  1

  0
ENDBLK
  5
21
100
AcDbEntity
  8
0
100
AcDbBlockEnd
  0
BLOCK
  5
FE3
100
AcDbEntity
  8
0
100
AcDbBlockBegin
  2
$PAPER_SPACE
 70
     0
 10
0.0
 20
0.0
 30
0.0
  3
$PAPER_SPACE
  1

  0
ENDBLK
  5
76
100
AcDbEntity
  8
0
100
AcDbBlockEnd
  0
ENDSEC
  0
SECTION
  2
ENTITIES
  0
ARC
  5
FE9
100
AcDbEntity
  8
10000_FRONT
370
    50
390
0
  6
CONTINUOUS
 62
     7
100
AcDbCircle
 10
153.5
 20
193.5
 30
0.0
 40
4.1
100
AcDbArc
 50
118.592119
 51
270.0
  0
ARC
  5
FEA
100
AcDbEntity
  8
10000_FRONT
370
    50
390
0
  6
CONTINUOUS
 62
     7
100
AcDbCircle
 10
153.5
 20
193.5
 30
0.0
 40
4.1
100
AcDbArc
 50
90.0
 51
104.654437
  0
ARC
  5
FEB
100
AcDbEntity
  8
10000_FRONT
370
    50
390
0
  6
CONTINUOUS
 62
     7
100
AcDbCircle
 10
153.5
 20
193.5
 30
0.0
 40
4.1
100
AcDbArc
 50
108.672178
 51
118.592119
  0
ARC
  5
FEC
100
AcDbEntity
  8
10000_FRONT
370
    50
390
0
  6
CONTINUOUS
 62
     7
100
AcDbCircle
 10
153.5
 20
229.5
 30
0.0
 40
4.1
100
AcDbArc
 50
241.407881
 51
270.0
  0
ARC
  5
FED
100
AcDbEntity
  8
10000_FRONT
370
    50
390
0
  6
CONTINUOUS
 62
     7
100
AcDbCircle
 10
153.5
 20
229.5
 30
0.0
 40
4.1
100
AcDbArc
 50
90.0
 51
241.407881
  0
ARC
  5
FEE
100
AcDbEntity
  8
10000_FRONT
370
    50
390
0
  6
CONTINUOUS
 62
     7
100
AcDbCircle
 10
153.5
 20
193.5
 30
0.0
 40
3.25
100
AcDbArc
 50
90.0
 51
211.538766
  0
ARC
  5
FEF
100
AcDbEntity
  8
10000_FRONT
370
    50
390
0
  6
CONTINUOUS
 62
     7
100
AcDbCircle
 10
153.5
 20
229.5
 30
0.0
 40
3.25
100
AcDbArc
 50
148.460999
 51
270.0
  0
ARC
  5
FF0
100
AcDbEntity
  8
10000_FRONT
370
    50
390
0
  6
CONTINUOUS
 62
     7
100
AcDbCircle
 10
153.5
 20
203.5
 30
0.0
 40
4.1
100
AcDbArc
 50
90.0
 51
270.0
  0
ARC
  5
FF1
100
AcDbEntity
  8
10000_FRONT
370
    50
390
0
  6
CONTINUOUS
 62
     7
100
AcDbCircle
 10
153.5
 20
219.5
 30
0.0
 40
4.1
100
AcDbArc
 50
90.0
 51
270.0
  0
ARC
  5
FF2
100
AcDbEntity
  8
10000_FRONT
370
    50
390
0
  6
CONTINUOUS
 62
     7
100
AcDbCircle
 10
152.3
 20
239.6
 30
0.0
 40
0.35
100
AcDbArc
 50
90.000008
 51
179.999938
  0
ARC
  5
FF3
100
AcDbEntity
  8
10000_FRONT
370
    50
390
0
  6
CONTINUOUS
 62
     7
100
AcDbCircle
 10
155.3
 20
239.6
 30
0.0
 40
0.35
100
AcDbArc
 50
90.000008
 51
179.999938
  0
ARC
  5
FF4
100
AcDbEntity
  8
10000_FRONT
370
    50
390
0
  6
CONTINUOUS
 62
     7
100
AcDbCircle
 10
156.8
 20
239.6
 30
0.0
 40
0.35
100
AcDbArc
 50
90.000008
 51
179.999938
  0
ARC
  5
FF5
100
AcDbEntity
  8
10000_FRONT
370
    50
390
0
  6
CONTINUOUS
 62
     7
100
AcDbCircle
 10
153.8
 20
239.6
 30
0.0
 40
0.35
100
AcDbArc
 50
89.999998
 51
179.999938
  0
ARC
  5
FF6
100
AcDbEntity
  8
10000_FRONT
370
    50
390
0
  6
CONTINUOUS
 62
     7
100
AcDbCircle
 10
150.8
 20
239.6
 30
0.0
 40
0.35
100
AcDbArc
 50
90.000008
 51
179.999938
  0
ARC
  5
FF7
100
AcDbEntity
  8
10000_FRONT
370
    50
390
0
  6
CONTINUOUS
 62
     7
100
AcDbCircle
 10
152.3
 20
183.4
 30
0.0
 40
0.35
100
AcDbArc
 50
180.000062
 51
269.999992
  0
ARC
  5
FF8
100
AcDbEntity
  8
10000_FRONT
370
    50
390
0
  6
CONTINUOUS
 62
     7
100
AcDbCircle
 10
155.3
 20
183.4
 30
0.0
 40
0.35
100
AcDbArc
 50
180.000062
 51
269.999992
  0
ARC
  5
FF9
100
AcDbEntity
  8
10000_FRONT
370
    50
390
0
  6
CONTINUOUS
 62
     7
100
AcDbCircle
 10
156.8
 20
183.4
 30
0.0
 40
0.35
100
AcDbArc
 50
180.000062
 51
269.999992
  0
ARC
  5
FFA
100
AcDbEntity
  8
10000_FRONT
370
    50
390
0
  6
CONTINUOUS
 62
     7
100
AcDbCircle
 10
153.8
 20
183.4
 30
0.0
 40
0.35
100
AcDbArc
 50
180.000062
 51
270.000002
  0
ARC
  5
FFB
100
AcDbEntity
  8
10000_FRONT
370
    50
390
0
  6
CONTINUOUS
 62
     7
100
AcDbCircle
 10
150.8
 20
183.4
 30
0.0
 40
0.35
100
AcDbArc
 50
180.000062
 51
269.999992
  0
LINE
  5
FFC
100
AcDbEntity
  8
10000_FRONT
370
    50
390
0
  6
CONTINUOUS
 62
     7
100
AcDbLine
 10
151.74325
 20
223.3842
 30
0.0
 11
151.74325
 21
225.176069
 31
0.0
  0
LINE
  5
FFD
100
AcDbEntity
  8
10000_FRONT
370
    50
390
0
  6
CONTINUOUS
 62
     7
100
AcDbLine
 10
151.74325
 20
225.176069
 30
0.0
 11
151.586488
 21
225.018044
 31
0.0
  0
LINE
  5
FFE
100
AcDbEntity
  8
10000_FRONT
370
    50
390
0
  6
CONTINUOUS
 62
     7
100
AcDbLine
 10
151.586488
 20
225.018044
 30
0.0
 11
151.358715
 21
224.90565
 31
0.0
  0
LINE
  5
FFF
100
AcDbEntity
  8
10000_FRONT
370
    50
390
0
  6
CONTINUOUS
 62
     7
100
AcDbLine
 10
151.358715
 20
224.90565
 30
0.0
 11
151.358715
 21
225.0502
 31
0.0
  0
LINE
  5
1000
100
AcDbEntity
  8
10000_FRONT
370
    50
390
0
  6
CONTINUOUS
 62
     7
100
AcDbLine
 10
151.358715
 20
225.0502
 30
0.0
 11
151.559691
 21
225.151875
 31
0.0
  0
LINE
  5
1001
100
AcDbEntity
  8
10000_FRONT
370
    50
390
0
  6
CONTINUOUS
 62
     7
100
AcDbLine
 10
151.559691
 20
225.151875
 30
0.0
 11
151.851509
 21
225.4422
 31
0.0
  0
LINE
  5
1002
100
AcDbEntity
  8
10000_FRONT
370
    50
390
0
  6
CONTINUOUS
 62
     7
100
AcDbLine
 10
151.851509
 20
225.4422
 30
0.0
 11
151.88045
 21
225.4422
 31
0.0
  0
LINE
  5
1003
100
AcDbEntity
  8
10000_FRONT
370
    50
390
0
  6
CONTINUOUS
 62
     7
100
AcDbLine
 10
151.88045
 20
225.4422
 30
0.0
 11
151.88045
 21
223.3842
 31
0.0
  0
LINE
  5
1004
100
AcDbEntity
  8
10000_FRONT
370
    50
390
0
  6
CONTINUOUS
 62
     7
100
AcDbLine
 10
151.88045
 20
223.3842
 30
0.0
 11
151.74325
 21
223.3842
 31
0.0
  0
LINE
  5
1005
100
AcDbEntity
  8
10000_FRONT
370
    50
390
0
  6
CONTINUOUS
 62
     7
100
AcDbLine
 10
151.74325
 20
212.3842
 30
0.0
 11
151.74325
 21
214.176069
 31
0.0
  0
LINE
  5
1006
100
AcDbEntity
  8
10000_FRONT
370
    50
390
0
  6
CONTINUOUS
 62
     7
100
AcDbLine
 10
151.74325
 20
214.176069
 30
0.0
 11
151.586488
 21
214.018044
 31
0.0
  0
LINE
  5
1007
100
AcDbEntity
  8
10000_FRONT
370
    50
390
0
  6
CONTINUOUS
 62
     7
100
AcDbLine
 10
151.586488
 20
214.018044
 30
0.0
 11
151.358715
 21
213.90565
 31
0.0
  0
LINE
  5
1008
100
AcDbEntity
  8
10000_FRONT
370
    50
390
0
  6
CONTINUOUS
 62
     7
100
AcDbLine
 10
151.358715
 20
213.90565
 30
0.0
 11
151.358715
 21
214.0502
 31
0.0
  0
LINE
  5
1009
100
AcDbEntity
  8
10000_FRONT
370
    50
390
0
  6
CONTINUOUS
 62
     7
100
AcDbLine
 10
151.358715
 20
214.0502
 30
0.0
 11
151.559691
 21
214.151875
 31
0.0
  0
LINE
  5
100A
100
AcDbEntity
  8
10000_FRONT
370
    50
390
0
  6
CONTINUOUS
 62
     7
100
AcDbLine
 10
151.559691
 20
214.151875
 30
0.0
 11
151.851509
 21
214.4422
 31
0.0
  0
LINE
  5
100B
100
AcDbEntity
  8
10000_FRONT
370
    50
390
0
  6
CONTINUOUS
 62
     7
100
AcDbLine
 10
151.851509
 20
214.4422
 30
0.0
 11
151.88045
 21
214.4422
 31
0.0
  0
LINE
  5
100C
100
AcDbEntity
  8
10000_FRONT
370
    50
390
0
  6
CONTINUOUS
 62
     7
100
AcDbLine
 10
151.88045
 20
214.4422
 30
0.0
 11
151.88045
 21
212.3842
 31
0.0
  0
LINE
  5
100D
100
AcDbEntity
  8
10000_FRONT
370
    50
390
0
  6
CONTINUOUS
 62
     7
100
AcDbLine
 10
151.88045
 20
212.3842
 30
0.0
 11
151.74325
 21
212.3842
 31
0.0
  0
LINE
  5
100E
100
AcDbEntity
  8
10000_FRONT
370
    50
390
0
  6
CONTINUOUS
 62
     7
100
AcDbLine
 10
151.047871
 20
207.8842
 30
0.0
 11
151.849098
 21
208.784269
 31
0.0
  0
LINE
  5
100F
100
AcDbEntity
  8
10000_FRONT
370
    50
390
0
  6
CONTINUOUS
 62
     7
100
AcDbLine
 10
151.849098
 20
208.784269
 30
0.0
 11
152.134484
 21
209.164632
 31
0.0
  0
LINE
  5
1010
100
AcDbEntity
  8
10000_FRONT
370
    50
390
0
  6
CONTINUOUS
 62
     7
100
AcDbLine
 10
152.134484
 20
209.164632
 30
0.0
 11
152.226934
 21
209.352362
 31
0.0
  0
LINE
  5
1011
100
AcDbEntity
  8
10000_FRONT
370
    50
390
0
  6
CONTINUOUS
 62
     7
100
AcDbLine
 10
152.226934
 20
209.352362
 30
0.0
 11
152.226934
 21
209.53305
 31
0.0
  0
LINE
  5
1012
100
AcDbEntity
  8
10000_FRONT
370
    50
390
0
  6
CONTINUOUS
 62
     7
100
AcDbLine
 10
152.226934
 20
209.53305
 30
0.0
 11
152.137164
 21
209.714044
 31
0.0
  0
LINE
  5
1013
100
AcDbEntity
  8
10000_FRONT
370
    50
390
0
  6
CONTINUOUS
 62
     7
100
AcDbLine
 10
152.137164
 20
209.714044
 30
0.0
 11
151.954945
 21
209.805
 31
0.0
  0
LINE
  5
1014
100
AcDbEntity
  8
10000_FRONT
370
    50
390
0
  6
CONTINUOUS
 62
     7
100
AcDbLine
 10
151.954945
 20
209.805
 30
0.0
 11
151.582469
 21
209.805
 31
0.0
  0
LINE
  5
1015
100
AcDbEntity
  8
10000_FRONT
370
    50
390
0
  6
CONTINUOUS
 62
     7
100
AcDbLine
 10
151.582469
 20
209.805
 30
0.0
 11
151.40159
 21
209.713737
 31
0.0
  0
LINE
  5
1016
100
AcDbEntity
  8
10000_FRONT
370
    50
390
0
  6
CONTINUOUS
 62
     7
100
AcDbLine
 10
151.40159
 20
209.713737
 30
0.0
 11
151.310481
 21
209.53305
 31
0.0
  0
LINE
  5
1017
100
AcDbEntity
  8
10000_FRONT
370
    50
390
0
  6
CONTINUOUS
 62
     7
100
AcDbLine
 10
151.310481
 20
209.53305
 30
0.0
 11
151.310481
 21
209.42035
 31
0.0
  0
LINE
  5
1018
100
AcDbEntity
  8
10000_FRONT
370
    50
390
0
  6
CONTINUOUS
 62
     7
100
AcDbLine
 10
151.310481
 20
209.42035
 30
0.0
 11
151.171137
 21
209.42035
 31
0.0
  0
LINE
  5
1019
100
AcDbEntity
  8
10000_FRONT
370
    50
390
0
  6
CONTINUOUS
 62
     7
100
AcDbLine
 10
151.171137
 20
209.42035
 30
0.0
 11
151.171137
 21
209.543769
 31
0.0
  0
LINE
  5
101A
100
AcDbEntity
  8
10000_FRONT
370
    50
390
0
  6
CONTINUOUS
 62
     7
100
AcDbLine
 10
151.171137
 20
209.543769
 30
0.0
 11
151.268945
 21
209.744669
 31
0.0
  0
LINE
  5
101B
100
AcDbEntity
  8
10000_FRONT
370
    50
390
0
  6
CONTINUOUS
 62
     7
100
AcDbLine
 10
151.268945
 20
209.744669
 30
0.0
 11
151.370774
 21
209.844507
 31
0.0
  0
LINE
  5
101C
100
AcDbEntity
  8
10000_FRONT
370
    50
390
0
  6
CONTINUOUS
 62
     7
100
AcDbLine
 10
151.370774
 20
209.844507
 30
0.0
 11
151.57175
 21
209.9422
 31
0.0
  0
LINE
  5
101D
100
AcDbEntity
  8
10000_FRONT
370
    50
390
0
  6
CONTINUOUS
 62
     7
100
AcDbLine
 10
151.57175
 20
209.9422
 30
0.0
 11
151.967004
 21
209.9422
 31
0.0
  0
LINE
  5
101E
100
AcDbEntity
  8
10000_FRONT
370
    50
390
0
  6
CONTINUOUS
 62
     7
100
AcDbLine
 10
151.967004
 20
209.9422
 30
0.0
 11
152.166641
 21
209.842975
 31
0.0
  0
LINE
  5
101F
100
AcDbEntity
  8
10000_FRONT
370
    50
390
0
  6
CONTINUOUS
 62
     7
100
AcDbLine
 10
152.166641
 20
209.842975
 30
0.0
 11
152.268469
 21
209.742525
 31
0.0
  0
LINE
  5
1020
100
AcDbEntity
  8
10000_FRONT
370
    50
390
0
  6
CONTINUOUS
 62
     7
100
AcDbLine
 10
152.268469
 20
209.742525
 30
0.0
 11
152.367617
 21
209.541595
 31
0.0
  0
LINE
  5
1021
100
AcDbEntity
  8
10000_FRONT
370
    50
390
0
  6
CONTINUOUS
 62
     7
100
AcDbLine
 10
152.367617
 20
209.541595
 30
0.0
 11
152.367617
 21
209.337969
 31
0.0
  0
LINE
  5
1022
100
AcDbEntity
  8
10000_FRONT
370
    50
390
0
  6
CONTINUOUS
 62
     7
100
AcDbLine
 10
152.367617
 20
209.337969
 30
0.0
 11
152.268025
 21
209.140458
 31
0.0
  0
LINE
  5
1023
100
AcDbEntity
  8
10000_FRONT
370
    50
390
0
  6
CONTINUOUS
 62
     7
100
AcDbLine
 10
152.268025
 20
209.140458
 30
0.0
 11
151.9799
 21
208.756445
 31
0.0
  0
LINE
  5
1024
100
AcDbEntity
  8
10000_FRONT
370
    50
390
0
  6
CONTINUOUS
 62
     7
100
AcDbLine
 10
151.9799
 20
208.756445
 30
0.0
 11
151.338617
 21
208.0214
 31
0.0
  0
LINE
  5
1025
100
AcDbEntity
  8
10000_FRONT
370
    50
390
0
  6
CONTINUOUS
 62
     7
100
AcDbLine
 10
151.338617
 20
208.0214
 30
0.0
 11
152.462746
 21
208.0214
 31
0.0
  0
LINE
  5
1026
100
AcDbEntity
  8
10000_FRONT
370
    50
390
0
  6
CONTINUOUS
 62
     7
100
AcDbLine
 10
152.462746
 20
208.0214
 30
0.0
 11
152.462746
 21
207.8842
 31
0.0
  0
LINE
  5
1027
100
AcDbEntity
  8
10000_FRONT
370
    50
390
0
  6
CONTINUOUS
 62
     7
100
AcDbLine
 10
152.462746
 20
207.8842
 30
0.0
 11
151.047871
 21
207.8842
 31
0.0
  0
LINE
  5
1028
100
AcDbEntity
  8
10000_FRONT
370
    50
390
0
  6
CONTINUOUS
 62
     7
100
AcDbLine
 10
151.047871
 20
197.3842
 30
0.0
 11
151.849098
 21
198.284269
 31
0.0
  0
LINE
  5
1029
100
AcDbEntity
  8
10000_FRONT
370
    50
390
0
  6
CONTINUOUS
 62
     7
100
AcDbLine
 10
151.849098
 20
198.284269
 30
0.0
 11
152.134484
 21
198.664632
 31
0.0
  0
LINE
  5
102A
100
AcDbEntity
  8
10000_FRONT
370
    50
390
0
  6
CONTINUOUS
 62
     7
100
AcDbLine
 10
152.134484
 20
198.664632
 30
0.0
 11
152.226934
 21
198.852363
 31
0.0
  0
LINE
  5
102B
100
AcDbEntity
  8
10000_FRONT
370
    50
390
0
  6
CONTINUOUS
 62
     7
100
AcDbLine
 10
152.226934
 20
198.852363
 30
0.0
 11
152.226934
 21
199.03305
 31
0.0
  0
LINE
  5
102C
100
AcDbEntity
  8
10000_FRONT
370
    50
390
0
  6
CONTINUOUS
 62
     7
100
AcDbLine
 10
152.226934
 20
199.03305
 30
0.0
 11
152.137164
 21
199.214045
 31
0.0
  0
LINE
  5
102D
100
AcDbEntity
  8
10000_FRONT
370
    50
390
0
  6
CONTINUOUS
 62
     7
100
AcDbLine
 10
152.137164
 20
199.214045
 30
0.0
 11
151.954945
 21
199.305
 31
0.0
  0
LINE
  5
102E
100
AcDbEntity
  8
10000_FRONT
370
    50
390
0
  6
CONTINUOUS
 62
     7
100
AcDbLine
 10
151.954945
 20
199.305
 30
0.0
 11
151.582469
 21
199.305
 31
0.0
  0
LINE
  5
102F
100
AcDbEntity
  8
10000_FRONT
370
    50
390
0
  6
CONTINUOUS
 62
     7
100
AcDbLine
 10
151.582469
 20
199.305
 30
0.0
 11
151.40159
 21
199.213737
 31
0.0
  0
LINE
  5
1030
100
AcDbEntity
  8
10000_FRONT
370
    50
390
0
  6
CONTINUOUS
 62
     7
100
AcDbLine
 10
151.40159
 20
199.213737
 30
0.0
 11
151.310481
 21
199.03305
 31
0.0
  0
LINE
  5
1031
100
AcDbEntity
  8
10000_FRONT
370
    50
390
0
  6
CONTINUOUS
 62
     7
100
AcDbLine
 10
151.310481
 20
199.03305
 30
0.0
 11
151.310481
 21
198.92035
 31
0.0
  0
LINE
  5
1032
100
AcDbEntity
  8
10000_FRONT
370
    50
390
0
  6
CONTINUOUS
 62
     7
100
AcDbLine
 10
151.310481
 20
198.92035
 30
0.0
 11
151.171137
 21
198.92035
 31
0.0
  0
LINE
  5
1033
100
AcDbEntity
  8
10000_FRONT
370
    50
390
0
  6
CONTINUOUS
 62
     7
100
AcDbLine
 10
151.171137
 20
198.92035
 30
0.0
 11
151.171137
 21
199.043769
 31
0.0
  0
LINE
  5
1034
100
AcDbEntity
  8
10000_FRONT
370
    50
390
0
  6
CONTINUOUS
 62
     7
100
AcDbLine
 10
151.171137
 20
199.043769
 30
0.0
 11
151.268945
 21
199.244669
 31
0.0
  0
LINE
  5
1035
100
AcDbEntity
  8
10000_FRONT
370
    50
390
0
  6
CONTINUOUS
 62
     7
100
AcDbLine
 10
151.268945
 20
199.244669
 30
0.0
 11
151.370774
 21
199.344506
 31
0.0
  0
LINE
  5
1036
100
AcDbEntity
  8
10000_FRONT
370
    50
390
0
  6
CONTINUOUS
 62
     7
100
AcDbLine
 10
151.370774
 20
199.344506
 30
0.0
 11
151.57175
 21
199.4422
 31
0.0
  0
LINE
  5
1037
100
AcDbEntity
  8
10000_FRONT
370
    50
390
0
  6
CONTINUOUS
 62
     7
100
AcDbLine
 10
151.57175
 20
199.4422
 30
0.0
 11
151.967004
 21
199.4422
 31
0.0
  0
LINE
  5
1038
100
AcDbEntity
  8
10000_FRONT
370
    50
390
0
  6
CONTINUOUS
 62
     7
100
AcDbLine
 10
151.967004
 20
199.4422
 30
0.0
 11
152.166641
 21
199.342975
 31
0.0
  0
LINE
  5
1039
100
AcDbEntity
  8
10000_FRONT
370
    50
390
0
  6
CONTINUOUS
 62
     7
100
AcDbLine
 10
152.166641
 20
199.342975
 30
0.0
 11
152.268469
 21
199.242525
 31
0.0
  0
LINE
  5
103A
100
AcDbEntity
  8
10000_FRONT
370
    50
390
0
  6
CONTINUOUS
 62
     7
100
AcDbLine
 10
152.268469
 20
199.242525
 30
0.0
 11
152.367617
 21
199.041595
 31
0.0
  0
LINE
  5
103B
100
AcDbEntity
  8
10000_FRONT
370
    50
390
0
  6
CONTINUOUS
 62
     7
100
AcDbLine
 10
152.367617
 20
199.041595
 30
0.0
 11
152.367617
 21
198.837969
 31
0.0
  0
LINE
  5
103C
100
AcDbEntity
  8
10000_FRONT
370
    50
390
0
  6
CONTINUOUS
 62
     7
100
AcDbLine
 10
152.367617
 20
198.837969
 30
0.0
 11
152.268025
 21
198.640457
 31
0.0
  0
LINE
  5
103D
100
AcDbEntity
  8
10000_FRONT
370
    50
390
0
  6
CONTINUOUS
 62
     7
100
AcDbLine
 10
152.268025
 20
198.640457
 30
0.0
 11
151.9799
 21
198.256445
 31
0.0
  0
LINE
  5
103E
100
AcDbEntity
  8
10000_FRONT
370
    50
390
0
  6
CONTINUOUS
 62
     7
100
AcDbLine
 10
151.9799
 20
198.256445
 30
0.0
 11
151.338617
 21
197.5214
 31
0.0
  0
LINE
  5
103F
100
AcDbEntity
  8
10000_FRONT
370
    50
390
0
  6
CONTINUOUS
 62
     7
100
AcDbLine
 10
151.338617
 20
197.5214
 30
0.0
 11
152.462746
 21
197.5214
 31
0.0
  0
LINE
  5
1040
100
AcDbEntity
  8
10000_FRONT
370
    50
390
0
  6
CONTINUOUS
 62
     7
100
AcDbLine
 10
152.462746
 20
197.5214
 30
0.0
 11
152.462746
 21
197.3842
 31
0.0
  0
LINE
  5
1041
100
AcDbEntity
  8
10000_FRONT
370
    50
390
0
  6
CONTINUOUS
 62
     7
100
AcDbLine
 10
152.462746
 20
197.3842
 30
0.0
 11
151.047871
 21
197.3842
 31
0.0
  0
LINE
  5
1042
100
AcDbEntity
  8
10000_FRONT
370
    50
390
0
  6
CONTINUOUS
 62
     7
100
AcDbLine
 10
149.573816
 20
197.582956
 30
0.0
 11
149.461414
 21
197.809582
 31
0.0
  0
LINE
  5
1043
100
AcDbEntity
  8
10000_FRONT
370
    50
390
0
  6
CONTINUOUS
 62
     7
100
AcDbLine
 10
149.461414
 20
197.809582
 30
0.0
 11
149.605973
 21
197.809582
 31
0.0
  0
LINE
  5
1044
100
AcDbEntity
  8
10000_FRONT
370
    50
390
0
  6
CONTINUOUS
 62
     7
100
AcDbLine
 10
149.605973
 20
197.809582
 30
0.0
 11
149.671625
 21
197.675444
 31
0.0
  0
LINE
  5
1045
100
AcDbEntity
  8
10000_FRONT
370
    50
390
0
  6
CONTINUOUS
 62
     7
100
AcDbLine
 10
149.671625
 20
197.675444
 30
0.0
 11
149.982469
 21
197.5214
 31
0.0
  0
LINE
  5
1046
100
AcDbEntity
  8
10000_FRONT
370
    50
390
0
  6
CONTINUOUS
 62
     7
100
AcDbLine
 10
149.982469
 20
197.5214
 30
0.0
 11
150.262496
 21
197.5214
 31
0.0
  0
LINE
  5
1047
100
AcDbEntity
  8
10000_FRONT
370
    50
390
0
  6
CONTINUOUS
 62
     7
100
AcDbLine
 10
150.262496
 20
197.5214
 30
0.0
 11
150.446055
 21
197.585712
 31
0.0
  0
LINE
  5
1048
100
AcDbEntity
  8
10000_FRONT
370
    50
390
0
  6
CONTINUOUS
 62
     7
100
AcDbLine
 10
150.446055
 20
197.585712
 30
0.0
 11
150.57468
 21
197.670238
 31
0.0
  0
LINE
  5
1049
100
AcDbEntity
  8
10000_FRONT
370
    50
390
0
  6
CONTINUOUS
 62
     7
100
AcDbLine
 10
150.57468
 20
197.670238
 30
0.0
 11
150.66043
 21
197.798862
 31
0.0
  0
LINE
  5
104A
100
AcDbEntity
  8
10000_FRONT
370
    50
390
0
  6
CONTINUOUS
 62
     7
100
AcDbLine
 10
150.66043
 20
197.798862
 30
0.0
 11
150.723402
 21
197.984144
 31
0.0
  0
LINE
  5
104B
100
AcDbEntity
  8
10000_FRONT
370
    50
390
0
  6
CONTINUOUS
 62
     7
100
AcDbLine
 10
150.723402
 20
197.984144
 30
0.0
 11
150.723402
 21
198.073875
 31
0.0
  0
LINE
  5
104C
100
AcDbEntity
  8
10000_FRONT
370
    50
390
0
  6
CONTINUOUS
 62
     7
100
AcDbLine
 10
150.723402
 20
198.073875
 30
0.0
 11
150.66043
 21
198.257625
 31
0.0
  0
LINE
  5
104D
100
AcDbEntity
  8
10000_FRONT
370
    50
390
0
  6
CONTINUOUS
 62
     7
100
AcDbLine
 10
150.66043
 20
198.257625
 30
0.0
 11
150.57468
 21
198.387781
 31
0.0
  0
LINE
  5
104E
100
AcDbEntity
  8
10000_FRONT
370
    50
390
0
  6
CONTINUOUS
 62
     7
100
AcDbLine
 10
150.57468
 20
198.387781
 30
0.0
 11
150.446055
 21
198.472306
 31
0.0
  0
LINE
  5
104F
100
AcDbEntity
  8
10000_FRONT
370
    50
390
0
  6
CONTINUOUS
 62
     7
100
AcDbLine
 10
150.446055
 20
198.472306
 30
0.0
 11
150.262496
 21
198.535088
 31
0.0
  0
LINE
  5
1050
100
AcDbEntity
  8
10000_FRONT
370
    50
390
0
  6
CONTINUOUS
 62
     7
100
AcDbLine
 10
150.262496
 20
198.535088
 30
0.0
 11
149.932894
 21
198.535088
 31
0.0
  0
LINE
  5
1051
100
AcDbEntity
  8
10000_FRONT
370
    50
390
0
  6
CONTINUOUS
 62
     7
100
AcDbLine
 10
149.932894
 20
198.535088
 30
0.0
 11
150.527785
 21
199.305
 31
0.0
  0
LINE
  5
1052
100
AcDbEntity
  8
10000_FRONT
370
    50
390
0
  6
CONTINUOUS
 62
     7
100
AcDbLine
 10
150.527785
 20
199.305
 30
0.0
 11
149.666266
 21
199.305
 31
0.0
  0
LINE
  5
1053
100
AcDbEntity
  8
10000_FRONT
370
    50
390
0
  6
CONTINUOUS
 62
     7
100
AcDbLine
 10
149.666266
 20
199.305
 30
0.0
 11
149.666266
 21
199.4422
 31
0.0
  0
LINE
  5
1054
100
AcDbEntity
  8
10000_FRONT
370
    50
390
0
  6
CONTINUOUS
 62
     7
100
AcDbLine
 10
149.666266
 20
199.4422
 30
0.0
 11
150.797094
 21
199.4422
 31
0.0
  0
LINE
  5
1055
100
AcDbEntity
  8
10000_FRONT
370
    50
390
0
  6
CONTINUOUS
 62
     7
100
AcDbLine
 10
150.797094
 20
199.4422
 30
0.0
 11
150.194164
 21
198.67535
 31
0.0
  0
LINE
  5
1056
100
AcDbEntity
  8
10000_FRONT
370
    50
390
0
  6
CONTINUOUS
 62
     7
100
AcDbLine
 10
150.194164
 20
198.67535
 30
0.0
 11
150.267856
 21
198.67535
 31
0.0
  0
LINE
  5
1057
100
AcDbEntity
  8
10000_FRONT
370
    50
390
0
  6
CONTINUOUS
 62
     7
100
AcDbLine
 10
150.267856
 20
198.67535
 30
0.0
 11
150.563961
 21
198.576431
 31
0.0
  0
LINE
  5
1058
100
AcDbEntity
  8
10000_FRONT
370
    50
390
0
  6
CONTINUOUS
 62
     7
100
AcDbLine
 10
150.563961
 20
198.576431
 30
0.0
 11
150.764937
 21
198.375837
 31
0.0
  0
LINE
  5
1059
100
AcDbEntity
  8
10000_FRONT
370
    50
390
0
  6
CONTINUOUS
 62
     7
100
AcDbLine
 10
150.764937
 20
198.375837
 30
0.0
 11
150.862746
 21
198.08
 31
0.0
  0
LINE
  5
105A
100
AcDbEntity
  8
10000_FRONT
370
    50
390
0
  6
CONTINUOUS
 62
     7
100
AcDbLine
 10
150.862746
 20
198.08
 30
0.0
 11
150.862746
 21
197.978325
 31
0.0
  0
LINE
  5
105B
100
AcDbEntity
  8
10000_FRONT
370
    50
390
0
  6
CONTINUOUS
 62
     7
100
AcDbLine
 10
150.862746
 20
197.978325
 30
0.0
 11
150.764937
 21
197.682487
 31
0.0
  0
LINE
  5
105C
100
AcDbEntity
  8
10000_FRONT
370
    50
390
0
  6
CONTINUOUS
 62
     7
100
AcDbLine
 10
150.764937
 20
197.682487
 30
0.0
 11
150.563961
 21
197.483119
 31
0.0
  0
LINE
  5
105D
100
AcDbEntity
  8
10000_FRONT
370
    50
390
0
  6
CONTINUOUS
 62
     7
100
AcDbLine
 10
150.563961
 20
197.483119
 30
0.0
 11
150.267856
 21
197.3842
 31
0.0
  0
LINE
  5
105E
100
AcDbEntity
  8
10000_FRONT
370
    50
390
0
  6
CONTINUOUS
 62
     7
100
AcDbLine
 10
150.267856
 20
197.3842
 30
0.0
 11
149.97443
 21
197.3842
 31
0.0
  0
LINE
  5
105F
100
AcDbEntity
  8
10000_FRONT
370
    50
390
0
  6
CONTINUOUS
 62
     7
100
AcDbLine
 10
149.97443
 20
197.3842
 30
0.0
 11
149.678004
 21
197.482203
 31
0.0
  0
LINE
  5
1060
100
AcDbEntity
  8
10000_FRONT
370
    50
390
0
  6
CONTINUOUS
 62
     7
100
AcDbLine
 10
149.678004
 20
197.482203
 30
0.0
 11
149.573816
 21
197.582956
 31
0.0
  0
LINE
  5
1061
100
AcDbEntity
  8
10000_FRONT
370
    50
390
0
  6
CONTINUOUS
 62
     7
100
AcDbLine
 10
150.4348
 20
208.5114
 30
0.0
 11
150.4348
 21
209.5698
 31
0.0
  0
LINE
  5
1062
100
AcDbEntity
  8
10000_FRONT
370
    50
390
0
  6
CONTINUOUS
 62
     7
100
AcDbLine
 10
149.699226
 20
208.5114
 30
0.0
 11
150.4348
 21
208.5114
 31
0.0
  0
LINE
  5
1063
100
AcDbEntity
  8
10000_FRONT
370
    50
390
0
  6
CONTINUOUS
 62
     7
100
AcDbLine
 10
150.4348
 20
209.5698
 30
0.0
 11
149.699226
 21
208.5114
 31
0.0
  0
LINE
  5
1064
100
AcDbEntity
  8
10000_FRONT
370
    50
390
0
  6
CONTINUOUS
 62
     7
100
AcDbLine
 10
149.450015
 20
208.3742
 30
0.0
 11
150.539754
 21
209.9422
 31
0.0
  0
LINE
  5
1065
100
AcDbEntity
  8
10000_FRONT
370
    50
390
0
  6
CONTINUOUS
 62
     7
100
AcDbLine
 10
150.539754
 20
209.9422
 30
0.0
 11
150.572
 21
209.9422
 31
0.0
  0
LINE
  5
1066
100
AcDbEntity
  8
10000_FRONT
370
    50
390
0
  6
CONTINUOUS
 62
     7
100
AcDbLine
 10
150.572
 20
209.9422
 30
0.0
 11
150.572
 21
208.5114
 31
0.0
  0
LINE
  5
1067
100
AcDbEntity
  8
10000_FRONT
370
    50
390
0
  6
CONTINUOUS
 62
     7
100
AcDbLine
 10
150.572
 20
208.5114
 30
0.0
 11
150.956535
 21
208.5114
 31
0.0
  0
LINE
  5
1068
100
AcDbEntity
  8
10000_FRONT
370
    50
390
0
  6
CONTINUOUS
 62
     7
100
AcDbLine
 10
150.956535
 20
208.5114
 30
0.0
 11
150.956535
 21
208.3742
 31
0.0
  0
LINE
  5
1069
100
AcDbEntity
  8
10000_FRONT
370
    50
390
0
  6
CONTINUOUS
 62
     7
100
AcDbLine
 10
150.956535
 20
208.3742
 30
0.0
 11
150.572
 21
208.3742
 31
0.0
  0
LINE
  5
106A
100
AcDbEntity
  8
10000_FRONT
370
    50
390
0
  6
CONTINUOUS
 62
     7
100
AcDbLine
 10
150.572
 20
208.3742
 30
0.0
 11
150.572
 21
207.8842
 31
0.0
  0
LINE
  5
106B
100
AcDbEntity
  8
10000_FRONT
370
    50
390
0
  6
CONTINUOUS
 62
     7
100
AcDbLine
 10
150.572
 20
207.8842
 30
0.0
 11
150.4348
 21
207.8842
 31
0.0
  0
LINE
  5
106C
100
AcDbEntity
  8
10000_FRONT
370
    50
390
0
  6
CONTINUOUS
 62
     7
100
AcDbLine
 10
150.4348
 20
207.8842
 30
0.0
 11
150.4348
 21
208.3742
 31
0.0
  0
LINE
  5
106D
100
AcDbEntity
  8
10000_FRONT
370
    50
390
0
  6
CONTINUOUS
 62
     7
100
AcDbLine
 10
150.4348
 20
208.3742
 30
0.0
 11
149.450015
 21
208.3742
 31
0.0
  0
LINE
  5
106E
100
AcDbEntity
  8
10000_FRONT
370
    50
390
0
  6
CONTINUOUS
 62
     7
100
AcDbLine
 10
150.4348
 20
213.0114
 30
0.0
 11
150.4348
 21
214.0698
 31
0.0
  0
LINE
  5
106F
100
AcDbEntity
  8
10000_FRONT
370
    50
390
0
  6
CONTINUOUS
 62
     7
100
AcDbLine
 10
149.699226
 20
213.0114
 30
0.0
 11
150.4348
 21
213.0114
 31
0.0
  0
LINE
  5
1070
100
AcDbEntity
  8
10000_FRONT
370
    50
390
0
  6
CONTINUOUS
 62
     7
100
AcDbLine
 10
150.4348
 20
214.0698
 30
0.0
 11
149.699226
 21
213.0114
 31
0.0
  0
LINE
  5
1071
100
AcDbEntity
  8
10000_FRONT
370
    50
390
0
  6
CONTINUOUS
 62
     7
100
AcDbLine
 10
149.450015
 20
212.8742
 30
0.0
 11
150.539754
 21
214.4422
 31
0.0
  0
LINE
  5
1072
100
AcDbEntity
  8
10000_FRONT
370
    50
390
0
  6
CONTINUOUS
 62
     7
100
AcDbLine
 10
150.539754
 20
214.4422
 30
0.0
 11
150.572
 21
214.4422
 31
0.0
  0
LINE
  5
1073
100
AcDbEntity
  8
10000_FRONT
370
    50
390
0
  6
CONTINUOUS
 62
     7
100
AcDbLine
 10
150.572
 20
214.4422
 30
0.0
 11
150.572
 21
213.0114
 31
0.0
  0
LINE
  5
1074
100
AcDbEntity
  8
10000_FRONT
370
    50
390
0
  6
CONTINUOUS
 62
     7
100
AcDbLine
 10
150.572
 20
213.0114
 30
0.0
 11
150.956535
 21
213.0114
 31
0.0
  0
LINE
  5
1075
100
AcDbEntity
  8
10000_FRONT
370
    50
390
0
  6
CONTINUOUS
 62
     7
100
AcDbLine
 10
150.956535
 20
213.0114
 30
0.0
 11
150.956535
 21
212.8742
 31
0.0
  0
LINE
  5
1076
100
AcDbEntity
  8
10000_FRONT
370
    50
390
0
  6
CONTINUOUS
 62
     7
100
AcDbLine
 10
150.956535
 20
212.8742
 30
0.0
 11
150.572
 21
212.8742
 31
0.0
  0
LINE
  5
1077
100
AcDbEntity
  8
10000_FRONT
370
    50
390
0
  6
CONTINUOUS
 62
     7
100
AcDbLine
 10
150.572
 20
212.8742
 30
0.0
 11
150.572
 21
212.3842
 31
0.0
  0
LINE
  5
1078
100
AcDbEntity
  8
10000_FRONT
370
    50
390
0
  6
CONTINUOUS
 62
     7
100
AcDbLine
 10
150.572
 20
212.3842
 30
0.0
 11
150.4348
 21
212.3842
 31
0.0
  0
LINE
  5
1079
100
AcDbEntity
  8
10000_FRONT
370
    50
390
0
  6
CONTINUOUS
 62
     7
100
AcDbLine
 10
150.4348
 20
212.3842
 30
0.0
 11
150.4348
 21
212.8742
 31
0.0
  0
LINE
  5
107A
100
AcDbEntity
  8
10000_FRONT
370
    50
390
0
  6
CONTINUOUS
 62
     7
100
AcDbLine
 10
150.4348
 20
212.8742
 30
0.0
 11
149.450015
 21
212.8742
 31
0.0
  0
LINE
  5
107B
100
AcDbEntity
  8
10000_FRONT
370
    50
390
0
  6
CONTINUOUS
 62
     7
100
AcDbLine
 10
149.573816
 20
223.582956
 30
0.0
 11
149.461414
 21
223.809582
 31
0.0
  0
LINE
  5
107C
100
AcDbEntity
  8
10000_FRONT
370
    50
390
0
  6
CONTINUOUS
 62
     7
100
AcDbLine
 10
149.461414
 20
223.809582
 30
0.0
 11
149.605973
 21
223.809582
 31
0.0
  0
LINE
  5
107D
100
AcDbEntity
  8
10000_FRONT
370
    50
390
0
  6
CONTINUOUS
 62
     7
100
AcDbLine
 10
149.605973
 20
223.809582
 30
0.0
 11
149.671625
 21
223.675444
 31
0.0
  0
LINE
  5
107E
100
AcDbEntity
  8
10000_FRONT
370
    50
390
0
  6
CONTINUOUS
 62
     7
100
AcDbLine
 10
149.671625
 20
223.675444
 30
0.0
 11
149.982469
 21
223.5214
 31
0.0
  0
LINE
  5
107F
100
AcDbEntity
  8
10000_FRONT
370
    50
390
0
  6
CONTINUOUS
 62
     7
100
AcDbLine
 10
149.982469
 20
223.5214
 30
0.0
 11
150.262496
 21
223.5214
 31
0.0
  0
LINE
  5
1080
100
AcDbEntity
  8
10000_FRONT
370
    50
390
0
  6
CONTINUOUS
 62
     7
100
AcDbLine
 10
150.262496
 20
223.5214
 30
0.0
 11
150.446055
 21
223.585712
 31
0.0
  0
LINE
  5
1081
100
AcDbEntity
  8
10000_FRONT
370
    50
390
0
  6
CONTINUOUS
 62
     7
100
AcDbLine
 10
150.446055
 20
223.585712
 30
0.0
 11
150.57468
 21
223.670238
 31
0.0
  0
LINE
  5
1082
100
AcDbEntity
  8
10000_FRONT
370
    50
390
0
  6
CONTINUOUS
 62
     7
100
AcDbLine
 10
150.57468
 20
223.670238
 30
0.0
 11
150.66043
 21
223.798862
 31
0.0
  0
LINE
  5
1083
100
AcDbEntity
  8
10000_FRONT
370
    50
390
0
  6
CONTINUOUS
 62
     7
100
AcDbLine
 10
150.66043
 20
223.798862
 30
0.0
 11
150.723402
 21
223.984144
 31
0.0
  0
LINE
  5
1084
100
AcDbEntity
  8
10000_FRONT
370
    50
390
0
  6
CONTINUOUS
 62
     7
100
AcDbLine
 10
150.723402
 20
223.984144
 30
0.0
 11
150.723402
 21
224.073875
 31
0.0
  0
LINE
  5
1085
100
AcDbEntity
  8
10000_FRONT
370
    50
390
0
  6
CONTINUOUS
 62
     7
100
AcDbLine
 10
150.723402
 20
224.073875
 30
0.0
 11
150.66043
 21
224.257625
 31
0.0
  0
LINE
  5
1086
100
AcDbEntity
  8
10000_FRONT
370
    50
390
0
  6
CONTINUOUS
 62
     7
100
AcDbLine
 10
150.66043
 20
224.257625
 30
0.0
 11
150.57468
 21
224.387781
 31
0.0
  0
LINE
  5
1087
100
AcDbEntity
  8
10000_FRONT
370
    50
390
0
  6
CONTINUOUS
 62
     7
100
AcDbLine
 10
150.57468
 20
224.387781
 30
0.0
 11
150.446055
 21
224.472306
 31
0.0
  0
LINE
  5
1088
100
AcDbEntity
  8
10000_FRONT
370
    50
390
0
  6
CONTINUOUS
 62
     7
100
AcDbLine
 10
150.446055
 20
224.472306
 30
0.0
 11
150.262496
 21
224.535088
 31
0.0
  0
LINE
  5
1089
100
AcDbEntity
  8
10000_FRONT
370
    50
390
0
  6
CONTINUOUS
 62
     7
100
AcDbLine
 10
150.262496
 20
224.535088
 30
0.0
 11
149.932894
 21
224.535088
 31
0.0
  0
LINE
  5
108A
100
AcDbEntity
  8
10000_FRONT
370
    50
390
0
  6
CONTINUOUS
 62
     7
100
AcDbLine
 10
149.932894
 20
224.535088
 30
0.0
 11
150.527785
 21
225.305
 31
0.0
  0
LINE
  5
108B
100
AcDbEntity
  8
10000_FRONT
370
    50
390
0
  6
CONTINUOUS
 62
     7
100
AcDbLine
 10
150.527785
 20
225.305
 30
0.0
 11
149.666266
 21
225.305
 31
0.0
  0
LINE
  5
108C
100
AcDbEntity
  8
10000_FRONT
370
    50
390
0
  6
CONTINUOUS
 62
     7
100
AcDbLine
 10
149.666266
 20
225.305
 30
0.0
 11
149.666266
 21
225.4422
 31
0.0
  0
LINE
  5
108D
100
AcDbEntity
  8
10000_FRONT
370
    50
390
0
  6
CONTINUOUS
 62
     7
100
AcDbLine
 10
149.666266
 20
225.4422
 30
0.0
 11
150.797094
 21
225.4422
 31
0.0
  0
LINE
  5
108E
100
AcDbEntity
  8
10000_FRONT
370
    50
390
0
  6
CONTINUOUS
 62
     7
100
AcDbLine
 10
150.797094
 20
225.4422
 30
0.0
 11
150.194164
 21
224.67535
 31
0.0
  0
LINE
  5
108F
100
AcDbEntity
  8
10000_FRONT
370
    50
390
0
  6
CONTINUOUS
 62
     7
100
AcDbLine
 10
150.194164
 20
224.67535
 30
0.0
 11
150.267856
 21
224.67535
 31
0.0
  0
LINE
  5
1090
100
AcDbEntity
  8
10000_FRONT
370
    50
390
0
  6
CONTINUOUS
 62
     7
100
AcDbLine
 10
150.267856
 20
224.67535
 30
0.0
 11
150.563961
 21
224.576431
 31
0.0
  0
LINE
  5
1091
100
AcDbEntity
  8
10000_FRONT
370
    50
390
0
  6
CONTINUOUS
 62
     7
100
AcDbLine
 10
150.563961
 20
224.576431
 30
0.0
 11
150.764937
 21
224.375837
 31
0.0
  0
LINE
  5
1092
100
AcDbEntity
  8
10000_FRONT
370
    50
390
0
  6
CONTINUOUS
 62
     7
100
AcDbLine
 10
150.764937
 20
224.375837
 30
0.0
 11
150.862746
 21
224.08
 31
0.0
  0
LINE
  5
1093
100
AcDbEntity
  8
10000_FRONT
370
    50
390
0
  6
CONTINUOUS
 62
     7
100
AcDbLine
 10
150.862746
 20
224.08
 30
0.0
 11
150.862746
 21
223.978325
 31
0.0
  0
LINE
  5
1094
100
AcDbEntity
  8
10000_FRONT
370
    50
390
0
  6
CONTINUOUS
 62
     7
100
AcDbLine
 10
150.862746
 20
223.978325
 30
0.0
 11
150.764937
 21
223.682487
 31
0.0
  0
LINE
  5
1095
100
AcDbEntity
  8
10000_FRONT
370
    50
390
0
  6
CONTINUOUS
 62
     7
100
AcDbLine
 10
150.764937
 20
223.682487
 30
0.0
 11
150.563961
 21
223.483119
 31
0.0
  0
LINE
  5
1096
100
AcDbEntity
  8
10000_FRONT
370
    50
390
0
  6
CONTINUOUS
 62
     7
100
AcDbLine
 10
150.563961
 20
223.483119
 30
0.0
 11
150.267856
 21
223.3842
 31
0.0
  0
LINE
  5
1097
100
AcDbEntity
  8
10000_FRONT
370
    50
390
0
  6
CONTINUOUS
 62
     7
100
AcDbLine
 10
150.267856
 20
223.3842
 30
0.0
 11
149.97443
 21
223.3842
 31
0.0
  0
LINE
  5
1098
100
AcDbEntity
  8
10000_FRONT
370
    50
390
0
  6
CONTINUOUS
 62
     7
100
AcDbLine
 10
149.97443
 20
223.3842
 30
0.0
 11
149.678004
 21
223.482203
 31
0.0
  0
LINE
  5
1099
100
AcDbEntity
  8
10000_FRONT
370
    50
390
0
  6
CONTINUOUS
 62
     7
100
AcDbLine
 10
149.678004
 20
223.482203
 30
0.0
 11
149.573816
 21
223.582956
 31
0.0
  0
ARC
  5
109A
100
AcDbEntity
  8
10000_FRONT
370
    50
390
0
  6
CONTINUOUS
 62
     7
100
AcDbCircle
 10
153.5
 20
193.5
 30
0.0
 40
4.1
100
AcDbArc
 50
63.653876
 51
90.0
  0
ARC
  5
109B
100
AcDbEntity
  8
10000_FRONT
370
    50
390
0
  6
CONTINUOUS
 62
     7
100
AcDbCircle
 10
153.5
 20
193.5
 30
0.0
 40
4.1
100
AcDbArc
 50
61.407881
 51
63.182307
  0
LINE
  5
109C
100
AcDbEntity
  8
10000_FRONT
370
    50
390
0
  6
CONTINUOUS
 62
     7
100
AcDbLine
 10
157.401422
 20
197.1
 30
0.0
 11
155.462142
 21
197.1
 31
0.0
  0
LINE
  5
109D
100
AcDbEntity
  8
10000_FRONT
370
    50
390
0
  6
CONTINUOUS
 62
     7
100
AcDbLine
 10
157.401422
 20
196.95
 30
0.0
 11
157.401422
 21
197.1
 31
0.0
  0
LINE
  5
109E
100
AcDbEntity
  8
10000_FRONT
370
    50
390
0
  6
CONTINUOUS
 62
     7
100
AcDbLine
 10
157.611346
 20
194.549999
 30
0.0
 11
157.401422
 21
196.95
 31
0.0
  0
LINE
  5
109F
100
AcDbEntity
  8
10000_FRONT
370
    50
390
0
  6
CONTINUOUS
 62
     7
100
AcDbLine
 10
158.0
 20
194.549999
 30
0.0
 11
157.611346
 21
194.549999
 31
0.0
  0
LINE
  5
10A0
100
AcDbEntity
  8
10000_FRONT
370
    50
390
0
  6
CONTINUOUS
 62
     7
100
AcDbLine
 10
158.0
 20
194.549999
 30
0.0
 11
158.0
 21
228.450001
 31
0.0
  0
LINE
  5
10A1
100
AcDbEntity
  8
10000_FRONT
370
    50
390
0
  6
CONTINUOUS
 62
     7
100
AcDbLine
 10
158.0
 20
228.450001
 30
0.0
 11
157.612177
 21
228.450001
 31
0.0
  0
LINE
  5
10A2
100
AcDbEntity
  8
10000_FRONT
370
    50
390
0
  6
CONTINUOUS
 62
     7
100
AcDbLine
 10
157.402254
 20
226.05
 30
0.0
 11
157.612177
 21
228.450001
 31
0.0
  0
LINE
  5
10A3
100
AcDbEntity
  8
10000_FRONT
370
    50
390
0
  6
CONTINUOUS
 62
     7
100
AcDbLine
 10
157.402254
 20
225.9
 30
0.0
 11
157.402254
 21
226.05
 31
0.0
  0
LINE
  5
10A4
100
AcDbEntity
  8
10000_FRONT
370
    50
390
0
  6
CONTINUOUS
 62
     7
100
AcDbLine
 10
155.462142
 20
225.9
 30
0.0
 11
157.402254
 21
225.9
 31
0.0
  0
ARC
  5
10A5
100
AcDbEntity
  8
10000_FRONT
370
    50
390
0
  6
CONTINUOUS
 62
     7
100
AcDbCircle
 10
153.5
 20
229.5
 30
0.0
 40
4.1
100
AcDbArc
 50
270.0
 51
298.592119
  0
LINE
  5
10A6
100
AcDbEntity
  8
10000_FRONT
370
    50
390
0
  6
CONTINUOUS
 62
     7
100
AcDbLine
 10
149.598578
 20
225.9
 30
0.0
 11
151.537858
 21
225.9
 31
0.0
  0
LINE
  5
10A7
100
AcDbEntity
  8
10000_FRONT
370
    50
390
0
  6
CONTINUOUS
 62
     7
100
AcDbLine
 10
149.598578
 20
226.05
 30
0.0
 11
149.598578
 21
225.9
 31
0.0
  0
LINE
  5
10A8
100
AcDbEntity
  8
10000_FRONT
370
    50
390
0
  6
CONTINUOUS
 62
     7
100
AcDbLine
 10
149.388654
 20
228.450001
 30
0.0
 11
149.598578
 21
226.05
 31
0.0
  0
LINE
  5
10A9
100
AcDbEntity
  8
10000_FRONT
370
    50
390
0
  6
CONTINUOUS
 62
     7
100
AcDbLine
 10
149.388654
 20
228.450001
 30
0.0
 11
149.0
 21
228.450001
 31
0.0
  0
LINE
  5
10AA
100
AcDbEntity
  8
10000_FRONT
370
    50
390
0
  6
CONTINUOUS
 62
     7
100
AcDbLine
 10
149.0
 20
194.549999
 30
0.0
 11
149.0
 21
228.450001
 31
0.0
  0
LINE
  5
10AB
100
AcDbEntity
  8
10000_FRONT
370
    50
390
0
  6
CONTINUOUS
 62
     7
100
AcDbLine
 10
149.387823
 20
194.549999
 30
0.0
 11
149.0
 21
194.549999
 31
0.0
  0
LINE
  5
10AC
100
AcDbEntity
  8
10000_FRONT
370
    50
390
0
  6
CONTINUOUS
 62
     7
100
AcDbLine
 10
149.597746
 20
196.95
 30
0.0
 11
149.387823
 21
194.549999
 31
0.0
  0
LINE
  5
10AD
100
AcDbEntity
  8
10000_FRONT
370
    50
390
0
  6
CONTINUOUS
 62
     7
100
AcDbLine
 10
149.597746
 20
197.1
 30
0.0
 11
149.597746
 21
196.95
 31
0.0
  0
LINE
  5
10AE
100
AcDbEntity
  8
10000_FRONT
370
    50
390
0
  6
CONTINUOUS
 62
     7
100
AcDbLine
 10
151.537858
 20
197.1
 30
0.0
 11
149.597746
 21
197.1
 31
0.0
  0
ARC
  5
10AF
100
AcDbEntity
  8
10000_FRONT
370
    50
390
0
  6
CONTINUOUS
 62
     7
100
AcDbCircle
 10
153.5
 20
219.5
 30
0.0
 40
4.1
100
AcDbArc
 50
270.0
 51
63.144205
  0
ARC
  5
10B0
100
AcDbEntity
  8
10000_FRONT
370
    50
390
0
  6
CONTINUOUS
 62
     7
100
AcDbCircle
 10
153.5
 20
219.5
 30
0.0
 40
4.1
100
AcDbArc
 50
69.184902
 51
90.0
  0
ARC
  5
10B1
100
AcDbEntity
  8
10000_FRONT
370
    50
390
0
  6
CONTINUOUS
 62
     7
100
AcDbCircle
 10
153.5
 20
203.5
 30
0.0
 40
4.1
100
AcDbArc
 50
270.0
 51
90.0
  0
LINE
  5
10B2
100
AcDbEntity
  8
10000_FRONT
370
    50
390
0
  6
CONTINUOUS
 62
     7
100
AcDbLine
 10
155.45675
 20
199.2158
 30
0.0
 11
155.45675
 21
197.423931
 31
0.0
  0
LINE
  5
10B3
100
AcDbEntity
  8
10000_FRONT
370
    50
390
0
  6
CONTINUOUS
 62
     7
100
AcDbLine
 10
155.45675
 20
197.423931
 30
0.0
 11
155.613512
 21
197.581956
 31
0.0
  0
LINE
  5
10B4
100
AcDbEntity
  8
10000_FRONT
370
    50
390
0
  6
CONTINUOUS
 62
     7
100
AcDbLine
 10
155.613512
 20
197.581956
 30
0.0
 11
155.841285
 21
197.69435
 31
0.0
  0
LINE
  5
10B5
100
AcDbEntity
  8
10000_FRONT
370
    50
390
0
  6
CONTINUOUS
 62
     7
100
AcDbLine
 10
155.841285
 20
197.69435
 30
0.0
 11
155.841285
 21
197.5498
 31
0.0
  0
LINE
  5
10B6
100
AcDbEntity
  8
10000_FRONT
370
    50
390
0
  6
CONTINUOUS
 62
     7
100
AcDbLine
 10
155.841285
 20
197.5498
 30
0.0
 11
155.640309
 21
197.448125
 31
0.0
  0
LINE
  5
10B7
100
AcDbEntity
  8
10000_FRONT
370
    50
390
0
  6
CONTINUOUS
 62
     7
100
AcDbLine
 10
155.640309
 20
197.448125
 30
0.0
 11
155.348491
 21
197.1578
 31
0.0
  0
LINE
  5
10B8
100
AcDbEntity
  8
10000_FRONT
370
    50
390
0
  6
CONTINUOUS
 62
     7
100
AcDbLine
 10
155.348491
 20
197.1578
 30
0.0
 11
155.31955
 21
197.1578
 31
0.0
  0
LINE
  5
10B9
100
AcDbEntity
  8
10000_FRONT
370
    50
390
0
  6
CONTINUOUS
 62
     7
100
AcDbLine
 10
155.31955
 20
197.1578
 30
0.0
 11
155.31955
 21
199.2158
 31
0.0
  0
LINE
  5
10BA
100
AcDbEntity
  8
10000_FRONT
370
    50
390
0
  6
CONTINUOUS
 62
     7
100
AcDbLine
 10
155.31955
 20
199.2158
 30
0.0
 11
155.45675
 21
199.2158
 31
0.0
  0
LINE
  5
10BB
100
AcDbEntity
  8
10000_FRONT
370
    50
390
0
  6
CONTINUOUS
 62
     7
100
AcDbLine
 10
155.45675
 20
210.2158
 30
0.0
 11
155.45675
 21
208.423931
 31
0.0
  0
LINE
  5
10BC
100
AcDbEntity
  8
10000_FRONT
370
    50
390
0
  6
CONTINUOUS
 62
     7
100
AcDbLine
 10
155.45675
 20
208.423931
 30
0.0
 11
155.613512
 21
208.581956
 31
0.0
  0
LINE
  5
10BD
100
AcDbEntity
  8
10000_FRONT
370
    50
390
0
  6
CONTINUOUS
 62
     7
100
AcDbLine
 10
155.613512
 20
208.581956
 30
0.0
 11
155.841285
 21
208.69435
 31
0.0
  0
LINE
  5
10BE
100
AcDbEntity
  8
10000_FRONT
370
    50
390
0
  6
CONTINUOUS
 62
     7
100
AcDbLine
 10
155.841285
 20
208.69435
 30
0.0
 11
155.841285
 21
208.5498
 31
0.0
  0
LINE
  5
10BF
100
AcDbEntity
  8
10000_FRONT
370
    50
390
0
  6
CONTINUOUS
 62
     7
100
AcDbLine
 10
155.841285
 20
208.5498
 30
0.0
 11
155.640309
 21
208.448125
 31
0.0
  0
LINE
  5
10C0
100
AcDbEntity
  8
10000_FRONT
370
    50
390
0
  6
CONTINUOUS
 62
     7
100
AcDbLine
 10
155.640309
 20
208.448125
 30
0.0
 11
155.348491
 21
208.1578
 31
0.0
  0
LINE
  5
10C1
100
AcDbEntity
  8
10000_FRONT
370
    50
390
0
  6
CONTINUOUS
 62
     7
100
AcDbLine
 10
155.348491
 20
208.1578
 30
0.0
 11
155.31955
 21
208.1578
 31
0.0
  0
LINE
  5
10C2
100
AcDbEntity
  8
10000_FRONT
370
    50
390
0
  6
CONTINUOUS
 62
     7
100
AcDbLine
 10
155.31955
 20
208.1578
 30
0.0
 11
155.31955
 21
210.2158
 31
0.0
  0
LINE
  5
10C3
100
AcDbEntity
  8
10000_FRONT
370
    50
390
0
  6
CONTINUOUS
 62
     7
100
AcDbLine
 10
155.31955
 20
210.2158
 30
0.0
 11
155.45675
 21
210.2158
 31
0.0
  0
LINE
  5
10C4
100
AcDbEntity
  8
10000_FRONT
370
    50
390
0
  6
CONTINUOUS
 62
     7
100
AcDbLine
 10
156.152129
 20
214.7158
 30
0.0
 11
155.350902
 21
213.815731
 31
0.0
  0
LINE
  5
10C5
100
AcDbEntity
  8
10000_FRONT
370
    50
390
0
  6
CONTINUOUS
 62
     7
100
AcDbLine
 10
155.350902
 20
213.815731
 30
0.0
 11
155.065516
 21
213.435368
 31
0.0
  0
LINE
  5
10C6
100
AcDbEntity
  8
10000_FRONT
370
    50
390
0
  6
CONTINUOUS
 62
     7
100
AcDbLine
 10
155.065516
 20
213.435368
 30
0.0
 11
154.973066
 21
213.247638
 31
0.0
  0
LINE
  5
10C7
100
AcDbEntity
  8
10000_FRONT
370
    50
390
0
  6
CONTINUOUS
 62
     7
100
AcDbLine
 10
154.973066
 20
213.247638
 30
0.0
 11
154.973066
 21
213.06695
 31
0.0
  0
LINE
  5
10C8
100
AcDbEntity
  8
10000_FRONT
370
    50
390
0
  6
CONTINUOUS
 62
     7
100
AcDbLine
 10
154.973066
 20
213.06695
 30
0.0
 11
155.062836
 21
212.885956
 31
0.0
  0
LINE
  5
10C9
100
AcDbEntity
  8
10000_FRONT
370
    50
390
0
  6
CONTINUOUS
 62
     7
100
AcDbLine
 10
155.062836
 20
212.885956
 30
0.0
 11
155.245055
 21
212.795
 31
0.0
  0
LINE
  5
10CA
100
AcDbEntity
  8
10000_FRONT
370
    50
390
0
  6
CONTINUOUS
 62
     7
100
AcDbLine
 10
155.245055
 20
212.795
 30
0.0
 11
155.617531
 21
212.795
 31
0.0
  0
LINE
  5
10CB
100
AcDbEntity
  8
10000_FRONT
370
    50
390
0
  6
CONTINUOUS
 62
     7
100
AcDbLine
 10
155.617531
 20
212.795
 30
0.0
 11
155.79841
 21
212.886263
 31
0.0
  0
LINE
  5
10CC
100
AcDbEntity
  8
10000_FRONT
370
    50
390
0
  6
CONTINUOUS
 62
     7
100
AcDbLine
 10
155.79841
 20
212.886263
 30
0.0
 11
155.889519
 21
213.06695
 31
0.0
  0
LINE
  5
10CD
100
AcDbEntity
  8
10000_FRONT
370
    50
390
0
  6
CONTINUOUS
 62
     7
100
AcDbLine
 10
155.889519
 20
213.06695
 30
0.0
 11
155.889519
 21
213.17965
 31
0.0
  0
LINE
  5
10CE
100
AcDbEntity
  8
10000_FRONT
370
    50
390
0
  6
CONTINUOUS
 62
     7
100
AcDbLine
 10
155.889519
 20
213.17965
 30
0.0
 11
156.028863
 21
213.17965
 31
0.0
  0
LINE
  5
10CF
100
AcDbEntity
  8
10000_FRONT
370
    50
390
0
  6
CONTINUOUS
 62
     7
100
AcDbLine
 10
156.028863
 20
213.17965
 30
0.0
 11
156.028863
 21
213.056231
 31
0.0
  0
LINE
  5
10D0
100
AcDbEntity
  8
10000_FRONT
370
    50
390
0
  6
CONTINUOUS
 62
     7
100
AcDbLine
 10
156.028863
 20
213.056231
 30
0.0
 11
155.931055
 21
212.855331
 31
0.0
  0
LINE
  5
10D1
100
AcDbEntity
  8
10000_FRONT
370
    50
390
0
  6
CONTINUOUS
 62
     7
100
AcDbLine
 10
155.931055
 20
212.855331
 30
0.0
 11
155.829226
 21
212.755493
 31
0.0
  0
LINE
  5
10D2
100
AcDbEntity
  8
10000_FRONT
370
    50
390
0
  6
CONTINUOUS
 62
     7
100
AcDbLine
 10
155.829226
 20
212.755493
 30
0.0
 11
155.62825
 21
212.6578
 31
0.0
  0
LINE
  5
10D3
100
AcDbEntity
  8
10000_FRONT
370
    50
390
0
  6
CONTINUOUS
 62
     7
100
AcDbLine
 10
155.62825
 20
212.6578
 30
0.0
 11
155.232996
 21
212.6578
 31
0.0
  0
LINE
  5
10D4
100
AcDbEntity
  8
10000_FRONT
370
    50
390
0
  6
CONTINUOUS
 62
     7
100
AcDbLine
 10
155.232996
 20
212.6578
 30
0.0
 11
155.033359
 21
212.757025
 31
0.0
  0
LINE
  5
10D5
100
AcDbEntity
  8
10000_FRONT
370
    50
390
0
  6
CONTINUOUS
 62
     7
100
AcDbLine
 10
155.033359
 20
212.757025
 30
0.0
 11
154.931531
 21
212.857475
 31
0.0
  0
LINE
  5
10D6
100
AcDbEntity
  8
10000_FRONT
370
    50
390
0
  6
CONTINUOUS
 62
     7
100
AcDbLine
 10
154.931531
 20
212.857475
 30
0.0
 11
154.832383
 21
213.058405
 31
0.0
  0
LINE
  5
10D7
100
AcDbEntity
  8
10000_FRONT
370
    50
390
0
  6
CONTINUOUS
 62
     7
100
AcDbLine
 10
154.832383
 20
213.058405
 30
0.0
 11
154.832383
 21
213.262031
 31
0.0
  0
LINE
  5
10D8
100
AcDbEntity
  8
10000_FRONT
370
    50
390
0
  6
CONTINUOUS
 62
     7
100
AcDbLine
 10
154.832383
 20
213.262031
 30
0.0
 11
154.931975
 21
213.459542
 31
0.0
  0
LINE
  5
10D9
100
AcDbEntity
  8
10000_FRONT
370
    50
390
0
  6
CONTINUOUS
 62
     7
100
AcDbLine
 10
154.931975
 20
213.459542
 30
0.0
 11
155.220101
 21
213.843555
 31
0.0
  0
LINE
  5
10DA
100
AcDbEntity
  8
10000_FRONT
370
    50
390
0
  6
CONTINUOUS
 62
     7
100
AcDbLine
 10
155.220101
 20
213.843555
 30
0.0
 11
155.861383
 21
214.5786
 31
0.0
  0
LINE
  5
10DB
100
AcDbEntity
  8
10000_FRONT
370
    50
390
0
  6
CONTINUOUS
 62
     7
100
AcDbLine
 10
155.861383
 20
214.5786
 30
0.0
 11
154.737254
 21
214.5786
 31
0.0
  0
LINE
  5
10DC
100
AcDbEntity
  8
10000_FRONT
370
    50
390
0
  6
CONTINUOUS
 62
     7
100
AcDbLine
 10
154.737254
 20
214.5786
 30
0.0
 11
154.737254
 21
214.7158
 31
0.0
  0
LINE
  5
10DD
100
AcDbEntity
  8
10000_FRONT
370
    50
390
0
  6
CONTINUOUS
 62
     7
100
AcDbLine
 10
154.737254
 20
214.7158
 30
0.0
 11
156.152129
 21
214.7158
 31
0.0
  0
LINE
  5
10DE
100
AcDbEntity
  8
10000_FRONT
370
    50
390
0
  6
CONTINUOUS
 62
     7
100
AcDbLine
 10
156.152129
 20
225.2158
 30
0.0
 11
155.350902
 21
224.315731
 31
0.0
  0
LINE
  5
10DF
100
AcDbEntity
  8
10000_FRONT
370
    50
390
0
  6
CONTINUOUS
 62
     7
100
AcDbLine
 10
155.350902
 20
224.315731
 30
0.0
 11
155.065516
 21
223.935369
 31
0.0
  0
LINE
  5
10E0
100
AcDbEntity
  8
10000_FRONT
370
    50
390
0
  6
CONTINUOUS
 62
     7
100
AcDbLine
 10
155.065516
 20
223.935369
 30
0.0
 11
154.973066
 21
223.747638
 31
0.0
  0
LINE
  5
10E1
100
AcDbEntity
  8
10000_FRONT
370
    50
390
0
  6
CONTINUOUS
 62
     7
100
AcDbLine
 10
154.973066
 20
223.747638
 30
0.0
 11
154.973066
 21
223.56695
 31
0.0
  0
LINE
  5
10E2
100
AcDbEntity
  8
10000_FRONT
370
    50
390
0
  6
CONTINUOUS
 62
     7
100
AcDbLine
 10
154.973066
 20
223.56695
 30
0.0
 11
155.062836
 21
223.385956
 31
0.0
  0
LINE
  5
10E3
100
AcDbEntity
  8
10000_FRONT
370
    50
390
0
  6
CONTINUOUS
 62
     7
100
AcDbLine
 10
155.062836
 20
223.385956
 30
0.0
 11
155.245055
 21
223.295
 31
0.0
  0
LINE
  5
10E4
100
AcDbEntity
  8
10000_FRONT
370
    50
390
0
  6
CONTINUOUS
 62
     7
100
AcDbLine
 10
155.245055
 20
223.295
 30
0.0
 11
155.617531
 21
223.295
 31
0.0
  0
LINE
  5
10E5
100
AcDbEntity
  8
10000_FRONT
370
    50
390
0
  6
CONTINUOUS
 62
     7
100
AcDbLine
 10
155.617531
 20
223.295
 30
0.0
 11
155.79841
 21
223.386263
 31
0.0
  0
LINE
  5
10E6
100
AcDbEntity
  8
10000_FRONT
370
    50
390
0
  6
CONTINUOUS
 62
     7
100
AcDbLine
 10
155.79841
 20
223.386263
 30
0.0
 11
155.889519
 21
223.56695
 31
0.0
  0
LINE
  5
10E7
100
AcDbEntity
  8
10000_FRONT
370
    50
390
0
  6
CONTINUOUS
 62
     7
100
AcDbLine
 10
155.889519
 20
223.56695
 30
0.0
 11
155.889519
 21
223.67965
 31
0.0
  0
LINE
  5
10E8
100
AcDbEntity
  8
10000_FRONT
370
    50
390
0
  6
CONTINUOUS
 62
     7
100
AcDbLine
 10
155.889519
 20
223.67965
 30
0.0
 11
156.028863
 21
223.67965
 31
0.0
  0
LINE
  5
10E9
100
AcDbEntity
  8
10000_FRONT
370
    50
390
0
  6
CONTINUOUS
 62
     7
100
AcDbLine
 10
156.028863
 20
223.67965
 30
0.0
 11
156.028863
 21
223.556231
 31
0.0
  0
LINE
  5
10EA
100
AcDbEntity
  8
10000_FRONT
370
    50
390
0
  6
CONTINUOUS
 62
     7
100
AcDbLine
 10
156.028863
 20
223.556231
 30
0.0
 11
155.931055
 21
223.35533
 31
0.0
  0
LINE
  5
10EB
100
AcDbEntity
  8
10000_FRONT
370
    50
390
0
  6
CONTINUOUS
 62
     7
100
AcDbLine
 10
155.931055
 20
223.35533
 30
0.0
 11
155.829226
 21
223.255493
 31
0.0
  0
LINE
  5
10EC
100
AcDbEntity
  8
10000_FRONT
370
    50
390
0
  6
CONTINUOUS
 62
     7
100
AcDbLine
 10
155.829226
 20
223.255493
 30
0.0
 11
155.62825
 21
223.1578
 31
0.0
  0
LINE
  5
10ED
100
AcDbEntity
  8
10000_FRONT
370
    50
390
0
  6
CONTINUOUS
 62
     7
100
AcDbLine
 10
155.62825
 20
223.1578
 30
0.0
 11
155.232996
 21
223.1578
 31
0.0
  0
LINE
  5
10EE
100
AcDbEntity
  8
10000_FRONT
370
    50
390
0
  6
CONTINUOUS
 62
     7
100
AcDbLine
 10
155.232996
 20
223.1578
 30
0.0
 11
155.033359
 21
223.257025
 31
0.0
  0
LINE
  5
10EF
100
AcDbEntity
  8
10000_FRONT
370
    50
390
0
  6
CONTINUOUS
 62
     7
100
AcDbLine
 10
155.033359
 20
223.257025
 30
0.0
 11
154.931531
 21
223.357475
 31
0.0
  0
LINE
  5
10F0
100
AcDbEntity
  8
10000_FRONT
370
    50
390
0
  6
CONTINUOUS
 62
     7
100
AcDbLine
 10
154.931531
 20
223.357475
 30
0.0
 11
154.832383
 21
223.558405
 31
0.0
  0
LINE
  5
10F1
100
AcDbEntity
  8
10000_FRONT
370
    50
390
0
  6
CONTINUOUS
 62
     7
100
AcDbLine
 10
154.832383
 20
223.558405
 30
0.0
 11
154.832383
 21
223.762031
 31
0.0
  0
LINE
  5
10F2
100
AcDbEntity
  8
10000_FRONT
370
    50
390
0
  6
CONTINUOUS
 62
     7
100
AcDbLine
 10
154.832383
 20
223.762031
 30
0.0
 11
154.931975
 21
223.959542
 31
0.0
  0
LINE
  5
10F3
100
AcDbEntity
  8
10000_FRONT
370
    50
390
0
  6
CONTINUOUS
 62
     7
100
AcDbLine
 10
154.931975
 20
223.959542
 30
0.0
 11
155.220101
 21
224.343554
 31
0.0
  0
LINE
  5
10F4
100
AcDbEntity
  8
10000_FRONT
370
    50
390
0
  6
CONTINUOUS
 62
     7
100
AcDbLine
 10
155.220101
 20
224.343554
 30
0.0
 11
155.861383
 21
225.0786
 31
0.0
  0
LINE
  5
10F5
100
AcDbEntity
  8
10000_FRONT
370
    50
390
0
  6
CONTINUOUS
 62
     7
100
AcDbLine
 10
155.861383
 20
225.0786
 30
0.0
 11
154.737254
 21
225.0786
 31
0.0
  0
LINE
  5
10F6
100
AcDbEntity
  8
10000_FRONT
370
    50
390
0
  6
CONTINUOUS
 62
     7
100
AcDbLine
 10
154.737254
 20
225.0786
 30
0.0
 11
154.737254
 21
225.2158
 31
0.0
  0
LINE
  5
10F7
100
AcDbEntity
  8
10000_FRONT
370
    50
390
0
  6
CONTINUOUS
 62
     7
100
AcDbLine
 10
154.737254
 20
225.2158
 30
0.0
 11
156.152129
 21
225.2158
 31
0.0
  0
LINE
  5
10F8
100
AcDbEntity
  8
10000_FRONT
370
    50
390
0
  6
CONTINUOUS
 62
     7
100
AcDbLine
 10
157.626184
 20
225.017043
 30
0.0
 11
157.738586
 21
224.790419
 31
0.0
  0
LINE
  5
10F9
100
AcDbEntity
  8
10000_FRONT
370
    50
390
0
  6
CONTINUOUS
 62
     7
100
AcDbLine
 10
157.738586
 20
224.790419
 30
0.0
 11
157.594028
 21
224.790419
 31
0.0
  0
LINE
  5
10FA
100
AcDbEntity
  8
10000_FRONT
370
    50
390
0
  6
CONTINUOUS
 62
     7
100
AcDbLine
 10
157.594028
 20
224.790419
 30
0.0
 11
157.518996
 21
224.940481
 31
0.0
  0
LINE
  5
10FB
100
AcDbEntity
  8
10000_FRONT
370
    50
390
0
  6
CONTINUOUS
 62
     7
100
AcDbLine
 10
157.518996
 20
224.940481
 30
0.0
 11
157.403769
 21
225.014288
 31
0.0
  0
LINE
  5
10FC
100
AcDbEntity
  8
10000_FRONT
370
    50
390
0
  6
CONTINUOUS
 62
     7
100
AcDbLine
 10
157.403769
 20
225.014288
 30
0.0
 11
157.220211
 21
225.0786
 31
0.0
  0
LINE
  5
10FD
100
AcDbEntity
  8
10000_FRONT
370
    50
390
0
  6
CONTINUOUS
 62
     7
100
AcDbLine
 10
157.220211
 20
225.0786
 30
0.0
 11
156.937504
 21
225.0786
 31
0.0
  0
LINE
  5
10FE
100
AcDbEntity
  8
10000_FRONT
370
    50
390
0
  6
CONTINUOUS
 62
     7
100
AcDbLine
 10
156.937504
 20
225.0786
 30
0.0
 11
156.761599
 21
225.020443
 31
0.0
  0
LINE
  5
10FF
100
AcDbEntity
  8
10000_FRONT
370
    50
390
0
  6
CONTINUOUS
 62
     7
100
AcDbLine
 10
156.761599
 20
225.020443
 30
0.0
 11
156.614601
 21
224.915368
 31
0.0
  0
LINE
  5
1100
100
AcDbEntity
  8
10000_FRONT
370
    50
390
0
  6
CONTINUOUS
 62
     7
100
AcDbLine
 10
156.614601
 20
224.915368
 30
0.0
 11
156.559679
 21
224.831791
 31
0.0
  0
LINE
  5
1101
100
AcDbEntity
  8
10000_FRONT
370
    50
390
0
  6
CONTINUOUS
 62
     7
100
AcDbLine
 10
156.559679
 20
224.831791
 30
0.0
 11
156.476598
 21
224.6131
 31
0.0
  0
LINE
  5
1102
100
AcDbEntity
  8
10000_FRONT
370
    50
390
0
  6
CONTINUOUS
 62
     7
100
AcDbLine
 10
156.476598
 20
224.6131
 30
0.0
 11
156.476598
 21
224.425675
 31
0.0
  0
LINE
  5
1103
100
AcDbEntity
  8
10000_FRONT
370
    50
390
0
  6
CONTINUOUS
 62
     7
100
AcDbLine
 10
156.476598
 20
224.425675
 30
0.0
 11
156.53957
 21
224.2407
 31
0.0
  0
LINE
  5
1104
100
AcDbEntity
  8
10000_FRONT
370
    50
390
0
  6
CONTINUOUS
 62
     7
100
AcDbLine
 10
156.53957
 20
224.2407
 30
0.0
 11
156.62532
 21
224.111156
 31
0.0
  0
LINE
  5
1105
100
AcDbEntity
  8
10000_FRONT
370
    50
390
0
  6
CONTINUOUS
 62
     7
100
AcDbLine
 10
156.62532
 20
224.111156
 30
0.0
 11
156.753945
 21
224.024794
 31
0.0
  0
LINE
  5
1106
100
AcDbEntity
  8
10000_FRONT
370
    50
390
0
  6
CONTINUOUS
 62
     7
100
AcDbLine
 10
156.753945
 20
224.024794
 30
0.0
 11
156.937504
 21
223.9614
 31
0.0
  0
LINE
  5
1107
100
AcDbEntity
  8
10000_FRONT
370
    50
390
0
  6
CONTINUOUS
 62
     7
100
AcDbLine
 10
156.937504
 20
223.9614
 30
0.0
 11
157.314
 21
223.9614
 31
0.0
  0
LINE
  5
1108
100
AcDbEntity
  8
10000_FRONT
370
    50
390
0
  6
CONTINUOUS
 62
     7
100
AcDbLine
 10
157.314
 20
223.9614
 30
0.0
 11
157.505197
 21
224.057868
 31
0.0
  0
LINE
  5
1109
100
AcDbEntity
  8
10000_FRONT
370
    50
390
0
  6
CONTINUOUS
 62
     7
100
AcDbLine
 10
157.505197
 20
224.057868
 30
0.0
 11
157.631543
 21
224.057868
 31
0.0
  0
LINE
  5
110A
100
AcDbEntity
  8
10000_FRONT
370
    50
390
0
  6
CONTINUOUS
 62
     7
100
AcDbLine
 10
157.631543
 20
224.057868
 30
0.0
 11
157.531054
 21
223.1578
 31
0.0
  0
LINE
  5
110B
100
AcDbEntity
  8
10000_FRONT
370
    50
390
0
  6
CONTINUOUS
 62
     7
100
AcDbLine
 10
157.531054
 20
223.1578
 30
0.0
 11
156.528851
 21
223.1578
 31
0.0
  0
LINE
  5
110C
100
AcDbEntity
  8
10000_FRONT
370
    50
390
0
  6
CONTINUOUS
 62
     7
100
AcDbLine
 10
156.528851
 20
223.1578
 30
0.0
 11
156.528851
 21
223.295
 31
0.0
  0
LINE
  5
110D
100
AcDbEntity
  8
10000_FRONT
370
    50
390
0
  6
CONTINUOUS
 62
     7
100
AcDbLine
 10
156.528851
 20
223.295
 30
0.0
 11
157.39573
 21
223.295
 31
0.0
  0
LINE
  5
110E
100
AcDbEntity
  8
10000_FRONT
370
    50
390
0
  6
CONTINUOUS
 62
     7
100
AcDbLine
 10
157.39573
 20
223.295
 30
0.0
 11
157.48416
 21
223.908725
 31
0.0
  0
LINE
  5
110F
100
AcDbEntity
  8
10000_FRONT
370
    50
390
0
  6
CONTINUOUS
 62
     7
100
AcDbLine
 10
157.48416
 20
223.908725
 30
0.0
 11
157.22557
 21
223.8242
 31
0.0
  0
LINE
  5
1110
100
AcDbEntity
  8
10000_FRONT
370
    50
390
0
  6
CONTINUOUS
 62
     7
100
AcDbLine
 10
157.22557
 20
223.8242
 30
0.0
 11
156.932144
 21
223.8242
 31
0.0
  0
LINE
  5
1111
100
AcDbEntity
  8
10000_FRONT
370
    50
390
0
  6
CONTINUOUS
 62
     7
100
AcDbLine
 10
156.932144
 20
223.8242
 30
0.0
 11
156.636191
 21
223.922047
 31
0.0
  0
LINE
  5
1112
100
AcDbEntity
  8
10000_FRONT
370
    50
390
0
  6
CONTINUOUS
 62
     7
100
AcDbLine
 10
156.636191
 20
223.922047
 30
0.0
 11
156.435062
 21
224.123713
 31
0.0
  0
LINE
  5
1113
100
AcDbEntity
  8
10000_FRONT
370
    50
390
0
  6
CONTINUOUS
 62
     7
100
AcDbLine
 10
156.435062
 20
224.123713
 30
0.0
 11
156.337254
 21
224.41955
 31
0.0
  0
LINE
  5
1114
100
AcDbEntity
  8
10000_FRONT
370
    50
390
0
  6
CONTINUOUS
 62
     7
100
AcDbLine
 10
156.337254
 20
224.41955
 30
0.0
 11
156.337254
 21
224.619531
 31
0.0
  0
LINE
  5
1115
100
AcDbEntity
  8
10000_FRONT
370
    50
390
0
  6
CONTINUOUS
 62
     7
100
AcDbLine
 10
156.337254
 20
224.619531
 30
0.0
 11
156.435515
 21
224.916738
 31
0.0
  0
LINE
  5
1116
100
AcDbEntity
  8
10000_FRONT
370
    50
390
0
  6
CONTINUOUS
 62
     7
100
AcDbLine
 10
156.435515
 20
224.916738
 30
0.0
 11
156.636089
 21
225.116285
 31
0.0
  0
LINE
  5
1117
100
AcDbEntity
  8
10000_FRONT
370
    50
390
0
  6
CONTINUOUS
 62
     7
100
AcDbLine
 10
156.636089
 20
225.116285
 30
0.0
 11
156.932144
 21
225.2158
 31
0.0
  0
LINE
  5
1118
100
AcDbEntity
  8
10000_FRONT
370
    50
390
0
  6
CONTINUOUS
 62
     7
100
AcDbLine
 10
156.932144
 20
225.2158
 30
0.0
 11
157.22557
 21
225.2158
 31
0.0
  0
LINE
  5
1119
100
AcDbEntity
  8
10000_FRONT
370
    50
390
0
  6
CONTINUOUS
 62
     7
100
AcDbLine
 10
157.22557
 20
225.2158
 30
0.0
 11
157.521996
 21
225.117797
 31
0.0
  0
LINE
  5
111A
100
AcDbEntity
  8
10000_FRONT
370
    50
390
0
  6
CONTINUOUS
 62
     7
100
AcDbLine
 10
157.521996
 20
225.117797
 30
0.0
 11
157.626184
 21
225.017043
 31
0.0
  0
LINE
  5
111B
100
AcDbEntity
  8
10000_FRONT
370
    50
390
0
  6
CONTINUOUS
 62
     7
100
AcDbLine
 10
157.489519
 20
214.024287
 30
0.0
 11
157.415828
 21
214.320431
 31
0.0
  0
LINE
  5
111C
100
AcDbEntity
  8
10000_FRONT
370
    50
390
0
  6
CONTINUOUS
 62
     7
100
AcDbLine
 10
157.327968
 20
213.700639
 30
0.0
 11
157.489519
 21
214.024287
 31
0.0
  0
LINE
  5
111D
100
AcDbEntity
  8
10000_FRONT
370
    50
390
0
  6
CONTINUOUS
 62
     7
100
AcDbLine
 10
157.212172
 20
213.626468
 30
0.0
 11
157.327968
 21
213.700639
 31
0.0
  0
LINE
  5
111E
100
AcDbEntity
  8
10000_FRONT
370
    50
390
0
  6
CONTINUOUS
 62
     7
100
AcDbLine
 10
157.028087
 20
213.563381
 30
0.0
 11
157.212172
 21
213.626468
 31
0.0
  0
LINE
  5
111F
100
AcDbEntity
  8
10000_FRONT
370
    50
390
0
  6
CONTINUOUS
 62
     7
100
AcDbLine
 10
156.937504
 20
213.563381
 30
0.0
 11
157.028087
 21
213.563381
 31
0.0
  0
LINE
  5
1120
100
AcDbEntity
  8
10000_FRONT
370
    50
390
0
  6
CONTINUOUS
 62
     7
100
AcDbLine
 10
156.753945
 20
213.626468
 30
0.0
 11
156.937504
 21
213.563381
 31
0.0
  0
LINE
  5
1121
100
AcDbEntity
  8
10000_FRONT
370
    50
390
0
  6
CONTINUOUS
 62
     7
100
AcDbLine
 10
156.638718
 20
213.700275
 30
0.0
 11
156.753945
 21
213.626468
 31
0.0
  0
LINE
  5
1122
100
AcDbEntity
  8
10000_FRONT
370
    50
390
0
  6
CONTINUOUS
 62
     7
100
AcDbLine
 10
156.476598
 20
214.027142
 30
0.0
 11
156.638718
 21
213.700275
 31
0.0
  0
LINE
  5
1123
100
AcDbEntity
  8
10000_FRONT
370
    50
390
0
  6
CONTINUOUS
 62
     7
100
AcDbLine
 10
156.476598
 20
214.111568
 30
0.0
 11
156.476598
 21
214.027142
 31
0.0
  0
LINE
  5
1124
100
AcDbEntity
  8
10000_FRONT
370
    50
390
0
  6
CONTINUOUS
 62
     7
100
AcDbLine
 10
156.639147
 20
214.438612
 30
0.0
 11
156.476598
 21
214.111568
 31
0.0
  0
LINE
  5
1125
100
AcDbEntity
  8
10000_FRONT
370
    50
390
0
  6
CONTINUOUS
 62
     7
100
AcDbLine
 10
156.753943
 20
214.512143
 30
0.0
 11
156.639147
 21
214.438612
 31
0.0
  0
LINE
  5
1126
100
AcDbEntity
  8
10000_FRONT
370
    50
390
0
  6
CONTINUOUS
 62
     7
100
AcDbLine
 10
156.937504
 20
214.576456
 30
0.0
 11
156.753943
 21
214.512143
 31
0.0
  0
LINE
  5
1127
100
AcDbEntity
  8
10000_FRONT
370
    50
390
0
  6
CONTINUOUS
 62
     7
100
AcDbLine
 10
157.028614
 20
214.576456
 30
0.0
 11
156.937504
 21
214.576456
 31
0.0
  0
LINE
  5
1128
100
AcDbEntity
  8
10000_FRONT
370
    50
390
0
  6
CONTINUOUS
 62
     7
100
AcDbLine
 10
157.305961
 20
214.482744
 30
0.0
 11
157.028614
 21
214.576456
 31
0.0
  0
LINE
  5
1129
100
AcDbEntity
  8
10000_FRONT
370
    50
390
0
  6
CONTINUOUS
 62
     7
100
AcDbLine
 10
157.415828
 20
214.320431
 30
0.0
 11
157.305961
 21
214.482744
 31
0.0
  0
LINE
  5
112A
100
AcDbEntity
  8
10000_FRONT
370
    50
390
0
  6
CONTINUOUS
 62
     7
100
AcDbLine
 10
157.531055
 20
214.417511
 30
0.0
 11
157.628863
 21
214.024446
 31
0.0
  0
LINE
  5
112B
100
AcDbEntity
  8
10000_FRONT
370
    50
390
0
  6
CONTINUOUS
 62
     7
100
AcDbLine
 10
157.628863
 20
214.024446
 30
0.0
 11
157.628863
 21
213.539493
 31
0.0
  0
LINE
  5
112C
100
AcDbEntity
  8
10000_FRONT
370
    50
390
0
  6
CONTINUOUS
 62
     7
100
AcDbLine
 10
157.628863
 20
213.539493
 30
0.0
 11
157.533734
 21
213.055313
 31
0.0
  0
LINE
  5
112D
100
AcDbEntity
  8
10000_FRONT
370
    50
390
0
  6
CONTINUOUS
 62
     7
100
AcDbLine
 10
157.533734
 20
213.055313
 30
0.0
 11
157.332758
 21
212.756718
 31
0.0
  0
LINE
  5
112E
100
AcDbEntity
  8
10000_FRONT
370
    50
390
0
  6
CONTINUOUS
 62
     7
100
AcDbLine
 10
157.332758
 20
212.756718
 30
0.0
 11
157.033565
 21
212.6578
 31
0.0
  0
LINE
  5
112F
100
AcDbEntity
  8
10000_FRONT
370
    50
390
0
  6
CONTINUOUS
 62
     7
100
AcDbLine
 10
157.033565
 20
212.6578
 30
0.0
 11
156.835676
 21
212.6578
 31
0.0
  0
LINE
  5
1130
100
AcDbEntity
  8
10000_FRONT
370
    50
390
0
  6
CONTINUOUS
 62
     7
100
AcDbLine
 10
156.835676
 20
212.6578
 30
0.0
 11
156.534211
 21
212.756718
 31
0.0
  0
LINE
  5
1131
100
AcDbEntity
  8
10000_FRONT
370
    50
390
0
  6
CONTINUOUS
 62
     7
100
AcDbLine
 10
156.534211
 20
212.756718
 30
0.0
 11
156.41921
 21
212.989775
 31
0.0
  0
LINE
  5
1132
100
AcDbEntity
  8
10000_FRONT
370
    50
390
0
  6
CONTINUOUS
 62
     7
100
AcDbLine
 10
156.41921
 20
212.989775
 30
0.0
 11
156.565027
 21
212.989775
 31
0.0
  0
LINE
  5
1133
100
AcDbEntity
  8
10000_FRONT
370
    50
390
0
  6
CONTINUOUS
 62
     7
100
AcDbLine
 10
156.565027
 20
212.989775
 30
0.0
 11
156.62532
 21
212.871868
 31
0.0
  0
LINE
  5
1134
100
AcDbEntity
  8
10000_FRONT
370
    50
390
0
  6
CONTINUOUS
 62
     7
100
AcDbLine
 10
156.62532
 20
212.871868
 30
0.0
 11
156.842576
 21
212.796837
 31
0.0
  0
LINE
  5
1135
100
AcDbEntity
  8
10000_FRONT
370
    50
390
0
  6
CONTINUOUS
 62
     7
100
AcDbLine
 10
156.842576
 20
212.796837
 30
0.0
 11
157.028614
 21
212.796837
 31
0.0
  0
LINE
  5
1136
100
AcDbEntity
  8
10000_FRONT
370
    50
390
0
  6
CONTINUOUS
 62
     7
100
AcDbLine
 10
157.028614
 20
212.796837
 30
0.0
 11
157.2642
 21
212.87704
 31
0.0
  0
LINE
  5
1137
100
AcDbEntity
  8
10000_FRONT
370
    50
390
0
  6
CONTINUOUS
 62
     7
100
AcDbLine
 10
157.2642
 20
212.87704
 30
0.0
 11
157.393051
 21
213.071237
 31
0.0
  0
LINE
  5
1138
100
AcDbEntity
  8
10000_FRONT
370
    50
390
0
  6
CONTINUOUS
 62
     7
100
AcDbLine
 10
157.393051
 20
213.071237
 30
0.0
 11
157.489519
 21
213.546231
 31
0.0
  0
LINE
  5
1139
100
AcDbEntity
  8
10000_FRONT
370
    50
390
0
  6
CONTINUOUS
 62
     7
100
AcDbLine
 10
157.489519
 20
213.546231
 30
0.0
 11
157.489519
 21
213.682818
 31
0.0
  0
LINE
  5
113A
100
AcDbEntity
  8
10000_FRONT
370
    50
390
0
  6
CONTINUOUS
 62
     7
100
AcDbLine
 10
157.489519
 20
213.682818
 30
0.0
 11
157.329727
 21
213.523451
 31
0.0
  0
LINE
  5
113B
100
AcDbEntity
  8
10000_FRONT
370
    50
390
0
  6
CONTINUOUS
 62
     7
100
AcDbLine
 10
157.329727
 20
213.523451
 30
0.0
 11
157.033975
 21
213.42465
 31
0.0
  0
LINE
  5
113C
100
AcDbEntity
  8
10000_FRONT
370
    50
390
0
  6
CONTINUOUS
 62
     7
100
AcDbLine
 10
157.033975
 20
213.42465
 30
0.0
 11
156.932144
 21
213.42465
 31
0.0
  0
LINE
  5
113D
100
AcDbEntity
  8
10000_FRONT
370
    50
390
0
  6
CONTINUOUS
 62
     7
100
AcDbLine
 10
156.932144
 20
213.42465
 30
0.0
 11
156.636039
 21
213.523568
 31
0.0
  0
LINE
  5
113E
100
AcDbEntity
  8
10000_FRONT
370
    50
390
0
  6
CONTINUOUS
 62
     7
100
AcDbLine
 10
156.636039
 20
213.523568
 30
0.0
 11
156.435062
 21
213.724163
 31
0.0
  0
LINE
  5
113F
100
AcDbEntity
  8
10000_FRONT
370
    50
390
0
  6
CONTINUOUS
 62
     7
100
AcDbLine
 10
156.435062
 20
213.724163
 30
0.0
 11
156.337254
 21
214.02
 31
0.0
  0
LINE
  5
1140
100
AcDbEntity
  8
10000_FRONT
370
    50
390
0
  6
CONTINUOUS
 62
     7
100
AcDbLine
 10
156.337254
 20
214.02
 30
0.0
 11
156.337254
 21
214.121675
 31
0.0
  0
LINE
  5
1141
100
AcDbEntity
  8
10000_FRONT
370
    50
390
0
  6
CONTINUOUS
 62
     7
100
AcDbLine
 10
156.337254
 20
214.121675
 30
0.0
 11
156.435062
 21
214.417512
 31
0.0
  0
LINE
  5
1142
100
AcDbEntity
  8
10000_FRONT
370
    50
390
0
  6
CONTINUOUS
 62
     7
100
AcDbLine
 10
156.435062
 20
214.417512
 30
0.0
 11
156.636039
 21
214.616881
 31
0.0
  0
LINE
  5
1143
100
AcDbEntity
  8
10000_FRONT
370
    50
390
0
  6
CONTINUOUS
 62
     7
100
AcDbLine
 10
156.636039
 20
214.616881
 30
0.0
 11
156.932144
 21
214.7158
 31
0.0
  0
LINE
  5
1144
100
AcDbEntity
  8
10000_FRONT
370
    50
390
0
  6
CONTINUOUS
 62
     7
100
AcDbLine
 10
156.932144
 20
214.7158
 30
0.0
 11
157.033973
 21
214.7158
 31
0.0
  0
LINE
  5
1145
100
AcDbEntity
  8
10000_FRONT
370
    50
390
0
  6
CONTINUOUS
 62
     7
100
AcDbLine
 10
157.033973
 20
214.7158
 30
0.0
 11
157.330077
 21
214.616882
 31
0.0
  0
LINE
  5
1146
100
AcDbEntity
  8
10000_FRONT
370
    50
390
0
  6
CONTINUOUS
 62
     7
100
AcDbLine
 10
157.330077
 20
214.616882
 30
0.0
 11
157.531055
 21
214.417511
 31
0.0
  0
LINE
  5
1147
100
AcDbEntity
  8
10000_FRONT
370
    50
390
0
  6
CONTINUOUS
 62
     7
100
AcDbLine
 10
157.489519
 20
209.524287
 30
0.0
 11
157.415828
 21
209.820431
 31
0.0
  0
LINE
  5
1148
100
AcDbEntity
  8
10000_FRONT
370
    50
390
0
  6
CONTINUOUS
 62
     7
100
AcDbLine
 10
157.327968
 20
209.200639
 30
0.0
 11
157.489519
 21
209.524287
 31
0.0
  0
LINE
  5
1149
100
AcDbEntity
  8
10000_FRONT
370
    50
390
0
  6
CONTINUOUS
 62
     7
100
AcDbLine
 10
157.212172
 20
209.126468
 30
0.0
 11
157.327968
 21
209.200639
 31
0.0
  0
LINE
  5
114A
100
AcDbEntity
  8
10000_FRONT
370
    50
390
0
  6
CONTINUOUS
 62
     7
100
AcDbLine
 10
157.028087
 20
209.063381
 30
0.0
 11
157.212172
 21
209.126468
 31
0.0
  0
LINE
  5
114B
100
AcDbEntity
  8
10000_FRONT
370
    50
390
0
  6
CONTINUOUS
 62
     7
100
AcDbLine
 10
156.937504
 20
209.063381
 30
0.0
 11
157.028087
 21
209.063381
 31
0.0
  0
LINE
  5
114C
100
AcDbEntity
  8
10000_FRONT
370
    50
390
0
  6
CONTINUOUS
 62
     7
100
AcDbLine
 10
156.753945
 20
209.126468
 30
0.0
 11
156.937504
 21
209.063381
 31
0.0
  0
LINE
  5
114D
100
AcDbEntity
  8
10000_FRONT
370
    50
390
0
  6
CONTINUOUS
 62
     7
100
AcDbLine
 10
156.638718
 20
209.200275
 30
0.0
 11
156.753945
 21
209.126468
 31
0.0
  0
LINE
  5
114E
100
AcDbEntity
  8
10000_FRONT
370
    50
390
0
  6
CONTINUOUS
 62
     7
100
AcDbLine
 10
156.476598
 20
209.527142
 30
0.0
 11
156.638718
 21
209.200275
 31
0.0
  0
LINE
  5
114F
100
AcDbEntity
  8
10000_FRONT
370
    50
390
0
  6
CONTINUOUS
 62
     7
100
AcDbLine
 10
156.476598
 20
209.611568
 30
0.0
 11
156.476598
 21
209.527142
 31
0.0
  0
LINE
  5
1150
100
AcDbEntity
  8
10000_FRONT
370
    50
390
0
  6
CONTINUOUS
 62
     7
100
AcDbLine
 10
156.639147
 20
209.938612
 30
0.0
 11
156.476598
 21
209.611568
 31
0.0
  0
LINE
  5
1151
100
AcDbEntity
  8
10000_FRONT
370
    50
390
0
  6
CONTINUOUS
 62
     7
100
AcDbLine
 10
156.753943
 20
210.012143
 30
0.0
 11
156.639147
 21
209.938612
 31
0.0
  0
LINE
  5
1152
100
AcDbEntity
  8
10000_FRONT
370
    50
390
0
  6
CONTINUOUS
 62
     7
100
AcDbLine
 10
156.937504
 20
210.076456
 30
0.0
 11
156.753943
 21
210.012143
 31
0.0
  0
LINE
  5
1153
100
AcDbEntity
  8
10000_FRONT
370
    50
390
0
  6
CONTINUOUS
 62
     7
100
AcDbLine
 10
157.028614
 20
210.076456
 30
0.0
 11
156.937504
 21
210.076456
 31
0.0
  0
LINE
  5
1154
100
AcDbEntity
  8
10000_FRONT
370
    50
390
0
  6
CONTINUOUS
 62
     7
100
AcDbLine
 10
157.305961
 20
209.982743
 30
0.0
 11
157.028614
 21
210.076456
 31
0.0
  0
LINE
  5
1155
100
AcDbEntity
  8
10000_FRONT
370
    50
390
0
  6
CONTINUOUS
 62
     7
100
AcDbLine
 10
157.415828
 20
209.820431
 30
0.0
 11
157.305961
 21
209.982743
 31
0.0
  0
LINE
  5
1156
100
AcDbEntity
  8
10000_FRONT
370
    50
390
0
  6
CONTINUOUS
 62
     7
100
AcDbLine
 10
157.531055
 20
209.917511
 30
0.0
 11
157.628863
 21
209.524447
 31
0.0
  0
LINE
  5
1157
100
AcDbEntity
  8
10000_FRONT
370
    50
390
0
  6
CONTINUOUS
 62
     7
100
AcDbLine
 10
157.628863
 20
209.524447
 30
0.0
 11
157.628863
 21
209.039493
 31
0.0
  0
LINE
  5
1158
100
AcDbEntity
  8
10000_FRONT
370
    50
390
0
  6
CONTINUOUS
 62
     7
100
AcDbLine
 10
157.628863
 20
209.039493
 30
0.0
 11
157.533734
 21
208.555312
 31
0.0
  0
LINE
  5
1159
100
AcDbEntity
  8
10000_FRONT
370
    50
390
0
  6
CONTINUOUS
 62
     7
100
AcDbLine
 10
157.533734
 20
208.555312
 30
0.0
 11
157.332758
 21
208.256718
 31
0.0
  0
LINE
  5
115A
100
AcDbEntity
  8
10000_FRONT
370
    50
390
0
  6
CONTINUOUS
 62
     7
100
AcDbLine
 10
157.332758
 20
208.256718
 30
0.0
 11
157.033565
 21
208.1578
 31
0.0
  0
LINE
  5
115B
100
AcDbEntity
  8
10000_FRONT
370
    50
390
0
  6
CONTINUOUS
 62
     7
100
AcDbLine
 10
157.033565
 20
208.1578
 30
0.0
 11
156.835676
 21
208.1578
 31
0.0
  0
LINE
  5
115C
100
AcDbEntity
  8
10000_FRONT
370
    50
390
0
  6
CONTINUOUS
 62
     7
100
AcDbLine
 10
156.835676
 20
208.1578
 30
0.0
 11
156.534211
 21
208.256718
 31
0.0
  0
LINE
  5
115D
100
AcDbEntity
  8
10000_FRONT
370
    50
390
0
  6
CONTINUOUS
 62
     7
100
AcDbLine
 10
156.534211
 20
208.256718
 30
0.0
 11
156.41921
 21
208.489775
 31
0.0
  0
LINE
  5
115E
100
AcDbEntity
  8
10000_FRONT
370
    50
390
0
  6
CONTINUOUS
 62
     7
100
AcDbLine
 10
156.41921
 20
208.489775
 30
0.0
 11
156.565027
 21
208.489775
 31
0.0
  0
LINE
  5
115F
100
AcDbEntity
  8
10000_FRONT
370
    50
390
0
  6
CONTINUOUS
 62
     7
100
AcDbLine
 10
156.565027
 20
208.489775
 30
0.0
 11
156.62532
 21
208.371868
 31
0.0
  0
LINE
  5
1160
100
AcDbEntity
  8
10000_FRONT
370
    50
390
0
  6
CONTINUOUS
 62
     7
100
AcDbLine
 10
156.62532
 20
208.371868
 30
0.0
 11
156.842576
 21
208.296838
 31
0.0
  0
LINE
  5
1161
100
AcDbEntity
  8
10000_FRONT
370
    50
390
0
  6
CONTINUOUS
 62
     7
100
AcDbLine
 10
156.842576
 20
208.296838
 30
0.0
 11
157.028614
 21
208.296838
 31
0.0
  0
LINE
  5
1162
100
AcDbEntity
  8
10000_FRONT
370
    50
390
0
  6
CONTINUOUS
 62
     7
100
AcDbLine
 10
157.028614
 20
208.296838
 30
0.0
 11
157.2642
 21
208.37704
 31
0.0
  0
LINE
  5
1163
100
AcDbEntity
  8
10000_FRONT
370
    50
390
0
  6
CONTINUOUS
 62
     7
100
AcDbLine
 10
157.2642
 20
208.37704
 30
0.0
 11
157.393051
 21
208.571238
 31
0.0
  0
LINE
  5
1164
100
AcDbEntity
  8
10000_FRONT
370
    50
390
0
  6
CONTINUOUS
 62
     7
100
AcDbLine
 10
157.393051
 20
208.571238
 30
0.0
 11
157.489519
 21
209.046231
 31
0.0
  0
LINE
  5
1165
100
AcDbEntity
  8
10000_FRONT
370
    50
390
0
  6
CONTINUOUS
 62
     7
100
AcDbLine
 10
157.489519
 20
209.046231
 30
0.0
 11
157.489519
 21
209.182818
 31
0.0
  0
LINE
  5
1166
100
AcDbEntity
  8
10000_FRONT
370
    50
390
0
  6
CONTINUOUS
 62
     7
100
AcDbLine
 10
157.489519
 20
209.182818
 30
0.0
 11
157.329727
 21
209.023451
 31
0.0
  0
LINE
  5
1167
100
AcDbEntity
  8
10000_FRONT
370
    50
390
0
  6
CONTINUOUS
 62
     7
100
AcDbLine
 10
157.329727
 20
209.023451
 30
0.0
 11
157.033975
 21
208.92465
 31
0.0
  0
LINE
  5
1168
100
AcDbEntity
  8
10000_FRONT
370
    50
390
0
  6
CONTINUOUS
 62
     7
100
AcDbLine
 10
157.033975
 20
208.92465
 30
0.0
 11
156.932144
 21
208.92465
 31
0.0
  0
LINE
  5
1169
100
AcDbEntity
  8
10000_FRONT
370
    50
390
0
  6
CONTINUOUS
 62
     7
100
AcDbLine
 10
156.932144
 20
208.92465
 30
0.0
 11
156.636039
 21
209.023568
 31
0.0
  0
LINE
  5
116A
100
AcDbEntity
  8
10000_FRONT
370
    50
390
0
  6
CONTINUOUS
 62
     7
100
AcDbLine
 10
156.636039
 20
209.023568
 30
0.0
 11
156.435062
 21
209.224163
 31
0.0
  0
LINE
  5
116B
100
AcDbEntity
  8
10000_FRONT
370
    50
390
0
  6
CONTINUOUS
 62
     7
100
AcDbLine
 10
156.435062
 20
209.224163
 30
0.0
 11
156.337254
 21
209.52
 31
0.0
  0
LINE
  5
116C
100
AcDbEntity
  8
10000_FRONT
370
    50
390
0
  6
CONTINUOUS
 62
     7
100
AcDbLine
 10
156.337254
 20
209.52
 30
0.0
 11
156.337254
 21
209.621675
 31
0.0
  0
LINE
  5
116D
100
AcDbEntity
  8
10000_FRONT
370
    50
390
0
  6
CONTINUOUS
 62
     7
100
AcDbLine
 10
156.337254
 20
209.621675
 30
0.0
 11
156.435062
 21
209.917513
 31
0.0
  0
LINE
  5
116E
100
AcDbEntity
  8
10000_FRONT
370
    50
390
0
  6
CONTINUOUS
 62
     7
100
AcDbLine
 10
156.435062
 20
209.917513
 30
0.0
 11
156.636039
 21
210.116881
 31
0.0
  0
LINE
  5
116F
100
AcDbEntity
  8
10000_FRONT
370
    50
390
0
  6
CONTINUOUS
 62
     7
100
AcDbLine
 10
156.636039
 20
210.116881
 30
0.0
 11
156.932144
 21
210.2158
 31
0.0
  0
LINE
  5
1170
100
AcDbEntity
  8
10000_FRONT
370
    50
390
0
  6
CONTINUOUS
 62
     7
100
AcDbLine
 10
156.932144
 20
210.2158
 30
0.0
 11
157.033973
 21
210.2158
 31
0.0
  0
LINE
  5
1171
100
AcDbEntity
  8
10000_FRONT
370
    50
390
0
  6
CONTINUOUS
 62
     7
100
AcDbLine
 10
157.033973
 20
210.2158
 30
0.0
 11
157.330077
 21
210.116882
 31
0.0
  0
LINE
  5
1172
100
AcDbEntity
  8
10000_FRONT
370
    50
390
0
  6
CONTINUOUS
 62
     7
100
AcDbLine
 10
157.330077
 20
210.116882
 30
0.0
 11
157.531055
 21
209.917511
 31
0.0
  0
LINE
  5
1173
100
AcDbEntity
  8
10000_FRONT
370
    50
390
0
  6
CONTINUOUS
 62
     7
100
AcDbLine
 10
157.626184
 20
199.017043
 30
0.0
 11
157.738586
 21
198.790419
 31
0.0
  0
LINE
  5
1174
100
AcDbEntity
  8
10000_FRONT
370
    50
390
0
  6
CONTINUOUS
 62
     7
100
AcDbLine
 10
157.738586
 20
198.790419
 30
0.0
 11
157.594028
 21
198.790419
 31
0.0
  0
LINE
  5
1175
100
AcDbEntity
  8
10000_FRONT
370
    50
390
0
  6
CONTINUOUS
 62
     7
100
AcDbLine
 10
157.594028
 20
198.790419
 30
0.0
 11
157.518996
 21
198.940481
 31
0.0
  0
LINE
  5
1176
100
AcDbEntity
  8
10000_FRONT
370
    50
390
0
  6
CONTINUOUS
 62
     7
100
AcDbLine
 10
157.518996
 20
198.940481
 30
0.0
 11
157.403769
 21
199.014288
 31
0.0
  0
LINE
  5
1177
100
AcDbEntity
  8
10000_FRONT
370
    50
390
0
  6
CONTINUOUS
 62
     7
100
AcDbLine
 10
157.403769
 20
199.014288
 30
0.0
 11
157.220211
 21
199.0786
 31
0.0
  0
LINE
  5
1178
100
AcDbEntity
  8
10000_FRONT
370
    50
390
0
  6
CONTINUOUS
 62
     7
100
AcDbLine
 10
157.220211
 20
199.0786
 30
0.0
 11
156.937504
 21
199.0786
 31
0.0
  0
LINE
  5
1179
100
AcDbEntity
  8
10000_FRONT
370
    50
390
0
  6
CONTINUOUS
 62
     7
100
AcDbLine
 10
156.937504
 20
199.0786
 30
0.0
 11
156.761599
 21
199.020443
 31
0.0
  0
LINE
  5
117A
100
AcDbEntity
  8
10000_FRONT
370
    50
390
0
  6
CONTINUOUS
 62
     7
100
AcDbLine
 10
156.761599
 20
199.020443
 30
0.0
 11
156.614601
 21
198.915368
 31
0.0
  0
LINE
  5
117B
100
AcDbEntity
  8
10000_FRONT
370
    50
390
0
  6
CONTINUOUS
 62
     7
100
AcDbLine
 10
156.614601
 20
198.915368
 30
0.0
 11
156.559679
 21
198.831791
 31
0.0
  0
LINE
  5
117C
100
AcDbEntity
  8
10000_FRONT
370
    50
390
0
  6
CONTINUOUS
 62
     7
100
AcDbLine
 10
156.559679
 20
198.831791
 30
0.0
 11
156.476598
 21
198.6131
 31
0.0
  0
LINE
  5
117D
100
AcDbEntity
  8
10000_FRONT
370
    50
390
0
  6
CONTINUOUS
 62
     7
100
AcDbLine
 10
156.476598
 20
198.6131
 30
0.0
 11
156.476598
 21
198.425675
 31
0.0
  0
LINE
  5
117E
100
AcDbEntity
  8
10000_FRONT
370
    50
390
0
  6
CONTINUOUS
 62
     7
100
AcDbLine
 10
156.476598
 20
198.425675
 30
0.0
 11
156.53957
 21
198.2407
 31
0.0
  0
LINE
  5
117F
100
AcDbEntity
  8
10000_FRONT
370
    50
390
0
  6
CONTINUOUS
 62
     7
100
AcDbLine
 10
156.53957
 20
198.2407
 30
0.0
 11
156.62532
 21
198.111156
 31
0.0
  0
LINE
  5
1180
100
AcDbEntity
  8
10000_FRONT
370
    50
390
0
  6
CONTINUOUS
 62
     7
100
AcDbLine
 10
156.62532
 20
198.111156
 30
0.0
 11
156.753945
 21
198.024794
 31
0.0
  0
LINE
  5
1181
100
AcDbEntity
  8
10000_FRONT
370
    50
390
0
  6
CONTINUOUS
 62
     7
100
AcDbLine
 10
156.753945
 20
198.024794
 30
0.0
 11
156.937504
 21
197.9614
 31
0.0
  0
LINE
  5
1182
100
AcDbEntity
  8
10000_FRONT
370
    50
390
0
  6
CONTINUOUS
 62
     7
100
AcDbLine
 10
156.937504
 20
197.9614
 30
0.0
 11
157.314
 21
197.9614
 31
0.0
  0
LINE
  5
1183
100
AcDbEntity
  8
10000_FRONT
370
    50
390
0
  6
CONTINUOUS
 62
     7
100
AcDbLine
 10
157.314
 20
197.9614
 30
0.0
 11
157.505197
 21
198.057868
 31
0.0
  0
LINE
  5
1184
100
AcDbEntity
  8
10000_FRONT
370
    50
390
0
  6
CONTINUOUS
 62
     7
100
AcDbLine
 10
157.505197
 20
198.057868
 30
0.0
 11
157.631543
 21
198.057868
 31
0.0
  0
LINE
  5
1185
100
AcDbEntity
  8
10000_FRONT
370
    50
390
0
  6
CONTINUOUS
 62
     7
100
AcDbLine
 10
157.631543
 20
198.057868
 30
0.0
 11
157.531054
 21
197.1578
 31
0.0
  0
LINE
  5
1186
100
AcDbEntity
  8
10000_FRONT
370
    50
390
0
  6
CONTINUOUS
 62
     7
100
AcDbLine
 10
157.531054
 20
197.1578
 30
0.0
 11
156.528851
 21
197.1578
 31
0.0
  0
LINE
  5
1187
100
AcDbEntity
  8
10000_FRONT
370
    50
390
0
  6
CONTINUOUS
 62
     7
100
AcDbLine
 10
156.528851
 20
197.1578
 30
0.0
 11
156.528851
 21
197.295
 31
0.0
  0
LINE
  5
1188
100
AcDbEntity
  8
10000_FRONT
370
    50
390
0
  6
CONTINUOUS
 62
     7
100
AcDbLine
 10
156.528851
 20
197.295
 30
0.0
 11
157.39573
 21
197.295
 31
0.0
  0
LINE
  5
1189
100
AcDbEntity
  8
10000_FRONT
370
    50
390
0
  6
CONTINUOUS
 62
     7
100
AcDbLine
 10
157.39573
 20
197.295
 30
0.0
 11
157.48416
 21
197.908725
 31
0.0
  0
LINE
  5
118A
100
AcDbEntity
  8
10000_FRONT
370
    50
390
0
  6
CONTINUOUS
 62
     7
100
AcDbLine
 10
157.48416
 20
197.908725
 30
0.0
 11
157.22557
 21
197.8242
 31
0.0
  0
LINE
  5
118B
100
AcDbEntity
  8
10000_FRONT
370
    50
390
0
  6
CONTINUOUS
 62
     7
100
AcDbLine
 10
157.22557
 20
197.8242
 30
0.0
 11
156.932144
 21
197.8242
 31
0.0
  0
LINE
  5
118C
100
AcDbEntity
  8
10000_FRONT
370
    50
390
0
  6
CONTINUOUS
 62
     7
100
AcDbLine
 10
156.932144
 20
197.8242
 30
0.0
 11
156.636191
 21
197.922047
 31
0.0
  0
LINE
  5
118D
100
AcDbEntity
  8
10000_FRONT
370
    50
390
0
  6
CONTINUOUS
 62
     7
100
AcDbLine
 10
156.636191
 20
197.922047
 30
0.0
 11
156.435062
 21
198.123713
 31
0.0
  0
LINE
  5
118E
100
AcDbEntity
  8
10000_FRONT
370
    50
390
0
  6
CONTINUOUS
 62
     7
100
AcDbLine
 10
156.435062
 20
198.123713
 30
0.0
 11
156.337254
 21
198.41955
 31
0.0
  0
LINE
  5
118F
100
AcDbEntity
  8
10000_FRONT
370
    50
390
0
  6
CONTINUOUS
 62
     7
100
AcDbLine
 10
156.337254
 20
198.41955
 30
0.0
 11
156.337254
 21
198.619531
 31
0.0
  0
LINE
  5
1190
100
AcDbEntity
  8
10000_FRONT
370
    50
390
0
  6
CONTINUOUS
 62
     7
100
AcDbLine
 10
156.337254
 20
198.619531
 30
0.0
 11
156.435515
 21
198.916738
 31
0.0
  0
LINE
  5
1191
100
AcDbEntity
  8
10000_FRONT
370
    50
390
0
  6
CONTINUOUS
 62
     7
100
AcDbLine
 10
156.435515
 20
198.916738
 30
0.0
 11
156.636089
 21
199.116285
 31
0.0
  0
LINE
  5
1192
100
AcDbEntity
  8
10000_FRONT
370
    50
390
0
  6
CONTINUOUS
 62
     7
100
AcDbLine
 10
156.636089
 20
199.116285
 30
0.0
 11
156.932144
 21
199.2158
 31
0.0
  0
LINE
  5
1193
100
AcDbEntity
  8
10000_FRONT
370
    50
390
0
  6
CONTINUOUS
 62
     7
100
AcDbLine
 10
156.932144
 20
199.2158
 30
0.0
 11
157.22557
 21
199.2158
 31
0.0
  0
LINE
  5
1194
100
AcDbEntity
  8
10000_FRONT
370
    50
390
0
  6
CONTINUOUS
 62
     7
100
AcDbLine
 10
157.22557
 20
199.2158
 30
0.0
 11
157.521996
 21
199.117797
 31
0.0
  0
LINE
  5
1195
100
AcDbEntity
  8
10000_FRONT
370
    50
390
0
  6
CONTINUOUS
 62
     7
100
AcDbLine
 10
157.521996
 20
199.117797
 30
0.0
 11
157.626184
 21
199.017043
 31
0.0
  0
LINE
  5
1196
100
AcDbEntity
  8
10000_FRONT
370
    50
390
0
  6
CONTINUOUS
 62
     7
100
AcDbLine
 10
156.649376
 20
188.35
 30
0.0
 11
156.636545
 21
187.401522
 31
0.0
  0
LINE
  5
1197
100
AcDbEntity
  8
10000_FRONT
370
    50
390
0
  6
CONTINUOUS
 62
     7
100
AcDbLine
 10
149.1
 20
184.400002
 30
0.0
 11
150.4
 21
184.400002
 31
0.0
  0
LINE
  5
1198
100
AcDbEntity
  8
10000_FRONT
370
    50
390
0
  6
CONTINUOUS
 62
     7
100
AcDbLine
 10
157.2
 20
184.400002
 30
0.0
 11
150.4
 21
184.400002
 31
0.0
  0
LINE
  5
1199
100
AcDbEntity
  8
10000_FRONT
370
    50
390
0
  6
CONTINUOUS
 62
     7
100
AcDbLine
 10
157.2
 20
184.400002
 30
0.0
 11
158.5
 21
184.400002
 31
0.0
  0
LINE
  5
119A
100
AcDbEntity
  8
10000_FRONT
370
    50
390
0
  6
CONTINUOUS
 62
     7
100
AcDbLine
 10
157.2
 20
183.4
 30
0.0
 11
158.0
 21
183.4
 31
0.0
  0
LINE
  5
119B
100
AcDbEntity
  8
10000_FRONT
370
    50
390
0
  6
CONTINUOUS
 62
     7
100
AcDbLine
 10
150.4
 20
183.4
 30
0.0
 11
157.2
 21
183.4
 31
0.0
  0
LINE
  5
119C
100
AcDbEntity
  8
10000_FRONT
370
    50
390
0
  6
CONTINUOUS
 62
     7
100
AcDbLine
 10
149.6
 20
183.4
 30
0.0
 11
150.4
 21
183.4
 31
0.0
  0
ARC
  5
119D
100
AcDbEntity
  8
10000_FRONT
370
    50
390
0
  6
CONTINUOUS
 62
     7
100
AcDbCircle
 10
158.0
 20
183.9
 30
0.0
 40
0.5
100
AcDbArc
 50
270.0
 51
0.0
  0
LINE
  5
119E
100
AcDbEntity
  8
10000_FRONT
370
    50
390
0
  6
CONTINUOUS
 62
     7
100
AcDbLine
 10
158.5
 20
183.9
 30
0.0
 11
158.5
 21
184.400002
 31
0.0
  0
LINE
  5
119F
100
AcDbEntity
  8
10000_FRONT
370
    50
390
0
  6
CONTINUOUS
 62
     7
100
AcDbLine
 10
157.2
 20
183.9
 30
0.0
 11
158.5
 21
183.9
 31
0.0
  0
LINE
  5
11A0
100
AcDbEntity
  8
10000_FRONT
370
    50
390
0
  6
CONTINUOUS
 62
     7
100
AcDbLine
 10
157.2
 20
183.9
 30
0.0
 11
157.2
 21
184.400002
 31
0.0
  0
LINE
  5
11A1
100
AcDbEntity
  8
10000_FRONT
370
    50
390
0
  6
CONTINUOUS
 62
     7
100
AcDbLine
 10
157.2
 20
183.4
 30
0.0
 11
157.2
 21
183.9
 31
0.0
  0
LINE
  5
11A2
100
AcDbEntity
  8
10000_FRONT
370
    50
390
0
  6
CONTINUOUS
 62
     7
100
AcDbLine
 10
150.4
 20
183.9
 30
0.0
 11
157.2
 21
183.9
 31
0.0
  0
LINE
  5
11A3
100
AcDbEntity
  8
10000_FRONT
370
    50
390
0
  6
CONTINUOUS
 62
     7
100
AcDbLine
 10
150.4
 20
183.4
 30
0.0
 11
150.4
 21
183.9
 31
0.0
  0
LINE
  5
11A4
100
AcDbEntity
  8
10000_FRONT
370
    50
390
0
  6
CONTINUOUS
 62
     7
100
AcDbLine
 10
150.4
 20
183.9
 30
0.0
 11
150.4
 21
184.400002
 31
0.0
  0
LINE
  5
11A5
100
AcDbEntity
  8
10000_FRONT
370
    50
390
0
  6
CONTINUOUS
 62
     7
100
AcDbLine
 10
149.1
 20
183.9
 30
0.0
 11
150.4
 21
183.9
 31
0.0
  0
LINE
  5
11A6
100
AcDbEntity
  8
10000_FRONT
370
    50
390
0
  6
CONTINUOUS
 62
     7
100
AcDbLine
 10
149.1
 20
183.9
 30
0.0
 11
149.1
 21
184.400002
 31
0.0
  0
ARC
  5
11A7
100
AcDbEntity
  8
10000_FRONT
370
    50
390
0
  6
CONTINUOUS
 62
     7
100
AcDbCircle
 10
149.6
 20
183.9
 30
0.0
 40
0.5
100
AcDbArc
 50
180.0
 51
269.999989
  0
ARC
  5
11A8
100
AcDbEntity
  8
10000_FRONT
370
    50
390
0
  6
CONTINUOUS
 62
     7
100
AcDbCircle
 10
150.8
 20
183.4
 30
0.0
 40
0.35
100
AcDbArc
 50
269.999992
 51
359.999938
  0
ARC
  5
11A9
100
AcDbEntity
  8
10000_FRONT
370
    50
390
0
  6
CONTINUOUS
 62
     7
100
AcDbCircle
 10
153.8
 20
183.4
 30
0.0
 40
0.35
100
AcDbArc
 50
270.000002
 51
359.999938
  0
ARC
  5
11AA
100
AcDbEntity
  8
10000_FRONT
370
    50
390
0
  6
CONTINUOUS
 62
     7
100
AcDbCircle
 10
156.8
 20
183.4
 30
0.0
 40
0.35
100
AcDbArc
 50
269.999992
 51
359.999938
  0
ARC
  5
11AB
100
AcDbEntity
  8
10000_FRONT
370
    50
390
0
  6
CONTINUOUS
 62
     7
100
AcDbCircle
 10
155.3
 20
183.4
 30
0.0
 40
0.35
100
AcDbArc
 50
269.999992
 51
359.999938
  0
ARC
  5
11AC
100
AcDbEntity
  8
10000_FRONT
370
    50
390
0
  6
CONTINUOUS
 62
     7
100
AcDbCircle
 10
152.3
 20
183.4
 30
0.0
 40
0.35
100
AcDbArc
 50
269.999992
 51
359.999938
  0
LINE
  5
11AD
100
AcDbEntity
  8
10000_FRONT
370
    50
390
0
  6
CONTINUOUS
 62
     7
100
AcDbLine
 10
149.074437
 20
184.400002
 30
0.0
 11
149.1
 21
184.400002
 31
0.0
  0
LINE
  5
11AE
100
AcDbEntity
  8
10000_FRONT
370
    50
390
0
  6
CONTINUOUS
 62
     7
100
AcDbLine
 10
156.6
 20
184.400002
 30
0.0
 11
156.6
 21
185.4
 31
0.0
  0
LINE
  5
11AF
100
AcDbEntity
  8
10000_FRONT
370
    50
390
0
  6
CONTINUOUS
 62
     7
100
AcDbLine
 10
156.6
 20
185.799999
 30
0.0
 11
156.6
 21
185.4
 31
0.0
  0
LINE
  5
11B0
100
AcDbEntity
  8
10000_FRONT
370
    50
390
0
  6
CONTINUOUS
 62
     7
100
AcDbLine
 10
158.5
 20
185.4
 30
0.0
 11
158.5
 21
188.35
 31
0.0
  0
LINE
  5
11B1
100
AcDbEntity
  8
10000_FRONT
370
    50
390
0
  6
CONTINUOUS
 62
     7
100
AcDbLine
 10
158.5
 20
185.4
 30
0.0
 11
158.5
 21
184.400002
 31
0.0
  0
LINE
  5
11B2
100
AcDbEntity
  8
10000_FRONT
370
    50
390
0
  6
CONTINUOUS
 62
     7
100
AcDbLine
 10
156.636545
 20
187.401522
 30
0.0
 11
148.1
 21
187.045832
 31
0.0
  0
LINE
  5
11B3
100
AcDbEntity
  8
10000_FRONT
370
    50
390
0
  6
CONTINUOUS
 62
     7
100
AcDbLine
 10
156.6
 20
185.4
 30
0.0
 11
158.5
 21
185.4
 31
0.0
  0
LINE
  5
11B4
100
AcDbEntity
  8
10000_FRONT
370
    50
390
0
  6
CONTINUOUS
 62
     7
100
AcDbLine
 10
148.1
 20
187.045832
 30
0.0
 11
145.2
 21
186.676428
 31
0.0
  0
LINE
  5
11B5
100
AcDbEntity
  8
10000_FRONT
370
    50
390
0
  6
CONTINUOUS
 62
     7
100
AcDbLine
 10
145.2
 20
186.676428
 30
0.0
 11
145.2
 21
185.654545
 31
0.0
  0
LINE
  5
11B6
100
AcDbEntity
  8
10000_FRONT
370
    50
390
0
  6
CONTINUOUS
 62
     7
100
AcDbLine
 10
145.2
 20
185.654545
 30
0.0
 11
146.25
 21
184.699999
 31
0.0
  0
LINE
  5
11B7
100
AcDbEntity
  8
10000_FRONT
370
    50
390
0
  6
CONTINUOUS
 62
     7
100
AcDbLine
 10
146.25
 20
184.699999
 30
0.0
 11
146.95
 21
184.699999
 31
0.0
  0
LINE
  5
11B8
100
AcDbEntity
  8
10000_FRONT
370
    50
390
0
  6
CONTINUOUS
 62
     7
100
AcDbLine
 10
146.95
 20
184.699999
 30
0.0
 11
146.95
 21
185.799999
 31
0.0
  0
LINE
  5
11B9
100
AcDbEntity
  8
10000_FRONT
370
    50
390
0
  6
CONTINUOUS
 62
     7
100
AcDbLine
 10
146.95
 20
185.799999
 30
0.0
 11
148.755191
 21
185.799999
 31
0.0
  0
ARC
  5
11BA
100
AcDbEntity
  8
10000_FRONT
370
    50
390
0
  6
CONTINUOUS
 62
     7
100
AcDbCircle
 10
148.755191
 20
185.499999
 30
0.0
 40
0.3
100
AcDbArc
 50
1.000181
 51
89.999992
  0
LINE
  5
11BB
100
AcDbEntity
  8
10000_FRONT
370
    50
390
0
  6
CONTINUOUS
 62
     7
100
AcDbLine
 10
149.055145
 20
185.505236
 30
0.0
 11
149.074437
 21
184.400002
 31
0.0
  0
LINE
  5
11BC
100
AcDbEntity
  8
10000_FRONT
370
    50
390
0
  6
CONTINUOUS
 62
     7
100
AcDbLine
 10
150.074082
 20
184.400002
 30
0.0
 11
150.051332
 21
185.799999
 31
0.0
  0
LINE
  5
11BD
100
AcDbEntity
  8
10000_FRONT
370
    50
390
0
  6
CONTINUOUS
 62
     7
100
AcDbLine
 10
150.051332
 20
185.799999
 30
0.0
 11
156.6
 21
185.799999
 31
0.0
  0
LINE
  5
11BE
100
AcDbEntity
  8
10000_FRONT
370
    50
390
0
  6
CONTINUOUS
 62
     7
100
AcDbLine
 10
158.5
 20
188.35
 30
0.0
 11
158.5
 21
188.950001
 31
0.0
  0
LINE
  5
11BF
100
AcDbEntity
  8
10000_FRONT
370
    50
390
0
  6
CONTINUOUS
 62
     7
100
AcDbLine
 10
158.5
 20
183.9
 30
0.0
 11
158.5
 21
183.299999
 31
0.0
  0
LINE
  5
11C0
100
AcDbEntity
  8
10000_FRONT
370
    50
390
0
  6
CONTINUOUS
 62
     7
100
AcDbLine
 10
158.5
 20
239.1
 30
0.0
 11
158.5
 21
239.700001
 31
0.0
  0
LINE
  5
11C1
100
AcDbEntity
  8
10000_FRONT
370
    50
390
0
  6
CONTINUOUS
 62
     7
100
AcDbLine
 10
158.5
 20
234.049999
 30
0.0
 11
158.5
 21
234.65
 31
0.0
  0
LINE
  5
11C2
100
AcDbEntity
  8
10000_FRONT
370
    50
390
0
  6
CONTINUOUS
 62
     7
100
AcDbLine
 10
158.5
 20
234.049999
 30
0.0
 11
158.5
 21
228.549999
 31
0.0
  0
LINE
  5
11C3
100
AcDbEntity
  8
10000_FRONT
370
    50
390
0
  6
CONTINUOUS
 62
     7
100
AcDbLine
 10
158.5
 20
194.450001
 30
0.0
 11
158.5
 21
228.549999
 31
0.0
  0
LINE
  5
11C4
100
AcDbEntity
  8
10000_FRONT
370
    50
390
0
  6
CONTINUOUS
 62
     7
100
AcDbLine
 10
158.5
 20
194.450001
 30
0.0
 11
158.5
 21
188.950001
 31
0.0
  0
LINE
  5
11C5
100
AcDbEntity
  8
10000_FRONT
370
    50
390
0
  6
CONTINUOUS
 62
     7
100
AcDbLine
 10
157.392904
 20
237.6
 30
0.0
 11
157.392904
 21
234.65
 31
0.0
  0
LINE
  5
11C6
100
AcDbEntity
  8
10000_FRONT
370
    50
390
0
  6
CONTINUOUS
 62
     7
100
AcDbLine
 10
158.5
 20
237.6
 30
0.0
 11
158.5
 21
234.65
 31
0.0
  0
LINE
  5
11C7
100
AcDbEntity
  8
10000_FRONT
370
    50
390
0
  6
CONTINUOUS
 62
     7
100
AcDbLine
 10
158.5
 20
237.6
 30
0.0
 11
157.392904
 21
237.6
 31
0.0
  0
LINE
  5
11C8
100
AcDbEntity
  8
10000_FRONT
370
    50
390
0
  6
CONTINUOUS
 62
     7
100
AcDbLine
 10
158.5
 20
237.6
 30
0.0
 11
158.5
 21
238.599998
 31
0.0
  0
LINE
  5
11C9
100
AcDbEntity
  8
10000_FRONT
370
    50
390
0
  6
CONTINUOUS
 62
     7
100
AcDbLine
 10
157.2
 20
238.599998
 30
0.0
 11
158.5
 21
238.599998
 31
0.0
  0
LINE
  5
11CA
100
AcDbEntity
  8
10000_FRONT
370
    50
390
0
  6
CONTINUOUS
 62
     7
100
AcDbLine
 10
150.4
 20
238.599998
 30
0.0
 11
157.2
 21
238.599998
 31
0.0
  0
LINE
  5
11CB
100
AcDbEntity
  8
10000_FRONT
370
    50
390
0
  6
CONTINUOUS
 62
     7
100
AcDbLine
 10
149.1
 20
238.599998
 30
0.0
 11
150.4
 21
238.599998
 31
0.0
  0
LINE
  5
11CC
100
AcDbEntity
  8
10000_FRONT
370
    50
390
0
  6
CONTINUOUS
 62
     7
100
AcDbLine
 10
157.2
 20
239.6
 30
0.0
 11
150.4
 21
239.6
 31
0.0
  0
LINE
  5
11CD
100
AcDbEntity
  8
10000_FRONT
370
    50
390
0
  6
CONTINUOUS
 62
     7
100
AcDbLine
 10
157.2
 20
239.6
 30
0.0
 11
158.0
 21
239.6
 31
0.0
  0
LINE
  5
11CE
100
AcDbEntity
  8
10000_FRONT
370
    50
390
0
  6
CONTINUOUS
 62
     7
100
AcDbLine
 10
149.6
 20
239.6
 30
0.0
 11
150.4
 21
239.6
 31
0.0
  0
LINE
  5
11CF
100
AcDbEntity
  8
10000_FRONT
370
    50
390
0
  6
CONTINUOUS
 62
     7
100
AcDbLine
 10
150.4
 20
239.1
 30
0.0
 11
150.4
 21
239.6
 31
0.0
  0
LINE
  5
11D0
100
AcDbEntity
  8
10000_FRONT
370
    50
390
0
  6
CONTINUOUS
 62
     7
100
AcDbLine
 10
157.2
 20
239.1
 30
0.0
 11
150.4
 21
239.1
 31
0.0
  0
LINE
  5
11D1
100
AcDbEntity
  8
10000_FRONT
370
    50
390
0
  6
CONTINUOUS
 62
     7
100
AcDbLine
 10
157.2
 20
239.1
 30
0.0
 11
157.2
 21
239.6
 31
0.0
  0
LINE
  5
11D2
100
AcDbEntity
  8
10000_FRONT
370
    50
390
0
  6
CONTINUOUS
 62
     7
100
AcDbLine
 10
150.4
 20
239.1
 30
0.0
 11
150.4
 21
238.599998
 31
0.0
  0
LINE
  5
11D3
100
AcDbEntity
  8
10000_FRONT
370
    50
390
0
  6
CONTINUOUS
 62
     7
100
AcDbLine
 10
157.2
 20
239.1
 30
0.0
 11
157.2
 21
238.599998
 31
0.0
  0
LINE
  5
11D4
100
AcDbEntity
  8
10000_FRONT
370
    50
390
0
  6
CONTINUOUS
 62
     7
100
AcDbLine
 10
157.2
 20
239.1
 30
0.0
 11
158.5
 21
239.1
 31
0.0
  0
LINE
  5
11D5
100
AcDbEntity
  8
10000_FRONT
370
    50
390
0
  6
CONTINUOUS
 62
     7
100
AcDbLine
 10
158.5
 20
239.1
 30
0.0
 11
158.5
 21
238.599998
 31
0.0
  0
LINE
  5
11D6
100
AcDbEntity
  8
10000_FRONT
370
    50
390
0
  6
CONTINUOUS
 62
     7
100
AcDbLine
 10
149.1
 20
239.1
 30
0.0
 11
150.4
 21
239.1
 31
0.0
  0
LINE
  5
11D7
100
AcDbEntity
  8
10000_FRONT
370
    50
390
0
  6
CONTINUOUS
 62
     7
100
AcDbLine
 10
149.1
 20
239.1
 30
0.0
 11
149.1
 21
238.599998
 31
0.0
  0
ARC
  5
11D8
100
AcDbEntity
  8
10000_FRONT
370
    50
390
0
  6
CONTINUOUS
 62
     7
100
AcDbCircle
 10
149.6
 20
239.1
 30
0.0
 40
0.5
100
AcDbArc
 50
90.000011
 51
180.0
  0
ARC
  5
11D9
100
AcDbEntity
  8
10000_FRONT
370
    50
390
0
  6
CONTINUOUS
 62
     7
100
AcDbCircle
 10
158.0
 20
239.1
 30
0.0
 40
0.5
100
AcDbArc
 50
0.0
 51
90.0
  0
ARC
  5
11DA
100
AcDbEntity
  8
10000_FRONT
370
    50
390
0
  6
CONTINUOUS
 62
     7
100
AcDbCircle
 10
150.8
 20
239.6
 30
0.0
 40
0.35
100
AcDbArc
 50
0.000062
 51
90.000008
  0
ARC
  5
11DB
100
AcDbEntity
  8
10000_FRONT
370
    50
390
0
  6
CONTINUOUS
 62
     7
100
AcDbCircle
 10
153.8
 20
239.6
 30
0.0
 40
0.35
100
AcDbArc
 50
0.000062
 51
89.999998
  0
ARC
  5
11DC
100
AcDbEntity
  8
10000_FRONT
370
    50
390
0
  6
CONTINUOUS
 62
     7
100
AcDbCircle
 10
156.8
 20
239.6
 30
0.0
 40
0.35
100
AcDbArc
 50
0.000062
 51
90.000008
  0
ARC
  5
11DD
100
AcDbEntity
  8
10000_FRONT
370
    50
390
0
  6
CONTINUOUS
 62
     7
100
AcDbCircle
 10
155.3
 20
239.6
 30
0.0
 40
0.35
100
AcDbArc
 50
0.000062
 51
90.000008
  0
ARC
  5
11DE
100
AcDbEntity
  8
10000_FRONT
370
    50
390
0
  6
CONTINUOUS
 62
     7
100
AcDbCircle
 10
152.3
 20
239.6
 30
0.0
 40
0.35
100
AcDbArc
 50
0.000062
 51
90.000008
  0
LINE
  5
11DF
100
AcDbEntity
  8
10000_FRONT
370
    50
390
0
  6
CONTINUOUS
 62
     7
100
AcDbLine
 10
149.1
 20
238.599998
 30
0.0
 11
149.074437
 21
238.599998
 31
0.0
  0
LINE
  5
11E0
100
AcDbEntity
  8
10000_FRONT
370
    50
390
0
  6
CONTINUOUS
 62
     7
100
AcDbLine
 10
156.6
 20
237.6
 30
0.0
 11
156.6
 21
237.200001
 31
0.0
  0
LINE
  5
11E1
100
AcDbEntity
  8
10000_FRONT
370
    50
390
0
  6
CONTINUOUS
 62
     7
100
AcDbLine
 10
156.6
 20
238.599998
 30
0.0
 11
156.6
 21
237.6
 31
0.0
  0
LINE
  5
11E2
100
AcDbEntity
  8
10000_FRONT
370
    50
390
0
  6
CONTINUOUS
 62
     7
100
AcDbLine
 10
148.1
 20
235.954168
 30
0.0
 11
156.636545
 21
235.598478
 31
0.0
  0
LINE
  5
11E3
100
AcDbEntity
  8
10000_FRONT
370
    50
390
0
  6
CONTINUOUS
 62
     7
100
AcDbLine
 10
156.636545
 20
235.598478
 30
0.0
 11
156.649376
 21
234.65
 31
0.0
  0
LINE
  5
11E4
100
AcDbEntity
  8
10000_FRONT
370
    50
390
0
  6
CONTINUOUS
 62
     7
100
AcDbLine
 10
157.392904
 20
237.6
 30
0.0
 11
156.6
 21
237.6
 31
0.0
  0
LINE
  5
11E5
100
AcDbEntity
  8
10000_FRONT
370
    50
390
0
  6
CONTINUOUS
 62
     7
100
AcDbLine
 10
156.6
 20
237.200001
 30
0.0
 11
150.051332
 21
237.200001
 31
0.0
  0
LINE
  5
11E6
100
AcDbEntity
  8
10000_FRONT
370
    50
390
0
  6
CONTINUOUS
 62
     7
100
AcDbLine
 10
150.051332
 20
237.200001
 30
0.0
 11
150.074082
 21
238.599998
 31
0.0
  0
LINE
  5
11E7
100
AcDbEntity
  8
10000_FRONT
370
    50
390
0
  6
CONTINUOUS
 62
     7
100
AcDbLine
 10
149.074437
 20
238.599998
 30
0.0
 11
149.055145
 21
237.494764
 31
0.0
  0
ARC
  5
11E8
100
AcDbEntity
  8
10000_FRONT
370
    50
390
0
  6
CONTINUOUS
 62
     7
100
AcDbCircle
 10
148.755191
 20
237.500001
 30
0.0
 40
0.3
100
AcDbArc
 50
270.000008
 51
358.999819
  0
LINE
  5
11E9
100
AcDbEntity
  8
10000_FRONT
370
    50
390
0
  6
CONTINUOUS
 62
     7
100
AcDbLine
 10
148.755191
 20
237.200001
 30
0.0
 11
148.1
 21
237.200001
 31
0.0
  0
LINE
  5
11EA
100
AcDbEntity
  8
10000_FRONT
370
    50
390
0
  6
CONTINUOUS
 62
     7
100
AcDbLine
 10
148.1
 20
237.200001
 30
0.0
 11
148.1
 21
235.954168
 31
0.0
  0
LINE
  5
11EB
100
AcDbEntity
  8
10000_FRONT
370
    50
390
0
  6
CONTINUOUS
 62
     7
100
AcDbLine
 10
148.1
 20
237.200001
 30
0.0
 11
146.95
 21
237.200001
 31
0.0
  0
LINE
  5
11EC
100
AcDbEntity
  8
10000_FRONT
370
    50
390
0
  6
CONTINUOUS
 62
     7
100
AcDbLine
 10
146.95
 20
237.200001
 30
0.0
 11
146.95
 21
238.300001
 31
0.0
  0
LINE
  5
11ED
100
AcDbEntity
  8
10000_FRONT
370
    50
390
0
  6
CONTINUOUS
 62
     7
100
AcDbLine
 10
146.95
 20
238.300001
 30
0.0
 11
146.25
 21
238.300001
 31
0.0
  0
LINE
  5
11EE
100
AcDbEntity
  8
10000_FRONT
370
    50
390
0
  6
CONTINUOUS
 62
     7
100
AcDbLine
 10
146.25
 20
238.300001
 30
0.0
 11
146.2
 21
238.254547
 31
0.0
  0
LINE
  5
11EF
100
AcDbEntity
  8
10000_FRONT
370
    50
390
0
  6
CONTINUOUS
 62
     7
100
AcDbLine
 10
146.2
 20
236.196192
 30
0.0
 11
146.2
 21
238.254547
 31
0.0
  0
LINE
  5
11F0
100
AcDbEntity
  8
10000_FRONT
370
    50
390
0
  6
CONTINUOUS
 62
     7
100
AcDbLine
 10
146.2
 20
236.196192
 30
0.0
 11
148.1
 21
235.954168
 31
0.0
  0
LINE
  5
11F1
100
AcDbEntity
  8
10000_FRONT
370
    50
390
0
  6
CONTINUOUS
 62
     7
100
AcDbLine
 10
146.2
 20
238.254547
 30
0.0
 11
145.2
 21
237.345455
 31
0.0
  0
LINE
  5
11F2
100
AcDbEntity
  8
10000_FRONT
370
    50
390
0
  6
CONTINUOUS
 62
     7
100
AcDbLine
 10
145.2
 20
237.345455
 30
0.0
 11
145.2
 21
236.323572
 31
0.0
  0
LINE
  5
11F3
100
AcDbEntity
  8
10000_FRONT
370
    50
390
0
  6
CONTINUOUS
 62
     7
100
AcDbLine
 10
145.2
 20
236.323572
 30
0.0
 11
146.2
 21
236.196192
 31
0.0
  0
LINE
  5
11F4
100
AcDbEntity
  8
10000_FRONT
370
    50
390
0
  6
CONTINUOUS
 62
     7
100
AcDbLine
 10
148.5
 20
194.450001
 30
0.0
 11
148.5
 21
228.549999
 31
0.0
  0
ARC
  5
11F5
100
AcDbEntity
  8
10000_FRONT
370
    50
390
0
  6
CONTINUOUS
 62
     7
100
AcDbCircle
 10
149.0
 20
194.45
 30
0.0
 40
0.5
100
AcDbArc
 50
179.999913
 51
220.430705
  0
LINE
  5
11F6
100
AcDbEntity
  8
10000_FRONT
370
    50
390
0
  6
CONTINUOUS
 62
     7
100
AcDbLine
 10
149.0
 20
194.549999
 30
0.0
 11
148.996998
 21
194.546791
 31
0.0
  0
LINE
  5
11F7
100
AcDbEntity
  8
10000_FRONT
370
    50
390
0
  6
CONTINUOUS
 62
     7
100
AcDbLine
 10
148.996998
 20
194.546791
 30
0.0
 11
148.993912
 21
194.543411
 31
0.0
  0
LINE
  5
11F8
100
AcDbEntity
  8
10000_FRONT
370
    50
390
0
  6
CONTINUOUS
 62
     7
100
AcDbLine
 10
148.993912
 20
194.543411
 30
0.0
 11
148.984996
 21
194.533625
 31
0.0
  0
LINE
  5
11F9
100
AcDbEntity
  8
10000_FRONT
370
    50
390
0
  6
CONTINUOUS
 62
     7
100
AcDbLine
 10
148.984996
 20
194.533625
 30
0.0
 11
148.969746
 21
194.516924
 31
0.0
  0
LINE
  5
11FA
100
AcDbEntity
  8
10000_FRONT
370
    50
390
0
  6
CONTINUOUS
 62
     7
100
AcDbLine
 10
148.969746
 20
194.516924
 30
0.0
 11
148.948906
 21
194.494093
 31
0.0
  0
LINE
  5
11FB
100
AcDbEntity
  8
10000_FRONT
370
    50
390
0
  6
CONTINUOUS
 62
     7
100
AcDbLine
 10
148.948906
 20
194.494093
 30
0.0
 11
148.92322
 21
194.465923
 31
0.0
  0
LINE
  5
11FC
100
AcDbEntity
  8
10000_FRONT
370
    50
390
0
  6
CONTINUOUS
 62
     7
100
AcDbLine
 10
148.92322
 20
194.465923
 30
0.0
 11
148.893431
 21
194.433201
 31
0.0
  0
LINE
  5
11FD
100
AcDbEntity
  8
10000_FRONT
370
    50
390
0
  6
CONTINUOUS
 62
     7
100
AcDbLine
 10
148.893431
 20
194.433201
 30
0.0
 11
148.860282
 21
194.396713
 31
0.0
  0
LINE
  5
11FE
100
AcDbEntity
  8
10000_FRONT
370
    50
390
0
  6
CONTINUOUS
 62
     7
100
AcDbLine
 10
148.860282
 20
194.396713
 30
0.0
 11
148.824518
 21
194.357246
 31
0.0
  0
LINE
  5
11FF
100
AcDbEntity
  8
10000_FRONT
370
    50
390
0
  6
CONTINUOUS
 62
     7
100
AcDbLine
 10
148.824518
 20
194.357246
 30
0.0
 11
148.787599
 21
194.31637
 31
0.0
  0
LINE
  5
1200
100
AcDbEntity
  8
10000_FRONT
370
    50
390
0
  6
CONTINUOUS
 62
     7
100
AcDbLine
 10
148.787599
 20
194.31637
 30
0.0
 11
148.751362
 21
194.276037
 31
0.0
  0
LINE
  5
1201
100
AcDbEntity
  8
10000_FRONT
370
    50
390
0
  6
CONTINUOUS
 62
     7
100
AcDbLine
 10
148.751362
 20
194.276037
 30
0.0
 11
148.716135
 21
194.236549
 31
0.0
  0
LINE
  5
1202
100
AcDbEntity
  8
10000_FRONT
370
    50
390
0
  6
CONTINUOUS
 62
     7
100
AcDbLine
 10
148.716135
 20
194.236549
 30
0.0
 11
148.682211
 21
194.198174
 31
0.0
  0
LINE
  5
1203
100
AcDbEntity
  8
10000_FRONT
370
    50
390
0
  6
CONTINUOUS
 62
     7
100
AcDbLine
 10
148.682211
 20
194.198174
 30
0.0
 11
148.649887
 21
194.161173
 31
0.0
  0
LINE
  5
1204
100
AcDbEntity
  8
10000_FRONT
370
    50
390
0
  6
CONTINUOUS
 62
     7
100
AcDbLine
 10
148.649887
 20
194.161173
 30
0.0
 11
148.619401
 21
194.125738
 31
0.0
  0
LINE
  5
1205
100
AcDbEntity
  8
10000_FRONT
370
    50
390
0
  6
CONTINUOUS
 62
     7
100
AcDbLine
 10
149.0
 20
228.450001
 30
0.0
 11
148.963961
 21
228.489481
 31
0.0
  0
LINE
  5
1206
100
AcDbEntity
  8
10000_FRONT
370
    50
390
0
  6
CONTINUOUS
 62
     7
100
AcDbLine
 10
148.963961
 20
228.489481
 30
0.0
 11
148.927292
 21
228.529678
 31
0.0
  0
LINE
  5
1207
100
AcDbEntity
  8
10000_FRONT
370
    50
390
0
  6
CONTINUOUS
 62
     7
100
AcDbLine
 10
148.927292
 20
228.529678
 30
0.0
 11
148.890192
 21
228.570408
 31
0.0
  0
LINE
  5
1208
100
AcDbEntity
  8
10000_FRONT
370
    50
390
0
  6
CONTINUOUS
 62
     7
100
AcDbLine
 10
148.890192
 20
228.570408
 30
0.0
 11
148.853016
 21
228.611313
 31
0.0
  0
LINE
  5
1209
100
AcDbEntity
  8
10000_FRONT
370
    50
390
0
  6
CONTINUOUS
 62
     7
100
AcDbLine
 10
148.853016
 20
228.611313
 30
0.0
 11
148.816121
 21
228.652039
 31
0.0
  0
LINE
  5
120A
100
AcDbEntity
  8
10000_FRONT
370
    50
390
0
  6
CONTINUOUS
 62
     7
100
AcDbLine
 10
148.816121
 20
228.652039
 30
0.0
 11
148.77986
 21
228.69223
 31
0.0
  0
LINE
  5
120B
100
AcDbEntity
  8
10000_FRONT
370
    50
390
0
  6
CONTINUOUS
 62
     7
100
AcDbLine
 10
148.77986
 20
228.69223
 30
0.0
 11
148.74457
 21
228.731564
 31
0.0
  0
LINE
  5
120C
100
AcDbEntity
  8
10000_FRONT
370
    50
390
0
  6
CONTINUOUS
 62
     7
100
AcDbLine
 10
148.74457
 20
228.731564
 30
0.0
 11
148.710565
 21
228.769735
 31
0.0
  0
LINE
  5
120D
100
AcDbEntity
  8
10000_FRONT
370
    50
390
0
  6
CONTINUOUS
 62
     7
100
AcDbLine
 10
148.710565
 20
228.769735
 30
0.0
 11
148.678163
 21
228.80644
 31
0.0
  0
LINE
  5
120E
100
AcDbEntity
  8
10000_FRONT
370
    50
390
0
  6
CONTINUOUS
 62
     7
100
AcDbLine
 10
148.678163
 20
228.80644
 30
0.0
 11
148.647678
 21
228.841375
 31
0.0
  0
LINE
  5
120F
100
AcDbEntity
  8
10000_FRONT
370
    50
390
0
  6
CONTINUOUS
 62
     7
100
AcDbLine
 10
148.647678
 20
228.841375
 30
0.0
 11
148.619405
 21
228.874264
 31
0.0
  0
ARC
  5
1210
100
AcDbEntity
  8
10000_FRONT
370
    50
390
0
  6
CONTINUOUS
 62
     7
100
AcDbCircle
 10
149.0
 20
228.55
 30
0.0
 40
0.5
100
AcDbArc
 50
139.569295
 51
180.000087
  0
LINE
  5
1211
100
AcDbEntity
  8
10000_FRONT
370
    50
390
0
  6
CONTINUOUS
 62
     7
100
AcDbLine
 10
158.0
 20
194.549999
 30
0.0
 11
158.036039
 21
194.510519
 31
0.0
  0
LINE
  5
1212
100
AcDbEntity
  8
10000_FRONT
370
    50
390
0
  6
CONTINUOUS
 62
     7
100
AcDbLine
 10
158.036039
 20
194.510519
 30
0.0
 11
158.072708
 21
194.470322
 31
0.0
  0
LINE
  5
1213
100
AcDbEntity
  8
10000_FRONT
370
    50
390
0
  6
CONTINUOUS
 62
     7
100
AcDbLine
 10
158.072708
 20
194.470322
 30
0.0
 11
158.109808
 21
194.429592
 31
0.0
  0
LINE
  5
1214
100
AcDbEntity
  8
10000_FRONT
370
    50
390
0
  6
CONTINUOUS
 62
     7
100
AcDbLine
 10
158.109808
 20
194.429592
 30
0.0
 11
158.146984
 21
194.388687
 31
0.0
  0
LINE
  5
1215
100
AcDbEntity
  8
10000_FRONT
370
    50
390
0
  6
CONTINUOUS
 62
     7
100
AcDbLine
 10
158.146984
 20
194.388687
 30
0.0
 11
158.183879
 21
194.347961
 31
0.0
  0
LINE
  5
1216
100
AcDbEntity
  8
10000_FRONT
370
    50
390
0
  6
CONTINUOUS
 62
     7
100
AcDbLine
 10
158.183879
 20
194.347961
 30
0.0
 11
158.22014
 21
194.30777
 31
0.0
  0
LINE
  5
1217
100
AcDbEntity
  8
10000_FRONT
370
    50
390
0
  6
CONTINUOUS
 62
     7
100
AcDbLine
 10
158.22014
 20
194.30777
 30
0.0
 11
158.25543
 21
194.268436
 31
0.0
  0
LINE
  5
1218
100
AcDbEntity
  8
10000_FRONT
370
    50
390
0
  6
CONTINUOUS
 62
     7
100
AcDbLine
 10
158.25543
 20
194.268436
 30
0.0
 11
158.289435
 21
194.230265
 31
0.0
  0
LINE
  5
1219
100
AcDbEntity
  8
10000_FRONT
370
    50
390
0
  6
CONTINUOUS
 62
     7
100
AcDbLine
 10
158.289435
 20
194.230265
 30
0.0
 11
158.321837
 21
194.19356
 31
0.0
  0
LINE
  5
121A
100
AcDbEntity
  8
10000_FRONT
370
    50
390
0
  6
CONTINUOUS
 62
     7
100
AcDbLine
 10
158.321837
 20
194.19356
 30
0.0
 11
158.352322
 21
194.158625
 31
0.0
  0
LINE
  5
121B
100
AcDbEntity
  8
10000_FRONT
370
    50
390
0
  6
CONTINUOUS
 62
     7
100
AcDbLine
 10
158.352322
 20
194.158625
 30
0.0
 11
158.380595
 21
194.125736
 31
0.0
  0
ARC
  5
121C
100
AcDbEntity
  8
10000_FRONT
370
    50
390
0
  6
CONTINUOUS
 62
     7
100
AcDbCircle
 10
158.0
 20
194.45
 30
0.0
 40
0.5
100
AcDbArc
 50
319.569295
 51
0.000087
  0
ARC
  5
121D
100
AcDbEntity
  8
10000_FRONT
370
    50
390
0
  6
CONTINUOUS
 62
     7
100
AcDbCircle
 10
158.0
 20
228.55
 30
0.0
 40
0.5
100
AcDbArc
 50
359.999913
 51
40.430705
  0
LINE
  5
121E
100
AcDbEntity
  8
10000_FRONT
370
    50
390
0
  6
CONTINUOUS
 62
     7
100
AcDbLine
 10
158.0
 20
228.450001
 30
0.0
 11
158.003002
 21
228.453207
 31
0.0
  0
LINE
  5
121F
100
AcDbEntity
  8
10000_FRONT
370
    50
390
0
  6
CONTINUOUS
 62
     7
100
AcDbLine
 10
158.003002
 20
228.453207
 30
0.0
 11
158.006088
 21
228.456589
 31
0.0
  0
LINE
  5
1220
100
AcDbEntity
  8
10000_FRONT
370
    50
390
0
  6
CONTINUOUS
 62
     7
100
AcDbLine
 10
158.006088
 20
228.456589
 30
0.0
 11
158.015004
 21
228.466375
 31
0.0
  0
LINE
  5
1221
100
AcDbEntity
  8
10000_FRONT
370
    50
390
0
  6
CONTINUOUS
 62
     7
100
AcDbLine
 10
158.015004
 20
228.466375
 30
0.0
 11
158.030254
 21
228.483076
 31
0.0
  0
LINE
  5
1222
100
AcDbEntity
  8
10000_FRONT
370
    50
390
0
  6
CONTINUOUS
 62
     7
100
AcDbLine
 10
158.030254
 20
228.483076
 30
0.0
 11
158.051094
 21
228.505907
 31
0.0
  0
LINE
  5
1223
100
AcDbEntity
  8
10000_FRONT
370
    50
390
0
  6
CONTINUOUS
 62
     7
100
AcDbLine
 10
158.051094
 20
228.505907
 30
0.0
 11
158.07678
 21
228.534077
 31
0.0
  0
LINE
  5
1224
100
AcDbEntity
  8
10000_FRONT
370
    50
390
0
  6
CONTINUOUS
 62
     7
100
AcDbLine
 10
158.07678
 20
228.534077
 30
0.0
 11
158.106569
 21
228.566799
 31
0.0
  0
LINE
  5
1225
100
AcDbEntity
  8
10000_FRONT
370
    50
390
0
  6
CONTINUOUS
 62
     7
100
AcDbLine
 10
158.106569
 20
228.566799
 30
0.0
 11
158.139718
 21
228.603287
 31
0.0
  0
LINE
  5
1226
100
AcDbEntity
  8
10000_FRONT
370
    50
390
0
  6
CONTINUOUS
 62
     7
100
AcDbLine
 10
158.139718
 20
228.603287
 30
0.0
 11
158.175482
 21
228.642754
 31
0.0
  0
LINE
  5
1227
100
AcDbEntity
  8
10000_FRONT
370
    50
390
0
  6
CONTINUOUS
 62
     7
100
AcDbLine
 10
158.175482
 20
228.642754
 30
0.0
 11
158.212401
 21
228.68363
 31
0.0
  0
LINE
  5
1228
100
AcDbEntity
  8
10000_FRONT
370
    50
390
0
  6
CONTINUOUS
 62
     7
100
AcDbLine
 10
158.212401
 20
228.68363
 30
0.0
 11
158.248638
 21
228.723963
 31
0.0
  0
LINE
  5
1229
100
AcDbEntity
  8
10000_FRONT
370
    50
390
0
  6
CONTINUOUS
 62
     7
100
AcDbLine
 10
158.248638
 20
228.723963
 30
0.0
 11
158.283865
 21
228.763451
 31
0.0
  0
LINE
  5
122A
100
AcDbEntity
  8
10000_FRONT
370
    50
390
0
  6
CONTINUOUS
 62
     7
100
AcDbLine
 10
158.283865
 20
228.763451
 30
0.0
 11
158.317789
 21
228.801826
 31
0.0
  0
LINE
  5
122B
100
AcDbEntity
  8
10000_FRONT
370
    50
390
0
  6
CONTINUOUS
 62
     7
100
AcDbLine
 10
158.317789
 20
228.801826
 30
0.0
 11
158.350113
 21
228.838827
 31
0.0
  0
LINE
  5
122C
100
AcDbEntity
  8
10000_FRONT
370
    50
390
0
  6
CONTINUOUS
 62
     7
100
AcDbLine
 10
158.350113
 20
228.838827
 30
0.0
 11
158.380599
 21
228.874262
 31
0.0
  0
LINE
  5
122D
100
AcDbEntity
  8
10000_FRONT
370
    50
390
0
  6
CONTINUOUS
 62
     7
100
AcDbLine
 10
148.5
 20
228.549999
 30
0.0
 11
148.5
 21
234.049999
 31
0.0
  0
LINE
  5
122E
100
AcDbEntity
  8
10000_FRONT
370
    50
390
0
  6
CONTINUOUS
 62
     7
100
AcDbLine
 10
148.5
 20
234.049999
 30
0.0
 11
148.5
 21
234.65
 31
0.0
  0
LINE
  5
122F
100
AcDbEntity
  8
10000_FRONT
370
    50
390
0
  6
CONTINUOUS
 62
     7
100
AcDbLine
 10
148.5
 20
234.65
 30
0.0
 11
148.5
 21
235.93751
 31
0.0
  0
LINE
  5
1230
100
AcDbEntity
  8
10000_FRONT
370
    50
390
0
  6
CONTINUOUS
 62
     7
100
AcDbLine
 10
148.5
 20
237.200008
 30
0.0
 11
148.5
 21
239.700001
 31
0.0
  0
LINE
  5
1231
100
AcDbEntity
  8
10000_FRONT
370
    50
390
0
  6
CONTINUOUS
 62
     7
100
AcDbLine
 10
148.5
 20
188.35
 30
0.0
 11
148.5
 21
187.062506
 31
0.0
  0
LINE
  5
1232
100
AcDbEntity
  8
10000_FRONT
370
    50
390
0
  6
CONTINUOUS
 62
     7
100
AcDbLine
 10
148.5
 20
185.800007
 30
0.0
 11
148.5
 21
183.299999
 31
0.0
  0
LINE
  5
1233
100
AcDbEntity
  8
10000_FRONT
370
    50
390
0
  6
CONTINUOUS
 62
     7
100
AcDbLine
 10
148.5
 20
188.35
 30
0.0
 11
148.5
 21
188.950001
 31
0.0
  0
LINE
  5
1234
100
AcDbEntity
  8
10000_FRONT
370
    50
390
0
  6
CONTINUOUS
 62
     7
100
AcDbLine
 10
148.5
 20
194.450001
 30
0.0
 11
148.5
 21
188.950001
 31
0.0
  0
LINE
  5
1235
100
AcDbEntity
  8
10000_FRONT
370
    50
390
0
  6
CONTINUOUS
 62
     7
100
AcDbLine
 10
149.0
 20
229.049999
 30
0.0
 11
148.963952
 21
229.048664
 31
0.0
  0
LINE
  5
1236
100
AcDbEntity
  8
10000_FRONT
370
    50
390
0
  6
CONTINUOUS
 62
     7
100
AcDbLine
 10
148.963952
 20
229.048664
 30
0.0
 11
148.927279
 21
229.044596
 31
0.0
  0
LINE
  5
1237
100
AcDbEntity
  8
10000_FRONT
370
    50
390
0
  6
CONTINUOUS
 62
     7
100
AcDbLine
 10
148.927279
 20
229.044596
 30
0.0
 11
148.890182
 21
229.037689
 31
0.0
  0
LINE
  5
1238
100
AcDbEntity
  8
10000_FRONT
370
    50
390
0
  6
CONTINUOUS
 62
     7
100
AcDbLine
 10
148.890182
 20
229.037689
 30
0.0
 11
148.853011
 21
229.027842
 31
0.0
  0
LINE
  5
1239
100
AcDbEntity
  8
10000_FRONT
370
    50
390
0
  6
CONTINUOUS
 62
     7
100
AcDbLine
 10
148.853011
 20
229.027842
 30
0.0
 11
148.81612
 21
229.01495
 31
0.0
  0
LINE
  5
123A
100
AcDbEntity
  8
10000_FRONT
370
    50
390
0
  6
CONTINUOUS
 62
     7
100
AcDbLine
 10
148.81612
 20
229.01495
 30
0.0
 11
148.77986
 21
228.998917
 31
0.0
  0
LINE
  5
123B
100
AcDbEntity
  8
10000_FRONT
370
    50
390
0
  6
CONTINUOUS
 62
     7
100
AcDbLine
 10
148.77986
 20
228.998917
 30
0.0
 11
148.744569
 21
228.979763
 31
0.0
  0
LINE
  5
123C
100
AcDbEntity
  8
10000_FRONT
370
    50
390
0
  6
CONTINUOUS
 62
     7
100
AcDbLine
 10
148.744569
 20
228.979763
 30
0.0
 11
148.710565
 21
228.957603
 31
0.0
  0
LINE
  5
123D
100
AcDbEntity
  8
10000_FRONT
370
    50
390
0
  6
CONTINUOUS
 62
     7
100
AcDbLine
 10
148.710565
 20
228.957603
 30
0.0
 11
148.678163
 21
228.932558
 31
0.0
  0
LINE
  5
123E
100
AcDbEntity
  8
10000_FRONT
370
    50
390
0
  6
CONTINUOUS
 62
     7
100
AcDbLine
 10
148.678163
 20
228.932558
 30
0.0
 11
148.647677
 21
228.904747
 31
0.0
  0
LINE
  5
123F
100
AcDbEntity
  8
10000_FRONT
370
    50
390
0
  6
CONTINUOUS
 62
     7
100
AcDbLine
 10
148.647677
 20
228.904747
 30
0.0
 11
148.619404
 21
228.874264
 31
0.0
  0
LINE
  5
1240
100
AcDbEntity
  8
10000_FRONT
370
    50
390
0
  6
CONTINUOUS
 62
     7
100
AcDbLine
 10
149.336174
 20
229.049999
 30
0.0
 11
149.388654
 21
228.450001
 31
0.0
  0
LINE
  5
1241
100
AcDbEntity
  8
10000_FRONT
370
    50
390
0
  6
CONTINUOUS
 62
     7
100
AcDbLine
 10
149.336174
 20
229.049999
 30
0.0
 11
149.0
 21
229.049999
 31
0.0
  0
LINE
  5
1242
100
AcDbEntity
  8
10000_FRONT
370
    50
390
0
  6
CONTINUOUS
 62
     7
100
AcDbLine
 10
158.0
 20
229.049999
 30
0.0
 11
158.036048
 21
229.048664
 31
0.0
  0
LINE
  5
1243
100
AcDbEntity
  8
10000_FRONT
370
    50
390
0
  6
CONTINUOUS
 62
     7
100
AcDbLine
 10
158.036048
 20
229.048664
 30
0.0
 11
158.072721
 21
229.044596
 31
0.0
  0
LINE
  5
1244
100
AcDbEntity
  8
10000_FRONT
370
    50
390
0
  6
CONTINUOUS
 62
     7
100
AcDbLine
 10
158.072721
 20
229.044596
 30
0.0
 11
158.109818
 21
229.037689
 31
0.0
  0
LINE
  5
1245
100
AcDbEntity
  8
10000_FRONT
370
    50
390
0
  6
CONTINUOUS
 62
     7
100
AcDbLine
 10
158.109818
 20
229.037689
 30
0.0
 11
158.146988
 21
229.027842
 31
0.0
  0
LINE
  5
1246
100
AcDbEntity
  8
10000_FRONT
370
    50
390
0
  6
CONTINUOUS
 62
     7
100
AcDbLine
 10
158.146988
 20
229.027842
 30
0.0
 11
158.18388
 21
229.01495
 31
0.0
  0
LINE
  5
1247
100
AcDbEntity
  8
10000_FRONT
370
    50
390
0
  6
CONTINUOUS
 62
     7
100
AcDbLine
 10
158.18388
 20
229.01495
 30
0.0
 11
158.22014
 21
228.998917
 31
0.0
  0
LINE
  5
1248
100
AcDbEntity
  8
10000_FRONT
370
    50
390
0
  6
CONTINUOUS
 62
     7
100
AcDbLine
 10
158.22014
 20
228.998917
 30
0.0
 11
158.25543
 21
228.979763
 31
0.0
  0
LINE
  5
1249
100
AcDbEntity
  8
10000_FRONT
370
    50
390
0
  6
CONTINUOUS
 62
     7
100
AcDbLine
 10
158.25543
 20
228.979763
 30
0.0
 11
158.289435
 21
228.957603
 31
0.0
  0
LINE
  5
124A
100
AcDbEntity
  8
10000_FRONT
370
    50
390
0
  6
CONTINUOUS
 62
     7
100
AcDbLine
 10
158.289435
 20
228.957603
 30
0.0
 11
158.321837
 21
228.932558
 31
0.0
  0
LINE
  5
124B
100
AcDbEntity
  8
10000_FRONT
370
    50
390
0
  6
CONTINUOUS
 62
     7
100
AcDbLine
 10
158.321837
 20
228.932558
 30
0.0
 11
158.352322
 21
228.904747
 31
0.0
  0
LINE
  5
124C
100
AcDbEntity
  8
10000_FRONT
370
    50
390
0
  6
CONTINUOUS
 62
     7
100
AcDbLine
 10
158.352322
 20
228.904747
 30
0.0
 11
158.380595
 21
228.874264
 31
0.0
  0
LINE
  5
124D
100
AcDbEntity
  8
10000_FRONT
370
    50
390
0
  6
CONTINUOUS
 62
     7
100
AcDbLine
 10
158.0
 20
229.049999
 30
0.0
 11
157.664658
 21
229.049999
 31
0.0
  0
LINE
  5
124E
100
AcDbEntity
  8
10000_FRONT
370
    50
390
0
  6
CONTINUOUS
 62
     7
100
AcDbLine
 10
157.612177
 20
228.450001
 30
0.0
 11
157.664658
 21
229.049999
 31
0.0
  0
LINE
  5
124F
100
AcDbEntity
  8
10000_FRONT
370
    50
390
0
  6
CONTINUOUS
 62
     7
100
AcDbLine
 10
158.0
 20
193.950001
 30
0.0
 11
158.036122
 21
193.951336
 31
0.0
  0
LINE
  5
1250
100
AcDbEntity
  8
10000_FRONT
370
    50
390
0
  6
CONTINUOUS
 62
     7
100
AcDbLine
 10
158.036122
 20
193.951336
 30
0.0
 11
158.072815
 21
193.955404
 31
0.0
  0
LINE
  5
1251
100
AcDbEntity
  8
10000_FRONT
370
    50
390
0
  6
CONTINUOUS
 62
     7
100
AcDbLine
 10
158.072815
 20
193.955404
 30
0.0
 11
158.109891
 21
193.962311
 31
0.0
  0
LINE
  5
1252
100
AcDbEntity
  8
10000_FRONT
370
    50
390
0
  6
CONTINUOUS
 62
     7
100
AcDbLine
 10
158.109891
 20
193.962311
 30
0.0
 11
158.147023
 21
193.972157
 31
0.0
  0
LINE
  5
1253
100
AcDbEntity
  8
10000_FRONT
370
    50
390
0
  6
CONTINUOUS
 62
     7
100
AcDbLine
 10
158.147023
 20
193.972157
 30
0.0
 11
158.183883
 21
193.985048
 31
0.0
  0
LINE
  5
1254
100
AcDbEntity
  8
10000_FRONT
370
    50
390
0
  6
CONTINUOUS
 62
     7
100
AcDbLine
 10
158.183883
 20
193.985048
 30
0.0
 11
158.220139
 21
194.001081
 31
0.0
  0
LINE
  5
1255
100
AcDbEntity
  8
10000_FRONT
370
    50
390
0
  6
CONTINUOUS
 62
     7
100
AcDbLine
 10
158.220139
 20
194.001081
 30
0.0
 11
158.25543
 21
194.020237
 31
0.0
  0
LINE
  5
1256
100
AcDbEntity
  8
10000_FRONT
370
    50
390
0
  6
CONTINUOUS
 62
     7
100
AcDbLine
 10
158.25543
 20
194.020237
 30
0.0
 11
158.289434
 21
194.042397
 31
0.0
  0
LINE
  5
1257
100
AcDbEntity
  8
10000_FRONT
370
    50
390
0
  6
CONTINUOUS
 62
     7
100
AcDbLine
 10
158.289434
 20
194.042397
 30
0.0
 11
158.321837
 21
194.067442
 31
0.0
  0
LINE
  5
1258
100
AcDbEntity
  8
10000_FRONT
370
    50
390
0
  6
CONTINUOUS
 62
     7
100
AcDbLine
 10
158.321837
 20
194.067442
 30
0.0
 11
158.352323
 21
194.095253
 31
0.0
  0
LINE
  5
1259
100
AcDbEntity
  8
10000_FRONT
370
    50
390
0
  6
CONTINUOUS
 62
     7
100
AcDbLine
 10
158.352323
 20
194.095253
 30
0.0
 11
158.380596
 21
194.125736
 31
0.0
  0
LINE
  5
125A
100
AcDbEntity
  8
10000_FRONT
370
    50
390
0
  6
CONTINUOUS
 62
     7
100
AcDbLine
 10
149.0
 20
193.950001
 30
0.0
 11
148.963879
 21
193.951336
 31
0.0
  0
LINE
  5
125B
100
AcDbEntity
  8
10000_FRONT
370
    50
390
0
  6
CONTINUOUS
 62
     7
100
AcDbLine
 10
148.963879
 20
193.951336
 30
0.0
 11
148.927185
 21
193.955404
 31
0.0
  0
LINE
  5
125C
100
AcDbEntity
  8
10000_FRONT
370
    50
390
0
  6
CONTINUOUS
 62
     7
100
AcDbLine
 10
148.927185
 20
193.955404
 30
0.0
 11
148.890109
 21
193.962311
 31
0.0
  0
LINE
  5
125D
100
AcDbEntity
  8
10000_FRONT
370
    50
390
0
  6
CONTINUOUS
 62
     7
100
AcDbLine
 10
148.890109
 20
193.962311
 30
0.0
 11
148.852978
 21
193.972157
 31
0.0
  0
LINE
  5
125E
100
AcDbEntity
  8
10000_FRONT
370
    50
390
0
  6
CONTINUOUS
 62
     7
100
AcDbLine
 10
148.852978
 20
193.972157
 30
0.0
 11
148.816117
 21
193.985048
 31
0.0
  0
LINE
  5
125F
100
AcDbEntity
  8
10000_FRONT
370
    50
390
0
  6
CONTINUOUS
 62
     7
100
AcDbLine
 10
148.816117
 20
193.985048
 30
0.0
 11
148.779862
 21
194.001081
 31
0.0
  0
LINE
  5
1260
100
AcDbEntity
  8
10000_FRONT
370
    50
390
0
  6
CONTINUOUS
 62
     7
100
AcDbLine
 10
148.779862
 20
194.001081
 30
0.0
 11
148.744571
 21
194.020237
 31
0.0
  0
LINE
  5
1261
100
AcDbEntity
  8
10000_FRONT
370
    50
390
0
  6
CONTINUOUS
 62
     7
100
AcDbLine
 10
148.744571
 20
194.020237
 30
0.0
 11
148.710566
 21
194.042397
 31
0.0
  0
LINE
  5
1262
100
AcDbEntity
  8
10000_FRONT
370
    50
390
0
  6
CONTINUOUS
 62
     7
100
AcDbLine
 10
148.710566
 20
194.042397
 30
0.0
 11
148.678163
 21
194.06744
 31
0.0
  0
LINE
  5
1263
100
AcDbEntity
  8
10000_FRONT
370
    50
390
0
  6
CONTINUOUS
 62
     7
100
AcDbLine
 10
148.678163
 20
194.06744
 30
0.0
 11
148.647678
 21
194.095253
 31
0.0
  0
LINE
  5
1264
100
AcDbEntity
  8
10000_FRONT
370
    50
390
0
  6
CONTINUOUS
 62
     7
100
AcDbLine
 10
148.647678
 20
194.095253
 30
0.0
 11
148.619405
 21
194.125736
 31
0.0
  0
LINE
  5
1265
100
AcDbEntity
  8
10000_FRONT
370
    50
390
0
  6
CONTINUOUS
 62
     7
100
AcDbLine
 10
158.0
 20
183.4
 30
0.0
 11
158.036039
 21
183.360519
 31
0.0
  0
LINE
  5
1266
100
AcDbEntity
  8
10000_FRONT
370
    50
390
0
  6
CONTINUOUS
 62
     7
100
AcDbLine
 10
158.036039
 20
183.360519
 30
0.0
 11
158.072708
 21
183.320322
 31
0.0
  0
LINE
  5
1267
100
AcDbEntity
  8
10000_FRONT
370
    50
390
0
  6
CONTINUOUS
 62
     7
100
AcDbLine
 10
158.072708
 20
183.320322
 30
0.0
 11
158.109808
 21
183.279593
 31
0.0
  0
LINE
  5
1268
100
AcDbEntity
  8
10000_FRONT
370
    50
390
0
  6
CONTINUOUS
 62
     7
100
AcDbLine
 10
158.109808
 20
183.279593
 30
0.0
 11
158.146984
 21
183.238688
 31
0.0
  0
LINE
  5
1269
100
AcDbEntity
  8
10000_FRONT
370
    50
390
0
  6
CONTINUOUS
 62
     7
100
AcDbLine
 10
158.146984
 20
183.238688
 30
0.0
 11
158.183879
 21
183.197962
 31
0.0
  0
LINE
  5
126A
100
AcDbEntity
  8
10000_FRONT
370
    50
390
0
  6
CONTINUOUS
 62
     7
100
AcDbLine
 10
158.183879
 20
183.197962
 30
0.0
 11
158.22014
 21
183.15777
 31
0.0
  0
LINE
  5
126B
100
AcDbEntity
  8
10000_FRONT
370
    50
390
0
  6
CONTINUOUS
 62
     7
100
AcDbLine
 10
158.22014
 20
183.15777
 30
0.0
 11
158.25543
 21
183.118437
 31
0.0
  0
LINE
  5
126C
100
AcDbEntity
  8
10000_FRONT
370
    50
390
0
  6
CONTINUOUS
 62
     7
100
AcDbLine
 10
158.25543
 20
183.118437
 30
0.0
 11
158.289435
 21
183.080265
 31
0.0
  0
LINE
  5
126D
100
AcDbEntity
  8
10000_FRONT
370
    50
390
0
  6
CONTINUOUS
 62
     7
100
AcDbLine
 10
158.289435
 20
183.080265
 30
0.0
 11
158.321837
 21
183.04356
 31
0.0
  0
LINE
  5
126E
100
AcDbEntity
  8
10000_FRONT
370
    50
390
0
  6
CONTINUOUS
 62
     7
100
AcDbLine
 10
158.321837
 20
183.04356
 30
0.0
 11
158.352322
 21
183.008623
 31
0.0
  0
LINE
  5
126F
100
AcDbEntity
  8
10000_FRONT
370
    50
390
0
  6
CONTINUOUS
 62
     7
100
AcDbLine
 10
158.352322
 20
183.008623
 30
0.0
 11
158.380595
 21
182.975737
 31
0.0
  0
ARC
  5
1270
100
AcDbEntity
  8
10000_FRONT
370
    50
390
0
  6
CONTINUOUS
 62
     7
100
AcDbCircle
 10
158.0
 20
183.3
 30
0.0
 40
0.5
100
AcDbArc
 50
319.569328
 51
359.999913
  0
ARC
  5
1271
100
AcDbEntity
  8
10000_FRONT
370
    50
390
0
  6
CONTINUOUS
 62
     7
100
AcDbCircle
 10
149.0
 20
183.3
 30
0.0
 40
0.5
100
AcDbArc
 50
180.000087
 51
220.430672
  0
LINE
  5
1272
100
AcDbEntity
  8
10000_FRONT
370
    50
390
0
  6
CONTINUOUS
 62
     7
100
AcDbLine
 10
148.619405
 20
182.975737
 30
0.0
 11
148.647678
 21
183.008623
 31
0.0
  0
LINE
  5
1273
100
AcDbEntity
  8
10000_FRONT
370
    50
390
0
  6
CONTINUOUS
 62
     7
100
AcDbLine
 10
148.647678
 20
183.008623
 30
0.0
 11
148.678163
 21
183.04356
 31
0.0
  0
LINE
  5
1274
100
AcDbEntity
  8
10000_FRONT
370
    50
390
0
  6
CONTINUOUS
 62
     7
100
AcDbLine
 10
148.678163
 20
183.04356
 30
0.0
 11
148.710565
 21
183.080265
 31
0.0
  0
LINE
  5
1275
100
AcDbEntity
  8
10000_FRONT
370
    50
390
0
  6
CONTINUOUS
 62
     7
100
AcDbLine
 10
148.710565
 20
183.080265
 30
0.0
 11
148.74457
 21
183.118437
 31
0.0
  0
LINE
  5
1276
100
AcDbEntity
  8
10000_FRONT
370
    50
390
0
  6
CONTINUOUS
 62
     7
100
AcDbLine
 10
148.74457
 20
183.118437
 30
0.0
 11
148.77986
 21
183.15777
 31
0.0
  0
LINE
  5
1277
100
AcDbEntity
  8
10000_FRONT
370
    50
390
0
  6
CONTINUOUS
 62
     7
100
AcDbLine
 10
148.77986
 20
183.15777
 30
0.0
 11
148.816121
 21
183.197962
 31
0.0
  0
LINE
  5
1278
100
AcDbEntity
  8
10000_FRONT
370
    50
390
0
  6
CONTINUOUS
 62
     7
100
AcDbLine
 10
148.816121
 20
183.197962
 30
0.0
 11
148.853016
 21
183.238688
 31
0.0
  0
LINE
  5
1279
100
AcDbEntity
  8
10000_FRONT
370
    50
390
0
  6
CONTINUOUS
 62
     7
100
AcDbLine
 10
148.853016
 20
183.238688
 30
0.0
 11
148.890192
 21
183.279593
 31
0.0
  0
LINE
  5
127A
100
AcDbEntity
  8
10000_FRONT
370
    50
390
0
  6
CONTINUOUS
 62
     7
100
AcDbLine
 10
148.890192
 20
183.279593
 30
0.0
 11
148.927292
 21
183.320322
 31
0.0
  0
LINE
  5
127B
100
AcDbEntity
  8
10000_FRONT
370
    50
390
0
  6
CONTINUOUS
 62
     7
100
AcDbLine
 10
148.927292
 20
183.320322
 30
0.0
 11
148.963961
 21
183.360519
 31
0.0
  0
LINE
  5
127C
100
AcDbEntity
  8
10000_FRONT
370
    50
390
0
  6
CONTINUOUS
 62
     7
100
AcDbLine
 10
148.963961
 20
183.360519
 30
0.0
 11
149.0
 21
183.4
 31
0.0
  0
LINE
  5
127D
100
AcDbEntity
  8
10000_FRONT
370
    50
390
0
  6
CONTINUOUS
 62
     7
100
AcDbLine
 10
149.0
 20
188.35
 30
0.0
 11
149.0
 21
187.08334
 31
0.0
  0
LINE
  5
127E
100
AcDbEntity
  8
10000_FRONT
370
    50
390
0
  6
CONTINUOUS
 62
     7
100
AcDbLine
 10
149.0
 20
185.67342
 30
0.0
 11
149.0
 21
183.4
 31
0.0
  0
LINE
  5
127F
100
AcDbEntity
  8
10000_FRONT
370
    50
390
0
  6
CONTINUOUS
 62
     7
100
AcDbLine
 10
158.0
 20
182.799999
 30
0.0
 11
158.036048
 21
182.801336
 31
0.0
  0
LINE
  5
1280
100
AcDbEntity
  8
10000_FRONT
370
    50
390
0
  6
CONTINUOUS
 62
     7
100
AcDbLine
 10
158.036048
 20
182.801336
 30
0.0
 11
158.072721
 21
182.805405
 31
0.0
  0
LINE
  5
1281
100
AcDbEntity
  8
10000_FRONT
370
    50
390
0
  6
CONTINUOUS
 62
     7
100
AcDbLine
 10
158.072721
 20
182.805405
 30
0.0
 11
158.109818
 21
182.812311
 31
0.0
  0
LINE
  5
1282
100
AcDbEntity
  8
10000_FRONT
370
    50
390
0
  6
CONTINUOUS
 62
     7
100
AcDbLine
 10
158.109818
 20
182.812311
 30
0.0
 11
158.146988
 21
182.822157
 31
0.0
  0
LINE
  5
1283
100
AcDbEntity
  8
10000_FRONT
370
    50
390
0
  6
CONTINUOUS
 62
     7
100
AcDbLine
 10
158.146988
 20
182.822157
 30
0.0
 11
158.18388
 21
182.835049
 31
0.0
  0
LINE
  5
1284
100
AcDbEntity
  8
10000_FRONT
370
    50
390
0
  6
CONTINUOUS
 62
     7
100
AcDbLine
 10
158.18388
 20
182.835049
 30
0.0
 11
158.22014
 21
182.851082
 31
0.0
  0
LINE
  5
1285
100
AcDbEntity
  8
10000_FRONT
370
    50
390
0
  6
CONTINUOUS
 62
     7
100
AcDbLine
 10
158.22014
 20
182.851082
 30
0.0
 11
158.25543
 21
182.870237
 31
0.0
  0
LINE
  5
1286
100
AcDbEntity
  8
10000_FRONT
370
    50
390
0
  6
CONTINUOUS
 62
     7
100
AcDbLine
 10
158.25543
 20
182.870237
 30
0.0
 11
158.289435
 21
182.892397
 31
0.0
  0
LINE
  5
1287
100
AcDbEntity
  8
10000_FRONT
370
    50
390
0
  6
CONTINUOUS
 62
     7
100
AcDbLine
 10
158.289435
 20
182.892397
 30
0.0
 11
158.321837
 21
182.91744
 31
0.0
  0
LINE
  5
1288
100
AcDbEntity
  8
10000_FRONT
370
    50
390
0
  6
CONTINUOUS
 62
     7
100
AcDbLine
 10
158.321837
 20
182.91744
 30
0.0
 11
158.352322
 21
182.945253
 31
0.0
  0
LINE
  5
1289
100
AcDbEntity
  8
10000_FRONT
370
    50
390
0
  6
CONTINUOUS
 62
     7
100
AcDbLine
 10
158.352322
 20
182.945253
 30
0.0
 11
158.380595
 21
182.975737
 31
0.0
  0
LINE
  5
128A
100
AcDbEntity
  8
10000_FRONT
370
    50
390
0
  6
CONTINUOUS
 62
     7
100
AcDbLine
 10
158.0
 20
183.4
 30
0.0
 11
157.15
 21
183.4
 31
0.0
  0
LINE
  5
128B
100
AcDbEntity
  8
10000_FRONT
370
    50
390
0
  6
CONTINUOUS
 62
     7
100
AcDbLine
 10
156.45
 20
183.4
 30
0.0
 11
155.65
 21
183.4
 31
0.0
  0
LINE
  5
128C
100
AcDbEntity
  8
10000_FRONT
370
    50
390
0
  6
CONTINUOUS
 62
     7
100
AcDbLine
 10
154.95
 20
183.4
 30
0.0
 11
154.15
 21
183.4
 31
0.0
  0
LINE
  5
128D
100
AcDbEntity
  8
10000_FRONT
370
    50
390
0
  6
CONTINUOUS
 62
     7
100
AcDbLine
 10
153.45
 20
183.4
 30
0.0
 11
152.65
 21
183.4
 31
0.0
  0
LINE
  5
128E
100
AcDbEntity
  8
10000_FRONT
370
    50
390
0
  6
CONTINUOUS
 62
     7
100
AcDbLine
 10
151.95
 20
183.4
 30
0.0
 11
151.15
 21
183.4
 31
0.0
  0
LINE
  5
128F
100
AcDbEntity
  8
10000_FRONT
370
    50
390
0
  6
CONTINUOUS
 62
     7
100
AcDbLine
 10
150.45
 20
183.4
 30
0.0
 11
149.0
 21
183.4
 31
0.0
  0
LINE
  5
1290
100
AcDbEntity
  8
10000_FRONT
370
    50
390
0
  6
CONTINUOUS
 62
     7
100
AcDbLine
 10
149.0
 20
182.799999
 30
0.0
 11
148.963952
 21
182.801336
 31
0.0
  0
LINE
  5
1291
100
AcDbEntity
  8
10000_FRONT
370
    50
390
0
  6
CONTINUOUS
 62
     7
100
AcDbLine
 10
148.963952
 20
182.801336
 30
0.0
 11
148.927279
 21
182.805405
 31
0.0
  0
LINE
  5
1292
100
AcDbEntity
  8
10000_FRONT
370
    50
390
0
  6
CONTINUOUS
 62
     7
100
AcDbLine
 10
148.927279
 20
182.805405
 30
0.0
 11
148.890182
 21
182.812311
 31
0.0
  0
LINE
  5
1293
100
AcDbEntity
  8
10000_FRONT
370
    50
390
0
  6
CONTINUOUS
 62
     7
100
AcDbLine
 10
148.890182
 20
182.812311
 30
0.0
 11
148.853012
 21
182.822157
 31
0.0
  0
LINE
  5
1294
100
AcDbEntity
  8
10000_FRONT
370
    50
390
0
  6
CONTINUOUS
 62
     7
100
AcDbLine
 10
148.853012
 20
182.822157
 30
0.0
 11
148.81612
 21
182.835049
 31
0.0
  0
LINE
  5
1295
100
AcDbEntity
  8
10000_FRONT
370
    50
390
0
  6
CONTINUOUS
 62
     7
100
AcDbLine
 10
148.81612
 20
182.835049
 30
0.0
 11
148.77986
 21
182.851082
 31
0.0
  0
LINE
  5
1296
100
AcDbEntity
  8
10000_FRONT
370
    50
390
0
  6
CONTINUOUS
 62
     7
100
AcDbLine
 10
148.77986
 20
182.851082
 30
0.0
 11
148.74457
 21
182.870237
 31
0.0
  0
LINE
  5
1297
100
AcDbEntity
  8
10000_FRONT
370
    50
390
0
  6
CONTINUOUS
 62
     7
100
AcDbLine
 10
148.74457
 20
182.870237
 30
0.0
 11
148.710565
 21
182.892397
 31
0.0
  0
LINE
  5
1298
100
AcDbEntity
  8
10000_FRONT
370
    50
390
0
  6
CONTINUOUS
 62
     7
100
AcDbLine
 10
148.710565
 20
182.892397
 30
0.0
 11
148.678163
 21
182.91744
 31
0.0
  0
LINE
  5
1299
100
AcDbEntity
  8
10000_FRONT
370
    50
390
0
  6
CONTINUOUS
 62
     7
100
AcDbLine
 10
148.678163
 20
182.91744
 30
0.0
 11
148.647678
 21
182.945253
 31
0.0
  0
LINE
  5
129A
100
AcDbEntity
  8
10000_FRONT
370
    50
390
0
  6
CONTINUOUS
 62
     7
100
AcDbLine
 10
148.647678
 20
182.945253
 30
0.0
 11
148.619405
 21
182.975737
 31
0.0
  0
LINE
  5
129B
100
AcDbEntity
  8
10000_FRONT
370
    50
390
0
  6
CONTINUOUS
 62
     7
100
AcDbLine
 10
158.0
 20
182.799999
 30
0.0
 11
149.0
 21
182.799999
 31
0.0
  0
LINE
  5
129C
100
AcDbEntity
  8
10000_FRONT
370
    50
390
0
  6
CONTINUOUS
 62
     7
100
AcDbLine
 10
149.0
 20
239.6
 30
0.0
 11
148.963961
 21
239.639481
 31
0.0
  0
LINE
  5
129D
100
AcDbEntity
  8
10000_FRONT
370
    50
390
0
  6
CONTINUOUS
 62
     7
100
AcDbLine
 10
148.963961
 20
239.639481
 30
0.0
 11
148.927292
 21
239.679678
 31
0.0
  0
LINE
  5
129E
100
AcDbEntity
  8
10000_FRONT
370
    50
390
0
  6
CONTINUOUS
 62
     7
100
AcDbLine
 10
148.927292
 20
239.679678
 30
0.0
 11
148.890192
 21
239.720407
 31
0.0
  0
LINE
  5
129F
100
AcDbEntity
  8
10000_FRONT
370
    50
390
0
  6
CONTINUOUS
 62
     7
100
AcDbLine
 10
148.890192
 20
239.720407
 30
0.0
 11
148.853016
 21
239.761312
 31
0.0
  0
LINE
  5
12A0
100
AcDbEntity
  8
10000_FRONT
370
    50
390
0
  6
CONTINUOUS
 62
     7
100
AcDbLine
 10
148.853016
 20
239.761312
 30
0.0
 11
148.816121
 21
239.802038
 31
0.0
  0
LINE
  5
12A1
100
AcDbEntity
  8
10000_FRONT
370
    50
390
0
  6
CONTINUOUS
 62
     7
100
AcDbLine
 10
148.816121
 20
239.802038
 30
0.0
 11
148.77986
 21
239.84223
 31
0.0
  0
LINE
  5
12A2
100
AcDbEntity
  8
10000_FRONT
370
    50
390
0
  6
CONTINUOUS
 62
     7
100
AcDbLine
 10
148.77986
 20
239.84223
 30
0.0
 11
148.74457
 21
239.881563
 31
0.0
  0
LINE
  5
12A3
100
AcDbEntity
  8
10000_FRONT
370
    50
390
0
  6
CONTINUOUS
 62
     7
100
AcDbLine
 10
148.74457
 20
239.881563
 30
0.0
 11
148.710565
 21
239.919735
 31
0.0
  0
LINE
  5
12A4
100
AcDbEntity
  8
10000_FRONT
370
    50
390
0
  6
CONTINUOUS
 62
     7
100
AcDbLine
 10
148.710565
 20
239.919735
 30
0.0
 11
148.678163
 21
239.95644
 31
0.0
  0
LINE
  5
12A5
100
AcDbEntity
  8
10000_FRONT
370
    50
390
0
  6
CONTINUOUS
 62
     7
100
AcDbLine
 10
148.678163
 20
239.95644
 30
0.0
 11
148.647678
 21
239.991377
 31
0.0
  0
LINE
  5
12A6
100
AcDbEntity
  8
10000_FRONT
370
    50
390
0
  6
CONTINUOUS
 62
     7
100
AcDbLine
 10
148.647678
 20
239.991377
 30
0.0
 11
148.619405
 21
240.024263
 31
0.0
  0
ARC
  5
12A7
100
AcDbEntity
  8
10000_FRONT
370
    50
390
0
  6
CONTINUOUS
 62
     7
100
AcDbCircle
 10
149.0
 20
239.7
 30
0.0
 40
0.5
100
AcDbArc
 50
139.569328
 51
179.999913
  0
LINE
  5
12A8
100
AcDbEntity
  8
10000_FRONT
370
    50
390
0
  6
CONTINUOUS
 62
     7
100
AcDbLine
 10
149.0
 20
234.65
 30
0.0
 11
149.0
 21
235.916676
 31
0.0
  0
LINE
  5
12A9
100
AcDbEntity
  8
10000_FRONT
370
    50
390
0
  6
CONTINUOUS
 62
     7
100
AcDbLine
 10
149.0
 20
237.326595
 30
0.0
 11
149.0
 21
239.6
 31
0.0
  0
ARC
  5
12AA
100
AcDbEntity
  8
10000_FRONT
370
    50
390
0
  6
CONTINUOUS
 62
     7
100
AcDbCircle
 10
158.0
 20
239.7
 30
0.0
 40
0.5
100
AcDbArc
 50
0.000087
 51
40.430672
  0
LINE
  5
12AB
100
AcDbEntity
  8
10000_FRONT
370
    50
390
0
  6
CONTINUOUS
 62
     7
100
AcDbLine
 10
158.0
 20
239.6
 30
0.0
 11
158.003003
 21
239.603209
 31
0.0
  0
LINE
  5
12AC
100
AcDbEntity
  8
10000_FRONT
370
    50
390
0
  6
CONTINUOUS
 62
     7
100
AcDbLine
 10
158.003003
 20
239.603209
 30
0.0
 11
158.006092
 21
239.606594
 31
0.0
  0
LINE
  5
12AD
100
AcDbEntity
  8
10000_FRONT
370
    50
390
0
  6
CONTINUOUS
 62
     7
100
AcDbLine
 10
158.006092
 20
239.606594
 30
0.0
 11
158.015014
 21
239.616386
 31
0.0
  0
LINE
  5
12AE
100
AcDbEntity
  8
10000_FRONT
370
    50
390
0
  6
CONTINUOUS
 62
     7
100
AcDbLine
 10
158.015014
 20
239.616386
 30
0.0
 11
158.030272
 21
239.633097
 31
0.0
  0
LINE
  5
12AF
100
AcDbEntity
  8
10000_FRONT
370
    50
390
0
  6
CONTINUOUS
 62
     7
100
AcDbLine
 10
158.030272
 20
239.633097
 30
0.0
 11
158.051119
 21
239.655933
 31
0.0
  0
LINE
  5
12B0
100
AcDbEntity
  8
10000_FRONT
370
    50
390
0
  6
CONTINUOUS
 62
     7
100
AcDbLine
 10
158.051119
 20
239.655933
 30
0.0
 11
158.076813
 21
239.684113
 31
0.0
  0
LINE
  5
12B1
100
AcDbEntity
  8
10000_FRONT
370
    50
390
0
  6
CONTINUOUS
 62
     7
100
AcDbLine
 10
158.076813
 20
239.684113
 30
0.0
 11
158.106609
 21
239.716843
 31
0.0
  0
LINE
  5
12B2
100
AcDbEntity
  8
10000_FRONT
370
    50
390
0
  6
CONTINUOUS
 62
     7
100
AcDbLine
 10
158.106609
 20
239.716843
 30
0.0
 11
158.139764
 21
239.753338
 31
0.0
  0
LINE
  5
12B3
100
AcDbEntity
  8
10000_FRONT
370
    50
390
0
  6
CONTINUOUS
 62
     7
100
AcDbLine
 10
158.139764
 20
239.753338
 30
0.0
 11
158.175533
 21
239.79281
 31
0.0
  0
LINE
  5
12B4
100
AcDbEntity
  8
10000_FRONT
370
    50
390
0
  6
CONTINUOUS
 62
     7
100
AcDbLine
 10
158.175533
 20
239.79281
 30
0.0
 11
158.212446
 21
239.833679
 31
0.0
  0
LINE
  5
12B5
100
AcDbEntity
  8
10000_FRONT
370
    50
390
0
  6
CONTINUOUS
 62
     7
100
AcDbLine
 10
158.212446
 20
239.833679
 30
0.0
 11
158.248673
 21
239.874002
 31
0.0
  0
LINE
  5
12B6
100
AcDbEntity
  8
10000_FRONT
370
    50
390
0
  6
CONTINUOUS
 62
     7
100
AcDbLine
 10
158.248673
 20
239.874002
 30
0.0
 11
158.283891
 21
239.913479
 31
0.0
  0
LINE
  5
12B7
100
AcDbEntity
  8
10000_FRONT
370
    50
390
0
  6
CONTINUOUS
 62
     7
100
AcDbLine
 10
158.283891
 20
239.913479
 30
0.0
 11
158.317805
 21
239.951845
 31
0.0
  0
LINE
  5
12B8
100
AcDbEntity
  8
10000_FRONT
370
    50
390
0
  6
CONTINUOUS
 62
     7
100
AcDbLine
 10
158.317805
 20
239.951845
 30
0.0
 11
158.350121
 21
239.988836
 31
0.0
  0
LINE
  5
12B9
100
AcDbEntity
  8
10000_FRONT
370
    50
390
0
  6
CONTINUOUS
 62
     7
100
AcDbLine
 10
158.350121
 20
239.988836
 30
0.0
 11
158.380599
 21
240.024261
 31
0.0
  0
LINE
  5
12BA
100
AcDbEntity
  8
10000_FRONT
370
    50
390
0
  6
CONTINUOUS
 62
     7
100
AcDbLine
 10
149.0
 20
240.200001
 30
0.0
 11
148.963961
 21
240.198664
 31
0.0
  0
LINE
  5
12BB
100
AcDbEntity
  8
10000_FRONT
370
    50
390
0
  6
CONTINUOUS
 62
     7
100
AcDbLine
 10
148.963961
 20
240.198664
 30
0.0
 11
148.927292
 21
240.194595
 31
0.0
  0
LINE
  5
12BC
100
AcDbEntity
  8
10000_FRONT
370
    50
390
0
  6
CONTINUOUS
 62
     7
100
AcDbLine
 10
148.927292
 20
240.194595
 30
0.0
 11
148.890192
 21
240.187689
 31
0.0
  0
LINE
  5
12BD
100
AcDbEntity
  8
10000_FRONT
370
    50
390
0
  6
CONTINUOUS
 62
     7
100
AcDbLine
 10
148.890192
 20
240.187689
 30
0.0
 11
148.853016
 21
240.177843
 31
0.0
  0
LINE
  5
12BE
100
AcDbEntity
  8
10000_FRONT
370
    50
390
0
  6
CONTINUOUS
 62
     7
100
AcDbLine
 10
148.853016
 20
240.177843
 30
0.0
 11
148.816121
 21
240.164951
 31
0.0
  0
LINE
  5
12BF
100
AcDbEntity
  8
10000_FRONT
370
    50
390
0
  6
CONTINUOUS
 62
     7
100
AcDbLine
 10
148.816121
 20
240.164951
 30
0.0
 11
148.77986
 21
240.148918
 31
0.0
  0
LINE
  5
12C0
100
AcDbEntity
  8
10000_FRONT
370
    50
390
0
  6
CONTINUOUS
 62
     7
100
AcDbLine
 10
148.77986
 20
240.148918
 30
0.0
 11
148.74457
 21
240.129763
 31
0.0
  0
LINE
  5
12C1
100
AcDbEntity
  8
10000_FRONT
370
    50
390
0
  6
CONTINUOUS
 62
     7
100
AcDbLine
 10
148.74457
 20
240.129763
 30
0.0
 11
148.710565
 21
240.107603
 31
0.0
  0
LINE
  5
12C2
100
AcDbEntity
  8
10000_FRONT
370
    50
390
0
  6
CONTINUOUS
 62
     7
100
AcDbLine
 10
148.710565
 20
240.107603
 30
0.0
 11
148.678163
 21
240.08256
 31
0.0
  0
LINE
  5
12C3
100
AcDbEntity
  8
10000_FRONT
370
    50
390
0
  6
CONTINUOUS
 62
     7
100
AcDbLine
 10
148.678163
 20
240.08256
 30
0.0
 11
148.647678
 21
240.054747
 31
0.0
  0
LINE
  5
12C4
100
AcDbEntity
  8
10000_FRONT
370
    50
390
0
  6
CONTINUOUS
 62
     7
100
AcDbLine
 10
148.647678
 20
240.054747
 30
0.0
 11
148.619405
 21
240.024263
 31
0.0
  0
LINE
  5
12C5
100
AcDbEntity
  8
10000_FRONT
370
    50
390
0
  6
CONTINUOUS
 62
     7
100
AcDbLine
 10
149.597085
 20
239.6
 30
0.0
 11
149.0
 21
239.6
 31
0.0
  0
LINE
  5
12C6
100
AcDbEntity
  8
10000_FRONT
370
    50
390
0
  6
CONTINUOUS
 62
     7
100
AcDbLine
 10
158.0
 20
240.200001
 30
0.0
 11
158.036039
 21
240.198664
 31
0.0
  0
LINE
  5
12C7
100
AcDbEntity
  8
10000_FRONT
370
    50
390
0
  6
CONTINUOUS
 62
     7
100
AcDbLine
 10
158.036039
 20
240.198664
 30
0.0
 11
158.072708
 21
240.194595
 31
0.0
  0
LINE
  5
12C8
100
AcDbEntity
  8
10000_FRONT
370
    50
390
0
  6
CONTINUOUS
 62
     7
100
AcDbLine
 10
158.072708
 20
240.194595
 30
0.0
 11
158.109808
 21
240.187689
 31
0.0
  0
LINE
  5
12C9
100
AcDbEntity
  8
10000_FRONT
370
    50
390
0
  6
CONTINUOUS
 62
     7
100
AcDbLine
 10
158.109808
 20
240.187689
 30
0.0
 11
158.146984
 21
240.177843
 31
0.0
  0
LINE
  5
12CA
100
AcDbEntity
  8
10000_FRONT
370
    50
390
0
  6
CONTINUOUS
 62
     7
100
AcDbLine
 10
158.146984
 20
240.177843
 30
0.0
 11
158.183879
 21
240.164951
 31
0.0
  0
LINE
  5
12CB
100
AcDbEntity
  8
10000_FRONT
370
    50
390
0
  6
CONTINUOUS
 62
     7
100
AcDbLine
 10
158.183879
 20
240.164951
 30
0.0
 11
158.22014
 21
240.148918
 31
0.0
  0
LINE
  5
12CC
100
AcDbEntity
  8
10000_FRONT
370
    50
390
0
  6
CONTINUOUS
 62
     7
100
AcDbLine
 10
158.22014
 20
240.148918
 30
0.0
 11
158.25543
 21
240.129763
 31
0.0
  0
LINE
  5
12CD
100
AcDbEntity
  8
10000_FRONT
370
    50
390
0
  6
CONTINUOUS
 62
     7
100
AcDbLine
 10
158.25543
 20
240.129763
 30
0.0
 11
158.289435
 21
240.107603
 31
0.0
  0
LINE
  5
12CE
100
AcDbEntity
  8
10000_FRONT
370
    50
390
0
  6
CONTINUOUS
 62
     7
100
AcDbLine
 10
158.289435
 20
240.107603
 30
0.0
 11
158.321837
 21
240.08256
 31
0.0
  0
LINE
  5
12CF
100
AcDbEntity
  8
10000_FRONT
370
    50
390
0
  6
CONTINUOUS
 62
     7
100
AcDbLine
 10
158.321837
 20
240.08256
 30
0.0
 11
158.352322
 21
240.054747
 31
0.0
  0
LINE
  5
12D0
100
AcDbEntity
  8
10000_FRONT
370
    50
390
0
  6
CONTINUOUS
 62
     7
100
AcDbLine
 10
158.352322
 20
240.054747
 30
0.0
 11
158.380595
 21
240.024263
 31
0.0
  0
LINE
  5
12D1
100
AcDbEntity
  8
10000_FRONT
370
    50
390
0
  6
CONTINUOUS
 62
     7
100
AcDbLine
 10
158.0
 20
240.200001
 30
0.0
 11
149.0
 21
240.200001
 31
0.0
  0
LINE
  5
12D2
100
AcDbEntity
  8
10000_FRONT
370
    50
390
0
  6
CONTINUOUS
 62
     7
100
AcDbLine
 10
147.701822
 20
200.25
 30
0.0
 11
147.969771
 21
200.25
 31
0.0
  0
LINE
  5
12D3
100
AcDbEntity
  8
10000_FRONT
370
    50
390
0
  6
CONTINUOUS
 62
     7
100
AcDbLine
 10
148.233873
 20
200.25
 30
0.0
 11
147.969771
 21
200.25
 31
0.0
  0
LINE
  5
12D4
100
AcDbEntity
  8
10000_FRONT
370
    50
390
0
  6
CONTINUOUS
 62
     7
100
AcDbLine
 10
148.233873
 20
200.25
 30
0.0
 11
148.499996
 21
200.25
 31
0.0
  0
LINE
  5
12D5
100
AcDbEntity
  8
10000_FRONT
370
    50
390
0
  6
CONTINUOUS
 62
     7
100
AcDbLine
 10
148.499996
 20
198.25
 30
0.0
 11
148.499996
 21
200.25
 31
0.0
  0
LINE
  5
12D6
100
AcDbEntity
  8
10000_FRONT
370
    50
390
0
  6
CONTINUOUS
 62
     7
100
AcDbLine
 10
148.233873
 20
200.25
 30
0.0
 11
148.233873
 21
198.25
 31
0.0
  0
LINE
  5
12D7
100
AcDbEntity
  8
10000_FRONT
370
    50
390
0
  6
CONTINUOUS
 62
     7
100
AcDbLine
 10
148.233873
 20
198.25
 30
0.0
 11
148.499996
 21
198.25
 31
0.0
  0
LINE
  5
12D8
100
AcDbEntity
  8
10000_FRONT
370
    50
390
0
  6
CONTINUOUS
 62
     7
100
AcDbLine
 10
147.969771
 20
198.25
 30
0.0
 11
147.969771
 21
200.25
 31
0.0
  0
LINE
  5
12D9
100
AcDbEntity
  8
10000_FRONT
370
    50
390
0
  6
CONTINUOUS
 62
     7
100
AcDbLine
 10
148.233873
 20
198.25
 30
0.0
 11
147.969771
 21
198.25
 31
0.0
  0
LINE
  5
12DA
100
AcDbEntity
  8
10000_FRONT
370
    50
390
0
  6
CONTINUOUS
 62
     7
100
AcDbLine
 10
147.701822
 20
198.25
 30
0.0
 11
147.701822
 21
200.25
 31
0.0
  0
LINE
  5
12DB
100
AcDbEntity
  8
10000_FRONT
370
    50
390
0
  6
CONTINUOUS
 62
     7
100
AcDbLine
 10
147.701822
 20
198.25
 30
0.0
 11
147.969771
 21
198.25
 31
0.0
  0
LINE
  5
12DC
100
AcDbEntity
  8
10000_FRONT
370
    50
390
0
  6
CONTINUOUS
 62
     7
100
AcDbLine
 10
147.701822
 20
224.75
 30
0.0
 11
147.969771
 21
224.75
 31
0.0
  0
LINE
  5
12DD
100
AcDbEntity
  8
10000_FRONT
370
    50
390
0
  6
CONTINUOUS
 62
     7
100
AcDbLine
 10
148.233873
 20
224.75
 30
0.0
 11
147.969771
 21
224.75
 31
0.0
  0
LINE
  5
12DE
100
AcDbEntity
  8
10000_FRONT
370
    50
390
0
  6
CONTINUOUS
 62
     7
100
AcDbLine
 10
148.233873
 20
224.75
 30
0.0
 11
148.499996
 21
224.75
 31
0.0
  0
LINE
  5
12DF
100
AcDbEntity
  8
10000_FRONT
370
    50
390
0
  6
CONTINUOUS
 62
     7
100
AcDbLine
 10
148.499996
 20
222.75
 30
0.0
 11
148.499996
 21
224.75
 31
0.0
  0
LINE
  5
12E0
100
AcDbEntity
  8
10000_FRONT
370
    50
390
0
  6
CONTINUOUS
 62
     7
100
AcDbLine
 10
148.233873
 20
224.75
 30
0.0
 11
148.233873
 21
222.75
 31
0.0
  0
LINE
  5
12E1
100
AcDbEntity
  8
10000_FRONT
370
    50
390
0
  6
CONTINUOUS
 62
     7
100
AcDbLine
 10
148.233873
 20
222.75
 30
0.0
 11
148.499996
 21
222.75
 31
0.0
  0
LINE
  5
12E2
100
AcDbEntity
  8
10000_FRONT
370
    50
390
0
  6
CONTINUOUS
 62
     7
100
AcDbLine
 10
147.969771
 20
222.75
 30
0.0
 11
147.969771
 21
224.75
 31
0.0
  0
LINE
  5
12E3
100
AcDbEntity
  8
10000_FRONT
370
    50
390
0
  6
CONTINUOUS
 62
     7
100
AcDbLine
 10
148.233873
 20
222.75
 30
0.0
 11
147.969771
 21
222.75
 31
0.0
  0
LINE
  5
12E4
100
AcDbEntity
  8
10000_FRONT
370
    50
390
0
  6
CONTINUOUS
 62
     7
100
AcDbLine
 10
147.701822
 20
222.75
 30
0.0
 11
147.701822
 21
224.75
 31
0.0
  0
LINE
  5
12E5
100
AcDbEntity
  8
10000_FRONT
370
    50
390
0
  6
CONTINUOUS
 62
     7
100
AcDbLine
 10
147.701822
 20
222.75
 30
0.0
 11
147.969771
 21
222.75
 31
0.0
  0
LINE
  5
12E6
100
AcDbEntity
  8
10000_FRONT
370
    50
390
0
  6
CONTINUOUS
 62
     7
100
AcDbLine
 10
148.5
 20
231.200001
 30
0.0
 11
145.5
 21
231.200001
 31
0.0
  0
LINE
  5
12E7
100
AcDbEntity
  8
10000_FRONT
370
    50
390
0
  6
CONTINUOUS
 62
     7
100
AcDbLine
 10
145.5
 20
234.200001
 30
0.0
 11
145.5
 21
231.200001
 31
0.0
  0
LINE
  5
12E8
100
AcDbEntity
  8
10000_FRONT
370
    50
390
0
  6
CONTINUOUS
 62
     7
100
AcDbLine
 10
148.5
 20
234.200001
 30
0.0
 11
145.5
 21
234.200001
 31
0.0
  0
LINE
  5
12E9
100
AcDbEntity
  8
10000_FRONT
370
    50
390
0
  6
CONTINUOUS
 62
     7
100
AcDbLine
 10
148.5
 20
188.799999
 30
0.0
 11
145.5
 21
188.799999
 31
0.0
  0
LINE
  5
12EA
100
AcDbEntity
  8
10000_FRONT
370
    50
390
0
  6
CONTINUOUS
 62
     7
100
AcDbLine
 10
153.5
 20
191.799999
 30
0.0
 11
149.769048
 21
191.799999
 31
0.0
  0
LINE
  5
12EB
100
AcDbEntity
  8
10000_FRONT
370
    50
390
0
  6
CONTINUOUS
 62
     7
100
AcDbLine
 10
153.5
 20
189.4
 30
0.0
 11
153.5
 21
191.799999
 31
0.0
  0
LINE
  5
12EC
100
AcDbEntity
  8
10000_FRONT
370
    50
390
0
  6
CONTINUOUS
 62
     7
100
AcDbLine
 10
148.5
 20
191.799999
 30
0.0
 11
145.5
 21
191.799999
 31
0.0
  0
LINE
  5
12ED
100
AcDbEntity
  8
10000_FRONT
370
    50
390
0
  6
CONTINUOUS
 62
     7
100
AcDbLine
 10
145.5
 20
191.799999
 30
0.0
 11
145.5
 21
188.799999
 31
0.0
  0
LINE
  5
12EE
100
AcDbEntity
  8
10000_FRONT
370
    50
390
0
  6
CONTINUOUS
 62
     7
100
AcDbLine
 10
153.5
 20
231.200001
 30
0.0
 11
153.5
 21
233.6
 31
0.0
  0
LINE
  5
12EF
100
AcDbEntity
  8
10000_FRONT
370
    50
390
0
  6
CONTINUOUS
 62
     7
100
AcDbLine
 10
153.5
 20
231.200001
 30
0.0
 11
149.769048
 21
231.200001
 31
0.0
  0
LINE
  5
12F0
100
AcDbEntity
  8
10000_FRONT
370
    50
390
0
  6
CONTINUOUS
 62
     7
100
AcDbLine
 10
148.500017
 20
210.05
 30
0.0
 11
143.5
 21
210.05
 31
0.0
  0
LINE
  5
12F1
100
AcDbEntity
  8
10000_FRONT
370
    50
390
0
  6
CONTINUOUS
 62
     7
100
AcDbLine
 10
148.500017
 20
212.95
 30
0.0
 11
143.5
 21
212.95
 31
0.0
  0
LINE
  5
12F2
100
AcDbEntity
  8
10000_FRONT
370
    50
390
0
  6
CONTINUOUS
 62
     7
100
AcDbLine
 10
143.5
 20
212.95
 30
0.0
 11
143.5
 21
210.05
 31
0.0
  0
ARC
  5
12F3
100
AcDbEntity
  8
10000_FRONT
370
    50
390
0
  6
CONTINUOUS
 62
     7
100
AcDbCircle
 10
153.5
 20
229.5
 30
0.0
 40
3.25
100
AcDbArc
 50
270.0
 51
90.0
  0
ARC
  5
12F4
100
AcDbEntity
  8
10000_FRONT
370
    50
390
0
  6
CONTINUOUS
 62
     7
100
AcDbCircle
 10
153.5
 20
193.5
 30
0.0
 40
3.25
100
AcDbArc
 50
270.0
 51
90.0
  0
ARC
  5
12F5
100
AcDbEntity
  8
10000_FRONT
370
    50
390
0
  6
CONTINUOUS
 62
     7
100
AcDbCircle
 10
153.5
 20
229.5
 30
0.0
 40
4.1
100
AcDbArc
 50
298.592119
 51
90.0
  0
ARC
  5
12F6
100
AcDbEntity
  8
10000_FRONT
370
    50
390
0
  6
CONTINUOUS
 62
     7
100
AcDbCircle
 10
153.5
 20
193.5
 30
0.0
 40
4.1
100
AcDbArc
 50
270.0
 51
61.407881
  0
LINE
  5
12F7
100
AcDbEntity
  8
10000_FRONT
370
    50
390
0
  6
CONTINUOUS
 62
     7
100
AcDbLine
 10
158.5
 20
188.950001
 30
0.0
 11
148.5
 21
188.950001
 31
0.0
  0
LINE
  5
12F8
100
AcDbEntity
  8
10000_FRONT
370
    50
390
0
  6
CONTINUOUS
 62
     7
100
AcDbLine
 10
149.335342
 20
193.950001
 30
0.0
 11
149.387823
 21
194.549999
 31
0.0
  0
LINE
  5
12F9
100
AcDbEntity
  8
10000_FRONT
370
    50
390
0
  6
CONTINUOUS
 62
     7
100
AcDbLine
 10
157.611346
 20
194.549999
 30
0.0
 11
157.663826
 21
193.950001
 31
0.0
  0
LINE
  5
12FA
100
AcDbEntity
  8
10000_FRONT
370
    50
390
0
  6
CONTINUOUS
 62
     7
100
AcDbLine
 10
149.335342
 20
193.950001
 30
0.0
 11
149.0
 21
193.950001
 31
0.0
  0
LINE
  5
12FB
100
AcDbEntity
  8
10000_FRONT
370
    50
390
0
  6
CONTINUOUS
 62
     7
100
AcDbLine
 10
158.0
 20
193.950001
 30
0.0
 11
157.663826
 21
193.950001
 31
0.0
  0
LINE
  5
12FC
100
AcDbEntity
  8
10000_FRONT
370
    50
390
0
  6
CONTINUOUS
 62
     7
100
AcDbLine
 10
158.5
 20
234.65
 30
0.0
 11
148.5
 21
234.65
 31
0.0
  0
LINE
  5
12FD
100
AcDbEntity
  8
10000_FRONT
370
    50
390
0
  6
CONTINUOUS
 62
     7
100
AcDbLine
 10
158.5
 20
234.049999
 30
0.0
 11
148.5
 21
234.049999
 31
0.0
  0
LINE
  5
12FE
100
AcDbEntity
  8
10000_FRONT
370
    50
390
0
  6
CONTINUOUS
 62
     7
100
AcDbLine
 10
158.5
 20
188.35
 30
0.0
 11
148.5
 21
188.35
 31
0.0
  0
LINE
  5
12FF
100
AcDbEntity
  8
90000_FRAME
370
    13
  6
CONTINUOUS
 62
     7
100
AcDbLine
 10
50.704072
 20
59.496858
 30
0.0
 11
50.704072
 21
329.496858
 31
0.0
  0
LINE
  5
1300
100
AcDbEntity
  8
90000_FRAME
370
    13
  6
CONTINUOUS
 62
     7
100
AcDbLine
 10
250.704072
 20
329.496858
 30
0.0
 11
50.704072
 21
329.496858
 31
0.0
  0
LINE
  5
1301
100
AcDbEntity
  8
91000_TIP
370
    13
  6
CONTINUOUS
 62
     7
100
AcDbLine
 10
82.083533
 20
75.706949
 30
0.0
 11
92.083533
 21
78.206949
 31
0.0
  0
LINE
  5
1302
100
AcDbEntity
  8
91000_TIP
370
    13
  6
CONTINUOUS
 62
     7
100
AcDbLine
 10
80.804022
 20
73.206949
 30
0.0
 11
104.406012
 21
73.206949
 31
0.0
  0
LINE
  5
1303
100
AcDbEntity
  8
91000_TIP
370
    13
  6
CONTINUOUS
 62
     7
100
AcDbLine
 10
82.083533
 20
70.706949
 30
0.0
 11
92.083533
 21
68.206949
 31
0.0
  0
LINE
  5
1304
100
AcDbEntity
  8
91000_TIP
370
    13
  6
CONTINUOUS
 62
     7
100
AcDbLine
 10
82.083533
 20
75.706949
 30
0.0
 11
82.083533
 21
70.706949
 31
0.0
  0
LINE
  5
1305
100
AcDbEntity
  8
91000_TIP
370
    13
  6
CONTINUOUS
 62
     7
100
AcDbLine
 10
92.083533
 20
78.206949
 30
0.0
 11
92.083533
 21
68.206949
 31
0.0
  0
LINE
  5
1306
100
AcDbEntity
  8
91000_TIP
370
    13
  6
CONTINUOUS
 62
     7
100
AcDbLine
 10
98.583532
 20
67.485468
 30
0.0
 11
98.583532
 21
78.768854
 31
0.0
  0
CIRCLE
  5
1307
100
AcDbEntity
  8
91000_TIP
370
    13
  6
CONTINUOUS
 62
     7
100
AcDbCircle
 10
98.583532
 20
73.206949
 30
0.0
 40
5.0
  0
CIRCLE
  5
1308
100
AcDbEntity
  8
91000_TIP
370
    13
  6
CONTINUOUS
 62
     7
100
AcDbCircle
 10
98.583532
 20
73.206949
 30
0.0
 40
2.5
  0
TEXT
  5
1309
100
AcDbEntity
  8
90000_FRAME
370
    13
  6
CONTINUOUS
 62
     7
100
AcDbText
 10
111.263613
 20
84.274562
 30
0.0
 40
2.2
  1
All dimensions are in millimeters (mm)
 41
0.961374
100
AcDbText
  0
TEXT
  5
130A
100
AcDbEntity
  8
90000_FRAME
370
    13
  6
CONTINUOUS
 62
     7
100
AcDbText
 10
111.263613
 20
87.403585
 30
0.0
 40
2.2
  1
Alle Bemassungswerte sind in Millimeter (mm) angegeben.
 41
0.825144
100
AcDbText
  0
LINE
  5
130B
100
AcDbEntity
  8
90000_FRAME
370
    13
  6
CONTINUOUS
 62
     7
100
AcDbLine
 10
250.704072
 20
59.496858
 30
0.0
 11
250.704072
 21
329.496858
 31
0.0
  0
LINE
  5
130C
100
AcDbEntity
  8
90000_FRAME
370
    13
  6
CONTINUOUS
 62
     7
100
AcDbLine
 10
250.704072
 20
59.496858
 30
0.0
 11
50.704072
 21
59.496858
 31
0.0
  0
TEXT
  5
130D
100
AcDbEntity
  8
90000_FRAME
370
    13
  6
CONTINUOUS
 62
     7
100
AcDbText
 10
162.152155
 20
77.2
 30
0.0
 40
3.0
  1
3RH2921-1DA02
 41
0.784213
100
AcDbText
  0
TEXT
  5
130E
100
AcDbEntity
  8
90000_FRAME
370
    13
  6
CONTINUOUS
 62
     7
100
AcDbText
 10
203.864072
 20
66.396858
 30
0.0
 40
2.2
  1
Massstab/Scale:
 41
0.9
100
AcDbText
  0
TEXT
  5
130F
100
AcDbEntity
  8
90000_FRAME
370
    13
  6
CONTINUOUS
 62
     7
100
AcDbText
 10
162.0
 20
66.396858
 30
0.0
 40
2.2
  1
Format/Size: DIN A4
 41
0.803258
100
AcDbText
  0
LINE
  5
1310
100
AcDbEntity
  8
90000_FRAME
370
    13
  6
CONTINUOUS
 62
     7
100
AcDbLine
 10
245.704072
 20
64.496858
 30
0.0
 11
245.704072
 21
82.496858
 31
0.0
  0
LINE
  5
1311
100
AcDbEntity
  8
90000_FRAME
370
    13
  6
CONTINUOUS
 62
     7
100
AcDbLine
 10
203.204072
 20
64.496858
 30
0.0
 11
203.204072
 21
70.496858
 31
0.0
  0
LINE
  5
1312
100
AcDbEntity
  8
90000_FRAME
370
    13
  6
CONTINUOUS
 62
     7
100
AcDbLine
 10
160.704072
 20
64.496858
 30
0.0
 11
160.704072
 21
82.496858
 31
0.0
  0
LINE
  5
1313
100
AcDbEntity
  8
90000_FRAME
370
    13
  6
CONTINUOUS
 62
     7
100
AcDbLine
 10
110.704072
 20
82.496858
 30
0.0
 11
245.704072
 21
82.496858
 31
0.0
  0
LINE
  5
1314
100
AcDbEntity
  8
90000_FRAME
370
    13
  6
CONTINUOUS
 62
     7
100
AcDbLine
 10
160.704072
 20
70.496858
 30
0.0
 11
245.704072
 21
70.496858
 31
0.0
  0
LINE
  5
1315
100
AcDbEntity
  8
90000_FRAME
370
    13
  6
CONTINUOUS
 62
     7
100
AcDbLine
 10
110.704072
 20
64.496858
 30
0.0
 11
110.704072
 21
82.496858
 31
0.0
  0
LINE
  5
1316
100
AcDbEntity
  8
90000_FRAME
370
    13
  6
CONTINUOUS
 62
     7
100
AcDbLine
 10
110.704072
 20
64.496858
 30
0.0
 11
245.704072
 21
64.496858
 31
0.0
  0
LINE
  5
1317
100
AcDbEntity
  8
90000_FRAME
370
    13
  6
CONTINUOUS
 62
     7
100
AcDbLine
 10
124.890272
 20
75.911406
 30
0.0
 11
124.890272
 21
71.158137
 31
0.0
  0
LINE
  5
1318
100
AcDbEntity
  8
90000_FRAME
370
    13
  6
CONTINUOUS
 62
     7
100
AcDbLine
 10
126.316253
 20
75.911406
 30
0.0
 11
126.316253
 21
71.158137
 31
0.0
  0
LINE
  5
1319
100
AcDbEntity
  8
90000_FRAME
370
    13
  6
CONTINUOUS
 62
     7
100
AcDbLine
 10
124.890272
 20
71.158137
 30
0.0
 11
126.316253
 21
71.158137
 31
0.0
  0
LINE
  5
131A
100
AcDbEntity
  8
90000_FRAME
370
    13
  6
CONTINUOUS
 62
     7
100
AcDbLine
 10
124.890272
 20
75.911406
 30
0.0
 11
126.316253
 21
75.911406
 31
0.0
  0
LINE
  5
131B
100
AcDbEntity
  8
90000_FRAME
370
    13
  6
CONTINUOUS
 62
     7
100
AcDbLine
 10
127.409505
 20
75.911406
 30
0.0
 11
127.409505
 21
71.158137
 31
0.0
  0
LINE
  5
131C
100
AcDbEntity
  8
90000_FRAME
370
    13
  6
CONTINUOUS
 62
     7
100
AcDbLine
 10
127.409505
 20
71.158137
 30
0.0
 11
130.974457
 21
71.158137
 31
0.0
  0
LINE
  5
131D
100
AcDbEntity
  8
90000_FRAME
370
    13
  6
CONTINUOUS
 62
     7
100
AcDbLine
 10
130.974457
 20
72.061258
 30
0.0
 11
128.787953
 21
72.061258
 31
0.0
  0
LINE
  5
131E
100
AcDbEntity
  8
90000_FRAME
370
    13
  6
CONTINUOUS
 62
     7
100
AcDbLine
 10
130.974457
 20
72.061258
 30
0.0
 11
130.974457
 21
71.158137
 31
0.0
  0
LINE
  5
131F
100
AcDbEntity
  8
90000_FRAME
370
    13
  6
CONTINUOUS
 62
     7
100
AcDbLine
 10
130.926924
 20
75.911406
 30
0.0
 11
127.409505
 21
75.911406
 31
0.0
  0
LINE
  5
1320
100
AcDbEntity
  8
90000_FRAME
370
    13
  6
CONTINUOUS
 62
     7
100
AcDbLine
 10
130.926924
 20
75.032051
 30
0.0
 11
128.787953
 21
75.032051
 31
0.0
  0
LINE
  5
1321
100
AcDbEntity
  8
90000_FRAME
370
    13
  6
CONTINUOUS
 62
     7
100
AcDbLine
 10
130.926924
 20
75.911406
 30
0.0
 11
130.926924
 21
75.032051
 31
0.0
  0
LINE
  5
1322
100
AcDbEntity
  8
90000_FRAME
370
    13
  6
CONTINUOUS
 62
     7
100
AcDbLine
 10
130.641728
 20
73.178276
 30
0.0
 11
128.787953
 21
73.178276
 31
0.0
  0
LINE
  5
1323
100
AcDbEntity
  8
90000_FRAME
370
    13
  6
CONTINUOUS
 62
     7
100
AcDbLine
 10
130.641728
 20
73.962566
 30
0.0
 11
130.641728
 21
73.178276
 31
0.0
  0
LINE
  5
1324
100
AcDbEntity
  8
90000_FRAME
370
    13
  6
CONTINUOUS
 62
     7
100
AcDbLine
 10
130.641728
 20
73.962566
 30
0.0
 11
128.787953
 21
73.962566
 31
0.0
  0
LINE
  5
1325
100
AcDbEntity
  8
90000_FRAME
370
    13
  6
CONTINUOUS
 62
     7
100
AcDbLine
 10
128.787953
 20
75.032051
 30
0.0
 11
128.787953
 21
73.962566
 31
0.0
  0
LINE
  5
1326
100
AcDbEntity
  8
90000_FRAME
370
    13
  6
CONTINUOUS
 62
     7
100
AcDbLine
 10
128.787953
 20
73.178276
 30
0.0
 11
128.787953
 21
72.061258
 31
0.0
  0
LINE
  5
1327
100
AcDbEntity
  8
90000_FRAME
370
    13
  6
CONTINUOUS
 62
     7
100
AcDbLine
 10
131.782513
 20
71.158137
 30
0.0
 11
131.782513
 21
75.911406
 31
0.0
  0
LINE
  5
1328
100
AcDbEntity
  8
90000_FRAME
370
    13
  6
CONTINUOUS
 62
     7
100
AcDbLine
 10
131.782513
 20
71.158137
 30
0.0
 11
132.733166
 21
71.158137
 31
0.0
  0
LINE
  5
1329
100
AcDbEntity
  8
90000_FRAME
370
    13
  6
CONTINUOUS
 62
     7
100
AcDbLine
 10
137.629034
 20
75.911406
 30
0.0
 11
137.629034
 21
71.158137
 31
0.0
  0
LINE
  5
132A
100
AcDbEntity
  8
90000_FRAME
370
    13
  6
CONTINUOUS
 62
     7
100
AcDbLine
 10
137.629034
 20
71.158137
 30
0.0
 11
136.250586
 21
71.158137
 31
0.0
  0
LINE
  5
132B
100
AcDbEntity
  8
90000_FRAME
370
    13
  6
CONTINUOUS
 62
     7
100
AcDbLine
 10
134.064082
 20
71.110604
 30
0.0
 11
134.91967
 21
71.110604
 31
0.0
  0
LINE
  5
132C
100
AcDbEntity
  8
90000_FRAME
370
    13
  6
CONTINUOUS
 62
     7
100
AcDbLine
 10
134.064082
 20
71.110604
 30
0.0
 11
132.733166
 21
74.200229
 31
0.0
  0
LINE
  5
132D
100
AcDbEntity
  8
90000_FRAME
370
    13
  6
CONTINUOUS
 62
     7
100
AcDbLine
 10
132.733166
 20
71.158137
 30
0.0
 11
132.733166
 21
74.200229
 31
0.0
  0
LINE
  5
132E
100
AcDbEntity
  8
90000_FRAME
370
    13
  6
CONTINUOUS
 62
     7
100
AcDbLine
 10
136.250586
 20
74.247762
 30
0.0
 11
134.91967
 21
71.110604
 31
0.0
  0
LINE
  5
132F
100
AcDbEntity
  8
90000_FRAME
370
    13
  6
CONTINUOUS
 62
     7
100
AcDbLine
 10
133.493689
 20
75.911406
 30
0.0
 11
131.782513
 21
75.911406
 31
0.0
  0
LINE
  5
1330
100
AcDbEntity
  8
90000_FRAME
370
    13
  6
CONTINUOUS
 62
     7
100
AcDbLine
 10
137.629034
 20
75.911406
 30
0.0
 11
135.917857
 21
75.911406
 31
0.0
  0
LINE
  5
1331
100
AcDbEntity
  8
90000_FRAME
370
    13
  6
CONTINUOUS
 62
     7
100
AcDbLine
 10
133.493689
 20
75.911406
 30
0.0
 11
134.729539
 21
73.011912
 31
0.0
  0
LINE
  5
1332
100
AcDbEntity
  8
90000_FRAME
370
    13
  6
CONTINUOUS
 62
     7
100
AcDbLine
 10
135.917857
 20
75.911406
 30
0.0
 11
134.729539
 21
73.011912
 31
0.0
  0
LINE
  5
1333
100
AcDbEntity
  8
90000_FRAME
370
    13
  6
CONTINUOUS
 62
     7
100
AcDbLine
 10
136.250586
 20
74.247762
 30
0.0
 11
136.250586
 21
71.158137
 31
0.0
  0
LINE
  5
1334
100
AcDbEntity
  8
90000_FRAME
370
    13
  6
CONTINUOUS
 62
     7
100
AcDbLine
 10
138.722285
 20
75.911406
 30
0.0
 11
138.722285
 21
71.158137
 31
0.0
  0
LINE
  5
1335
100
AcDbEntity
  8
90000_FRAME
370
    13
  6
CONTINUOUS
 62
     7
100
AcDbLine
 10
138.722285
 20
71.158137
 30
0.0
 11
142.287237
 21
71.158137
 31
0.0
  0
LINE
  5
1336
100
AcDbEntity
  8
90000_FRAME
370
    13
  6
CONTINUOUS
 62
     7
100
AcDbLine
 10
142.287237
 20
72.061258
 30
0.0
 11
140.100733
 21
72.061258
 31
0.0
  0
LINE
  5
1337
100
AcDbEntity
  8
90000_FRAME
370
    13
  6
CONTINUOUS
 62
     7
100
AcDbLine
 10
142.287237
 20
72.061258
 30
0.0
 11
142.287237
 21
71.158137
 31
0.0
  0
LINE
  5
1338
100
AcDbEntity
  8
90000_FRAME
370
    13
  6
CONTINUOUS
 62
     7
100
AcDbLine
 10
142.239705
 20
75.911406
 30
0.0
 11
138.722285
 21
75.911406
 31
0.0
  0
LINE
  5
1339
100
AcDbEntity
  8
90000_FRAME
370
    13
  6
CONTINUOUS
 62
     7
100
AcDbLine
 10
142.239705
 20
75.032051
 30
0.0
 11
140.100733
 21
75.032051
 31
0.0
  0
LINE
  5
133A
100
AcDbEntity
  8
90000_FRAME
370
    13
  6
CONTINUOUS
 62
     7
100
AcDbLine
 10
142.239705
 20
75.911406
 30
0.0
 11
142.239705
 21
75.032051
 31
0.0
  0
LINE
  5
133B
100
AcDbEntity
  8
90000_FRAME
370
    13
  6
CONTINUOUS
 62
     7
100
AcDbLine
 10
141.954508
 20
73.178276
 30
0.0
 11
140.100733
 21
73.178276
 31
0.0
  0
LINE
  5
133C
100
AcDbEntity
  8
90000_FRAME
370
    13
  6
CONTINUOUS
 62
     7
100
AcDbLine
 10
141.954508
 20
73.962566
 30
0.0
 11
141.954508
 21
73.178276
 31
0.0
  0
LINE
  5
133D
100
AcDbEntity
  8
90000_FRAME
370
    13
  6
CONTINUOUS
 62
     7
100
AcDbLine
 10
141.954508
 20
73.962566
 30
0.0
 11
140.100733
 21
73.962566
 31
0.0
  0
LINE
  5
133E
100
AcDbEntity
  8
90000_FRAME
370
    13
  6
CONTINUOUS
 62
     7
100
AcDbLine
 10
140.100733
 20
75.032051
 30
0.0
 11
140.100733
 21
73.962566
 31
0.0
  0
LINE
  5
133F
100
AcDbEntity
  8
90000_FRAME
370
    13
  6
CONTINUOUS
 62
     7
100
AcDbLine
 10
140.100733
 20
73.178276
 30
0.0
 11
140.100733
 21
72.061258
 31
0.0
  0
LINE
  5
1340
100
AcDbEntity
  8
90000_FRAME
370
    13
  6
CONTINUOUS
 62
     7
100
AcDbLine
 10
143.071527
 20
71.158137
 30
0.0
 11
143.071527
 21
75.911406
 31
0.0
  0
LINE
  5
1341
100
AcDbEntity
  8
90000_FRAME
370
    13
  6
CONTINUOUS
 62
     7
100
AcDbLine
 10
147.254403
 20
75.911406
 30
0.0
 11
147.254403
 21
71.158137
 31
0.0
  0
LINE
  5
1342
100
AcDbEntity
  8
90000_FRAME
370
    13
  6
CONTINUOUS
 62
     7
100
AcDbLine
 10
143.071527
 20
71.158137
 30
0.0
 11
144.02218
 21
71.158137
 31
0.0
  0
LINE
  5
1343
100
AcDbEntity
  8
90000_FRAME
370
    13
  6
CONTINUOUS
 62
     7
100
AcDbLine
 10
147.254403
 20
75.911406
 30
0.0
 11
146.30375
 21
75.911406
 31
0.0
  0
LINE
  5
1344
100
AcDbEntity
  8
90000_FRAME
370
    13
  6
CONTINUOUS
 62
     7
100
AcDbLine
 10
144.616339
 20
75.911406
 30
0.0
 11
143.071527
 21
75.911406
 31
0.0
  0
LINE
  5
1345
100
AcDbEntity
  8
90000_FRAME
370
    13
  6
CONTINUOUS
 62
     7
100
AcDbLine
 10
147.254403
 20
71.158137
 30
0.0
 11
145.733357
 21
71.158137
 31
0.0
  0
LINE
  5
1346
100
AcDbEntity
  8
90000_FRAME
370
    13
  6
CONTINUOUS
 62
     7
100
AcDbLine
 10
145.733357
 20
71.158137
 30
0.0
 11
144.02218
 21
74.200229
 31
0.0
  0
LINE
  5
1347
100
AcDbEntity
  8
90000_FRAME
370
    13
  6
CONTINUOUS
 62
     7
100
AcDbLine
 10
144.616339
 20
75.911406
 30
0.0
 11
146.30375
 21
72.964379
 31
0.0
  0
LINE
  5
1348
100
AcDbEntity
  8
90000_FRAME
370
    13
  6
CONTINUOUS
 62
     7
100
AcDbLine
 10
146.30375
 20
75.911406
 30
0.0
 11
146.30375
 21
72.964379
 31
0.0
  0
LINE
  5
1349
100
AcDbEntity
  8
90000_FRAME
370
    13
  6
CONTINUOUS
 62
     7
100
AcDbLine
 10
144.02218
 20
71.158137
 30
0.0
 11
144.02218
 21
74.200229
 31
0.0
  0
LINE
  5
134A
100
AcDbEntity
  8
90000_FRAME
370
    13
  6
CONTINUOUS
 62
     7
100
AcDbLine
 10
148.062459
 20
71.253202
 30
0.0
 11
148.062459
 21
72.203856
 31
0.0
  0
LINE
  5
134B
100
AcDbEntity
  8
90000_FRAME
370
    13
  6
CONTINUOUS
 62
     7
100
AcDbLine
 10
151.389748
 20
74.91322
 30
0.0
 11
151.389748
 21
75.863874
 31
0.0
  0
ARC
  5
134C
100
AcDbEntity
  8
90000_FRAME
370
    13
  6
CONTINUOUS
 62
     7
100
AcDbCircle
 10
149.7671
 20
73.115296
 30
0.0
 40
1.111619
100
AcDbArc
 50
277.709996
 51
295.688493
  0
ARC
  5
134D
100
AcDbEntity
  8
90000_FRAME
370
    13
  6
CONTINUOUS
 62
     7
100
AcDbCircle
 10
150.05141
 20
72.39047
 30
0.0
 40
0.340169
100
AcDbArc
 50
305.503221
 51
72.46529
  0
ARC
  5
134E
100
AcDbEntity
  8
90000_FRAME
370
    13
  6
CONTINUOUS
 62
     7
100
AcDbCircle
 10
149.485416
 20
75.792177
 30
0.0
 40
4.756795
100
AcDbArc
 50
252.59392
 51
280.98166
  0
ARC
  5
134F
100
AcDbEntity
  8
90000_FRAME
370
    13
  6
CONTINUOUS
 62
     7
100
AcDbCircle
 10
149.940252
 20
73.174163
 30
0.0
 40
2.100727
100
AcDbArc
 50
282.405836
 51
311.864443
  0
ARC
  5
1350
100
AcDbEntity
  8
90000_FRAME
370
    13
  6
CONTINUOUS
 62
     7
100
AcDbCircle
 10
149.666688
 20
74.782505
 30
0.0
 40
0.302963
100
AcDbArc
 50
154.440035
 51
221.82017
  0
ARC
  5
1351
100
AcDbEntity
  8
90000_FRAME
370
    13
  6
CONTINUOUS
 62
     7
100
AcDbCircle
 10
149.745909
 20
74.703284
 30
0.0
 40
0.410309
100
AcDbArc
 50
102.828783
 51
149.225964
  0
ARC
  5
1352
100
AcDbEntity
  8
90000_FRAME
370
    13
  6
CONTINUOUS
 62
     7
100
AcDbCircle
 10
150.162935
 20
72.960948
 30
0.0
 40
2.201837
100
AcDbArc
 50
84.040006
 51
103.342766
  0
ARC
  5
1353
100
AcDbEntity
  8
90000_FRAME
370
    13
  6
CONTINUOUS
 62
     7
100
AcDbCircle
 10
149.821972
 20
70.543584
 30
0.0
 40
4.642374
100
AcDbArc
 50
70.262586
 51
82.952419
  0
ARC
  5
1354
100
AcDbEntity
  8
90000_FRAME
370
    13
  6
CONTINUOUS
 62
     7
100
AcDbCircle
 10
149.307953
 20
75.215207
 30
0.0
 40
3.258756
100
AcDbArc
 50
247.530021
 51
280.757952
  0
ARC
  5
1355
100
AcDbEntity
  8
90000_FRAME
370
    13
  6
CONTINUOUS
 62
     7
100
AcDbCircle
 10
142.922987
 20
56.963687
 30
0.0
 40
17.331608
100
AcDbArc
 50
65.341467
 51
67.399777
  0
ARC
  5
1356
100
AcDbEntity
  8
90000_FRAME
370
    13
  6
CONTINUOUS
 62
     7
100
AcDbCircle
 10
153.718849
 20
82.756114
 30
0.0
 40
10.629164
100
AcDbArc
 50
242.86201
 51
247.104203
  0
ARC
  5
1357
100
AcDbEntity
  8
90000_FRAME
370
    13
  6
CONTINUOUS
 62
     7
100
AcDbCircle
 10
149.863948
 20
75.222182
 30
0.0
 40
2.166292
100
AcDbArc
 50
227.311928
 51
242.704032
  0
ARC
  5
1358
100
AcDbEntity
  8
90000_FRAME
370
    13
  6
CONTINUOUS
 62
     7
100
AcDbCircle
 10
149.259917
 20
74.516505
 30
0.0
 40
1.238522
100
AcDbArc
 50
194.795219
 51
225.717655
  0
ARC
  5
1359
100
AcDbEntity
  8
90000_FRAME
370
    13
  6
CONTINUOUS
 62
     7
100
AcDbCircle
 10
149.322075
 20
74.556725
 30
0.0
 40
1.309092
100
AcDbArc
 50
164.197486
 51
195.802514
  0
ARC
  5
135A
100
AcDbEntity
  8
90000_FRAME
370
    13
  6
CONTINUOUS
 62
     7
100
AcDbCircle
 10
149.879099
 20
73.668457
 30
0.0
 40
2.366925
100
AcDbArc
 50
86.221802
 51
120.42726
  0
ARC
  5
135B
100
AcDbEntity
  8
90000_FRAME
370
    13
  6
CONTINUOUS
 62
     7
100
AcDbCircle
 10
149.610242
 20
66.97229
 30
0.0
 40
9.067905
100
AcDbArc
 50
78.682705
 51
87.31476
  0
ARC
  5
135C
100
AcDbEntity
  8
90000_FRAME
370
    13
  6
CONTINUOUS
 62
     7
100
AcDbCircle
 10
149.154173
 20
74.664232
 30
0.0
 40
1.119747
100
AcDbArc
 50
142.813918
 51
167.152295
  0
ARC
  5
135D
100
AcDbEntity
  8
90000_FRAME
370
    13
  6
CONTINUOUS
 62
     7
100
AcDbCircle
 10
149.499483
 20
74.357651
 30
0.0
 40
1.580547
100
AcDbArc
 50
121.214095
 51
141.525477
  0
ARC
  5
135E
100
AcDbEntity
  8
90000_FRAME
370
    13
  6
CONTINUOUS
 62
     7
100
AcDbCircle
 10
150.076657
 20
75.168708
 30
0.0
 40
0.866128
100
AcDbArc
 50
222.776039
 51
239.036243
  0
ARC
  5
135F
100
AcDbEntity
  8
90000_FRAME
370
    13
  6
CONTINUOUS
 62
     7
100
AcDbCircle
 10
147.569947
 20
67.838436
 30
0.0
 40
6.858774
100
AcDbArc
 50
59.902027
 51
68.203648
  0
ARC
  5
1360
100
AcDbEntity
  8
90000_FRAME
370
    13
  6
CONTINUOUS
 62
     7
100
AcDbCircle
 10
150.978442
 20
76.764322
 30
0.0
 40
2.698741
100
AcDbArc
 50
240.0482
 51
251.377967
  0
ARC
  5
1361
100
AcDbEntity
  8
90000_FRAME
370
    13
  6
CONTINUOUS
 62
     7
100
AcDbCircle
 10
150.312985
 20
72.607424
 30
0.0
 40
1.433447
100
AcDbArc
 50
315.890455
 51
333.522926
  0
ARC
  5
1362
100
AcDbEntity
  8
90000_FRAME
370
    13
  6
CONTINUOUS
 62
     7
100
AcDbCircle
 10
150.317623
 20
72.554016
 30
0.0
 40
1.406229
100
AcDbArc
 50
335.386797
 51
24.391512
  0
ARC
  5
1363
100
AcDbEntity
  8
90000_FRAME
370
    13
  6
CONTINUOUS
 62
     7
100
AcDbCircle
 10
150.245418
 20
72.47616
 30
0.0
 40
1.504703
100
AcDbArc
 50
25.956292
 51
59.483483
  0
LINE
  5
1364
100
AcDbEntity
  8
90000_FRAME
370
    13
  6
CONTINUOUS
 62
     7
100
AcDbLine
 10
120.469732
 20
71.253202
 30
0.0
 11
120.469732
 21
72.203856
 31
0.0
  0
LINE
  5
1365
100
AcDbEntity
  8
90000_FRAME
370
    13
  6
CONTINUOUS
 62
     7
100
AcDbLine
 10
123.797021
 20
74.91322
 30
0.0
 11
123.797021
 21
75.863874
 31
0.0
  0
ARC
  5
1366
100
AcDbEntity
  8
90000_FRAME
370
    13
  6
CONTINUOUS
 62
     7
100
AcDbCircle
 10
122.174373
 20
73.115296
 30
0.0
 40
1.111619
100
AcDbArc
 50
277.709996
 51
295.688493
  0
ARC
  5
1367
100
AcDbEntity
  8
90000_FRAME
370
    13
  6
CONTINUOUS
 62
     7
100
AcDbCircle
 10
122.458683
 20
72.39047
 30
0.0
 40
0.340169
100
AcDbArc
 50
305.503221
 51
72.46529
  0
ARC
  5
1368
100
AcDbEntity
  8
90000_FRAME
370
    13
  6
CONTINUOUS
 62
     7
100
AcDbCircle
 10
121.892689
 20
75.792177
 30
0.0
 40
4.756795
100
AcDbArc
 50
252.59392
 51
280.98166
  0
ARC
  5
1369
100
AcDbEntity
  8
90000_FRAME
370
    13
  6
CONTINUOUS
 62
     7
100
AcDbCircle
 10
122.347525
 20
73.174163
 30
0.0
 40
2.100727
100
AcDbArc
 50
282.405836
 51
311.864443
  0
ARC
  5
136A
100
AcDbEntity
  8
90000_FRAME
370
    13
  6
CONTINUOUS
 62
     7
100
AcDbCircle
 10
122.07396
 20
74.782505
 30
0.0
 40
0.302963
100
AcDbArc
 50
154.440035
 51
221.82017
  0
ARC
  5
136B
100
AcDbEntity
  8
90000_FRAME
370
    13
  6
CONTINUOUS
 62
     7
100
AcDbCircle
 10
122.153182
 20
74.703284
 30
0.0
 40
0.410309
100
AcDbArc
 50
102.828783
 51
149.225964
  0
ARC
  5
136C
100
AcDbEntity
  8
90000_FRAME
370
    13
  6
CONTINUOUS
 62
     7
100
AcDbCircle
 10
122.570208
 20
72.960948
 30
0.0
 40
2.201837
100
AcDbArc
 50
84.040006
 51
103.342766
  0
ARC
  5
136D
100
AcDbEntity
  8
90000_FRAME
370
    13
  6
CONTINUOUS
 62
     7
100
AcDbCircle
 10
122.229245
 20
70.543584
 30
0.0
 40
4.642374
100
AcDbArc
 50
70.262586
 51
82.952419
  0
ARC
  5
136E
100
AcDbEntity
  8
90000_FRAME
370
    13
  6
CONTINUOUS
 62
     7
100
AcDbCircle
 10
121.715226
 20
75.215207
 30
0.0
 40
3.258756
100
AcDbArc
 50
247.530021
 51
280.757952
  0
ARC
  5
136F
100
AcDbEntity
  8
90000_FRAME
370
    13
  6
CONTINUOUS
 62
     7
100
AcDbCircle
 10
115.33026
 20
56.963687
 30
0.0
 40
17.331608
100
AcDbArc
 50
65.341467
 51
67.399777
  0
ARC
  5
1370
100
AcDbEntity
  8
90000_FRAME
370
    13
  6
CONTINUOUS
 62
     7
100
AcDbCircle
 10
126.126122
 20
82.756114
 30
0.0
 40
10.629164
100
AcDbArc
 50
242.86201
 51
247.104203
  0
ARC
  5
1371
100
AcDbEntity
  8
90000_FRAME
370
    13
  6
CONTINUOUS
 62
     7
100
AcDbCircle
 10
122.271221
 20
75.222182
 30
0.0
 40
2.166292
100
AcDbArc
 50
227.311928
 51
242.704032
  0
ARC
  5
1372
100
AcDbEntity
  8
90000_FRAME
370
    13
  6
CONTINUOUS
 62
     7
100
AcDbCircle
 10
121.66719
 20
74.516505
 30
0.0
 40
1.238522
100
AcDbArc
 50
194.795219
 51
225.717655
  0
ARC
  5
1373
100
AcDbEntity
  8
90000_FRAME
370
    13
  6
CONTINUOUS
 62
     7
100
AcDbCircle
 10
122.286372
 20
73.668457
 30
0.0
 40
2.366925
100
AcDbArc
 50
86.221802
 51
120.42726
  0
ARC
  5
1374
100
AcDbEntity
  8
90000_FRAME
370
    13
  6
CONTINUOUS
 62
     7
100
AcDbCircle
 10
122.017515
 20
66.97229
 30
0.0
 40
9.067905
100
AcDbArc
 50
78.682705
 51
87.31476
  0
ARC
  5
1375
100
AcDbEntity
  8
90000_FRAME
370
    13
  6
CONTINUOUS
 62
     7
100
AcDbCircle
 10
121.906756
 20
74.357651
 30
0.0
 40
1.580547
100
AcDbArc
 50
121.214095
 51
141.525477
  0
ARC
  5
1376
100
AcDbEntity
  8
90000_FRAME
370
    13
  6
CONTINUOUS
 62
     7
100
AcDbCircle
 10
122.48393
 20
75.168708
 30
0.0
 40
0.866128
100
AcDbArc
 50
222.776039
 51
239.036243
  0
ARC
  5
1377
100
AcDbEntity
  8
90000_FRAME
370
    13
  6
CONTINUOUS
 62
     7
100
AcDbCircle
 10
119.97722
 20
67.838436
 30
0.0
 40
6.858774
100
AcDbArc
 50
59.902027
 51
68.203648
  0
ARC
  5
1378
100
AcDbEntity
  8
90000_FRAME
370
    13
  6
CONTINUOUS
 62
     7
100
AcDbCircle
 10
123.385715
 20
76.764322
 30
0.0
 40
2.698741
100
AcDbArc
 50
240.0482
 51
251.377967
  0
ARC
  5
1379
100
AcDbEntity
  8
90000_FRAME
370
    13
  6
CONTINUOUS
 62
     7
100
AcDbCircle
 10
122.720258
 20
72.607424
 30
0.0
 40
1.433447
100
AcDbArc
 50
315.890455
 51
333.522926
  0
ARC
  5
137A
100
AcDbEntity
  8
90000_FRAME
370
    13
  6
CONTINUOUS
 62
     7
100
AcDbCircle
 10
122.724896
 20
72.554016
 30
0.0
 40
1.406229
100
AcDbArc
 50
335.386797
 51
24.391512
  0
ARC
  5
137B
100
AcDbEntity
  8
90000_FRAME
370
    13
  6
CONTINUOUS
 62
     7
100
AcDbCircle
 10
122.652691
 20
72.47616
 30
0.0
 40
1.504703
100
AcDbArc
 50
25.956292
 51
59.483483
  0
LINE
  5
137C
100
AcDbEntity
  8
90000_FRAME
370
    13
  6
CONTINUOUS
 62
     7
100
AcDbLine
 10
120.661561
 20
75.330601
 30
0.0
 11
120.935627
 21
75.604674
 31
0.0
  0
ARC
  5
137D
100
AcDbEntity
  8
90000_FRAME
370
    13
  6
CONTINUOUS
 62
     7
100
AcDbCircle
 10
121.729348
 20
74.556725
 30
0.0
 40
1.309092
100
AcDbArc
 50
164.197486
 51
195.802514
  0
ARC
  5
137E
100
AcDbEntity
  8
90000_FRAME
370
    13
  6
CONTINUOUS
 62
     7
100
AcDbCircle
 10
121.561446
 20
74.664232
 30
0.0
 40
1.119747
100
AcDbArc
 50
142.813918
 51
167.152295
  0
TEXT
  5
137F
100
AcDbEntity
  8
90000_FRAME
370
    13
  6
CONTINUOUS
 62
     7
100
AcDbText
 10
232.0
 20
66.3969
 30
0.0
 40
2.2
  1
1:1
 41
0.9
100
AcDbText
  0
TEXT
  5
1380
100
AcDbEntity
  8
90000_FRAME
370
    13
  6
CONTINUOUS
 62
     7
100
AcDbText
 10
162.0
 20
72.2
 30
0.0
 40
2.2
  1

 41
0.784213
100
AcDbText
  0
ENDSEC
  0
SECTION
  2
OBJECTS
  0
DICTIONARY
  5
FE4
100
AcDbDictionary
280
     0
281
     1
  3
ACAD_GROUP
350
FE5
  3
ACAD_MLINESTYLE
350
FE6
  0
DICTIONARY
  5
FE5
102
{ACAD_REACTORS
330
FE4
102
}
100
AcDbDictionary
280
     0
281
     1
  0
DICTIONARY
  5
FE6
102
{ACAD_REACTORS
330
FE4
102
}
100
AcDbDictionary
280
     0
281
     1
  3
Standard
350
FE7
  0
MLINESTYLE
  5
FE7
102
{ACAD_REACTORS
330
FE6
102
}
100
AcDbMlineStyle
  2
Standard
 70
     0
  3

 62
     0
 51
90.0
 52
90.0
 71
     2
 49
0.5
 62
   256
  6
ByLayer
 49
-0.5
 62
   256
  6
ByLayer
  0
ENDSEC
  0
EOF
