  0
SECTION
  2
HEADER
  9
$ACADVER
  1
AC1015
  9
$ACADMAINTVER
 70
     6
  9
$DWGCODEPAGE
  3
ANSI_1252
  9
$INSBASE
 10
0.0
 20
0.0
 30
0.0
  9
$EXTMIN
 10
69.395417
 20
287.976483
 30
-1.0
  9
$EXTMAX
 10
1026.514554
 20
492.804657
 30
0.7
  9
$LIMMIN
 10
0.0
 20
0.0
  9
$LIMMAX
 10
12.0
 20
9.0
  9
$ORTHOMODE
 70
     0
  9
$REGENMODE
 70
     1
  9
$FILLMODE
 70
     1
  9
$QTEXTMODE
 70
     0
  9
$MIRRTEXT
 70
     0
  9
$LTSCALE
 40
15.0
  9
$ATTMODE
 70
     1
  9
$TEXTSIZE
 40
0.2
  9
$TRACEWID
 40
0.05
  9
$TEXTSTYLE
  7
STANDARD
  9
$CLAYER
  8
0
  9
$CELTYPE
  6
ByLayer
  9
$CECOLOR
 62
   256
  9
$CELTSCALE
 40
1.0
  9
$DISPSILH
 70
     0
  9
$DIMSCALE
 40
1.0
  9
$DIMASZ
 40
0.18
  9
$DIMEXO
 40
0.0625
  9
$DIMDLI
 40
0.38
  9
$DIMRND
 40
0.0
  9
$DIMDLE
 40
0.0
  9
$DIMEXE
 40
0.18
  9
$DIMTP
 40
0.0
  9
$DIMTM
 40
0.0
  9
$DIMTXT
 40
0.18
  9
$DIMCEN
 40
0.09
  9
$DIMTSZ
 40
0.0
  9
$DIMTOL
 70
     0
  9
$DIMLIM
 70
     0
  9
$DIMTIH
 70
     1
  9
$DIMTOH
 70
     1
  9
$DIMSE1
 70
     0
  9
$DIMSE2
 70
     0
  9
$DIMTAD
 70
     0
  9
$DIMZIN
 70
     0
  9
$DIMBLK
  1

  9
$DIMASO
 70
     1
  9
$DIMSHO
 70
     1
  9
$DIMPOST
  1

  9
$DIMAPOST
  1

  9
$DIMALT
 70
     0
  9
$DIMALTD
 70
     2
  9
$DIMALTF
 40
25.4
  9
$DIMLFAC
 40
1.0
  9
$DIMTOFL
 70
     0
  9
$DIMTVP
 40
0.0
  9
$DIMTIX
 70
     0
  9
$DIMSOXD
 70
     0
  9
$DIMSAH
 70
     0
  9
$DIMBLK1
  1

  9
$DIMBLK2
  1

  9
$DIMSTYLE
  2
STANDARD
  9
$DIMCLRD
 70
     0
  9
$DIMCLRE
 70
     0
  9
$DIMCLRT
 70
     0
  9
$DIMTFAC
 40
1.0
  9
$DIMGAP
 40
0.09
  9
$DIMJUST
 70
     0
  9
$DIMSD1
 70
     0
  9
$DIMSD2
 70
     0
  9
$DIMTOLJ
 70
     1
  9
$DIMTZIN
 70
     0
  9
$DIMALTZ
 70
     0
  9
$DIMALTTZ
 70
     0
  9
$DIMUPT
 70
     0
  9
$DIMDEC
 70
     4
  9
$DIMTDEC
 70
     4
  9
$DIMALTU
 70
     2
  9
$DIMALTTD
 70
     2
  9
$DIMTXSTY
  7
STANDARD
  9
$DIMAUNIT
 70
     0
  9
$DIMADEC
 70
     0
  9
$DIMALTRND
 40
0.0
  9
$DIMAZIN
 70
     0
  9
$DIMDSEP
 70
     0
  9
$DIMATFIT
 70
     3
  9
$DIMFRAC
 70
     0
  9
$DIMLDRBLK
  1

  9
$DIMLUNIT
 70
     2
  9
$DIMLWD
 70
     0
  9
$DIMLWE
 70
     0
  9
$DIMTMOVE
 70
     0
  9
$LUNITS
 70
     2
  9
$LUPREC
 70
     4
  9
$SKETCHINC
 40
0.1
  9
$FILLETRAD
 40
0.0
  9
$AUNITS
 70
     0
  9
$AUPREC
 70
     0
  9
$MENU
  1
.
  9
$ELEVATION
 40
0.0
  9
$PELEVATION
 40
0.0
  9
$THICKNESS
 40
0.0
  9
$LIMCHECK
 70
     0
  9
$CHAMFERA
 40
0.0
  9
$CHAMFERB
 40
0.0
  9
$CHAMFERC
 40
0.0
  9
$CHAMFERD
 40
0.0
  9
$SKPOLY
 70
     0
  9
$TDCREATE
 40
2453353.758792454
  9
$TDUCREATE
 40
0.000000000
  9
$TDUPDATE
 40
0.000000000
  9
$TDUUPDATE
 40
2447892.958333334
  9
$TDINDWG
 40
19583144.0627810880
  9
$TDUSRTIMER
 40
0.0000000000
  9
$USRTIMER
 70
     1
  9
$ANGBASE
 50
0.0
  9
$ANGDIR
 70
     0
  9
$PDMODE
 70
     0
  9
$PDSIZE
 40
0.0
  9
$PLINEWID
 40
0.0
  9
$SPLFRAME
 70
     0
  9
$SPLINETYPE
 70
     6
  9
$SPLINESEGS
 70
     8
  9
$HANDSEED
  5
15C0
  9
$SURFTAB1
 70
     6
  9
$SURFTAB2
 70
     6
  9
$SURFTYPE
 70
     6
  9
$SURFU
 70
     6
  9
$SURFV
 70
     6
  9
$UCSBASE
  2

  9
$UCSNAME
  2

  9
$UCSORG
 10
0.0
 20
0.0
 30
0.0
  9
$UCSXDIR
 10
1.0
 20
0.0
 30
0.0
  9
$UCSYDIR
 10
0.0
 20
1.0
 30
0.0
  9
$UCSORTHOREF
  2

  9
$UCSORTHOVIEW
 70
     0
  9
$UCSORGTOP
 10
0.0
 20
0.0
 30
0.0
  9
$UCSORGBOTTOM
 10
0.0
 20
0.0
 30
0.0
  9
$UCSORGLEFT
 10
0.0
 20
0.0
 30
0.0
  9
$UCSORGRIGHT
 10
0.0
 20
0.0
 30
0.0
  9
$UCSORGFRONT
 10
0.0
 20
0.0
 30
0.0
  9
$UCSORGBACK
 10
0.0
 20
0.0
 30
0.0
  9
$PUCSBASE
  2

  9
$PUCSNAME
  2

  9
$PUCSORG
 10
0.0
 20
0.0
 30
0.0
  9
$PUCSXDIR
 10
1.0
 20
0.0
 30
0.0
  9
$PUCSYDIR
 10
0.0
 20
1.0
 30
0.0
  9
$PUCSORTHOREF
  2

  9
$PUCSORTHOVIEW
 70
     0
  9
$PUCSORGTOP
 10
0.0
 20
0.0
 30
0.0
  9
$PUCSORGBOTTOM
 10
0.0
 20
0.0
 30
0.0
  9
$PUCSORGLEFT
 10
0.0
 20
0.0
 30
0.0
  9
$PUCSORGRIGHT
 10
0.0
 20
0.0
 30
0.0
  9
$PUCSORGFRONT
 10
0.0
 20
0.0
 30
0.0
  9
$PUCSORGBACK
 10
0.0
 20
0.0
 30
0.0
  9
$USERI1
 70
     0
  9
$USERI2
 70
     0
  9
$USERI3
 70
     0
  9
$USERI4
 70
     0
  9
$USERI5
 70
     0
  9
$USERR1
 40
0.0
  9
$USERR2
 40
0.0
  9
$USERR3
 40
0.0
  9
$USERR4
 40
0.0
  9
$USERR5
 40
0.0
  9
$WORLDVIEW
 70
     1
  9
$SHADEDGE
 70
     3
  9
$SHADEDIF
 70
    70
  9
$TILEMODE
 70
     1
  9
$MAXACTVP
 70
    64
  9
$PINSBASE
 10
0.0
 20
0.0
 30
0.0
  9
$PLIMCHECK
 70
     0
  9
$PEXTMIN
 10
0.0
 20
0.0
 30
0.0
  9
$PEXTMAX
 10
0.0
 20
0.0
 30
0.0
  9
$PLIMMIN
 10
0.0
 20
0.0
  9
$PLIMMAX
 10
0.0
 20
0.0
  9
$UNITMODE
 70
     0
  9
$VISRETAIN
 70
     1
  9
$PLINEGEN
 70
     0
  9
$PSLTSCALE
 70
     1
  9
$TREEDEPTH
 70
  3020
  9
$CMLSTYLE
  2
Standard
  9
$CMLJUST
 70
     0
  9
$CMLSCALE
 40
1.0
  9
$PROXYGRAPHICS
 70
     0
  9
$MEASUREMENT
 70
     0
  9
$CELWEIGHT
370
     0
  9
$ENDCAPS
280
     0
  9
$JOINSTYLE
280
     0
  9
$LWDISPLAY
290
     0
  9
$INSUNITS
 70
     0
  9
$HYPERLINKBASE
  1

  9
$STYLESHEET
  1

  9
$XEDIT
290
     1
  9
$CEPSNTYPE
380
     0
  9
$PSTYLEMODE
290
     1
  9
$FINGERPRINTGUID
  2

  9
$VERSIONGUID
  2

  9
$EXTNAMES
290
     1
  9
$PSVPSCALE
 40
0.0
  0
ENDSEC
  0
SECTION
  2
CLASSES
  0
CLASS
  1
LWPOLYLINE
  2
AcDbPolyline
  3
AutoCAD 2000
 90
        0
280
     0
281
     1
  0
CLASS
  1
IMAGE
  2
AcDbRasterImage
  3
ISM
 90
      127
280
     0
281
     1
  0
CLASS
  1
OLE2FRAME
  2
AcDbOle2Frame
  3
AutoCAD 2000
 90
        0
280
     0
281
     1
  0
CLASS
  1
HATCH
  2
AcDbHatch
  3
AutoCAD 2000
 90
        0
280
     0
281
     1
  0
CLASS
  1
DICTIONARYVAR
  2
AcDbDictionaryVar
  3
AutoCAD 2000
 90
        0
280
     0
281
     0
  0
CLASS
  1
RASTERVARIABLES
  2
AcDbRasterVariables
  3
ISM
 90
        0
280
     0
281
     0
  0
CLASS
  1
IMAGEDEF
  2
AcDbRasterImageDef
  3
ISM
 90
        0
280
     0
281
     0
  0
CLASS
  1
IMAGEDEF_REACTOR
  2
AcDbRasterImageDefReactor
  3
ISM
 90
        1
280
     0
281
     0
  0
CLASS
  1
IDBUFFER
  2
AcDbIdBuffer
  3
AutoCAD 2000
 90
        0
280
     0
281
     0
  0
CLASS
  1
SPATIAL_FILTER
  2
AcDbSpatialFilter
  3
AutoCAD 2000
 90
        0
280
     0
281
     0
  0
CLASS
  1
XRECORD
  2
AcDbXrecord
  3
AutoCAD 2000
 90
        0
280
     0
281
     0
  0
CLASS
  1
SORTENTSTABLE
  2
AcDbSortentsTable
  3
AutoCAD 2000
 90
        0
280
     0
281
     0
  0
CLASS
  1
LAYER_INDEX
  2
AcDbLayerIndex
  3
AutoCAD 2000
 90
        0
280
     0
281
     0
  0
CLASS
  1
SPATIAL_INDEX
  2
AcDbSpatialIndex
  3
AutoCAD 2000
 90
        0
280
     0
281
     0
  0
CLASS
  1
OBJECT_PTR
  2
CAseDLPNTableRecord
  3
"ASE-LPNTableRecord"
 90
        1
280
     0
281
     0
  0
CLASS
  1
LAYOUT
  2
AcDbLayout
  3
AutoCAD 2000
 90
        0
280
     0
281
     0
  0
CLASS
  1
PLOTSETTINGS
  2
AcDbPlotSettings
  3
AutoCAD 2000
 90
        0
280
     0
281
     0
  0
CLASS
  1
ACDBDICTIONARYWDFLT
  2
AcDbDictionaryWithDefault
  3
AutoCAD 2000
 90
        0
280
     0
281
     0
  0
CLASS
  1
ACDBPLACEHOLDER
  2
AcDbPlaceHolder
  3
AutoCAD 2000
 90
        0
280
     0
281
     0
  0
CLASS
  1
VBA_PROJECT
  2
AcDbVbaProject
  3
acadvba
 90
        0
280
     0
281
     0
  0
CLASS
  1
WIPEOUT
  2
AcDbWipeout
  3
WipeOut|AutoCAD Express Tool|expresstools@autodesk.com
 90
      127
280
     0
281
     1
  0
CLASS
  1
WIPEOUTVARIABLES
  2
AcDbWipeoutVariables
  3
WipeOut|AutoCAD Express Tool|expresstools@autodesk.com
 90
        0
280
     0
281
     0
  0
CLASS
  1
RTEXT
  2
RText
  3
RText|AutoCAD Express Tool|expresstools@autodesk.com
 90
        0
280
     0
281
     1
  0
CLASS
  1
ARCALIGNEDTEXT
  2
AcDbArcAlignedText
  3
ATEXT|AutoCAD Express Tool|expresstools@autodesk.com
 90
        0
280
     0
281
     1
  0
ENDSEC
  0
SECTION
  2
TABLES
  0
TABLE
  2
VPORT
  5
FB2
100
AcDbSymbolTable
 70
     1
  0
VPORT
  5
FD1
100
AcDbSymbolTableRecord
100
AcDbViewportTableRecord
  2
*ACTIVE
 70
     0
 10
0.0
 20
0.0
 11
1.0
 21
1.0
 12
450.328833
 22
266.374849
 13
0.0
 23
0.0
 14
0.5
 24
0.5
 15
0.5
 25
0.5
 16
0.0
 26
0.0
 36
1.0
 17
0.0
 27
0.0
 37
0.0
 40
620.078606
 41
1.701534
 42
50.0
 43
0.0
 44
0.0
 50
0.0
 51
0.0
 71
    16
 72
  1000
 73
     1
 74
     3
 75
     0
 76
     0
 77
     0
 78
     0
281
     0
 65
     0
110
0.0
120
0.0
130
0.0
111
1.0
121
0.0
131
0.0
112
0.0
122
1.0
132
0.0
345
0
346
0
 79
     0
146
0.0
  0
ENDTAB
  0
TABLE
  2
LTYPE
  5
FAF
100
AcDbSymbolTable
 70
     6
  0
LTYPE
  5
FB8
100
AcDbSymbolTableRecord
100
AcDbLinetypeTableRecord
  2
ByBlock
 70
    64
  3

 72
    65
 73
     0
 40
0.0
  0
LTYPE
  5
FB9
100
AcDbSymbolTableRecord
100
AcDbLinetypeTableRecord
  2
ByLayer
 70
    64
  3

 72
    65
 73
     0
 40
0.0
  0
LTYPE
  5
FBA
100
AcDbSymbolTableRecord
100
AcDbLinetypeTableRecord
  2
CONTINUOUS
 70
     0
  3
Solid line
 72
    65
 73
     0
 40
0.0
  0
LTYPE
  5
FBB
100
AcDbSymbolTableRecord
100
AcDbLinetypeTableRecord
  2
CENTER
 70
     0
  3
____ _ ____ _ ____ _ ____ _ ____ _ ____ _ ____
 72
    65
 73
     4
 40
0.6
 49
0.375
 74
     0
 49
-0.075
 74
     0
 49
0.075
 74
     0
 49
-0.075
 74
     0
  0
LTYPE
  5
FBC
100
AcDbSymbolTableRecord
100
AcDbLinetypeTableRecord
  2
ACAD_ISO02W100
 70
     0
  3
ISO Strichlinie __ __ __ __ __ __ __ __ __ __ _
 72
    65
 73
     2
 40
15.0
 49
12.0
 74
     0
 49
-3.0
 74
     0
  0
LTYPE
  5
FBD
100
AcDbSymbolTableRecord
100
AcDbLinetypeTableRecord
  2
DASHED
 70
     0
  3
_ _ _ _ _ _ _ _ _ _ _ _ _ _ _ _ _ _ _ _ _ _ _ _
 72
    65
 73
     2
 40
0.375
 49
0.25
 74
     0
 49
-0.125
 74
     0
  0
ENDTAB
  0
TABLE
  2
LAYER
  5
FAD
100
AcDbSymbolTable
 70
    10
  0
LAYER
  5
FBE
100
AcDbSymbolTableRecord
100
AcDbLayerTableRecord
  2
0
 70
     0
 62
     7
  6
CONTINUOUS
290
     1
370
    -3
390
0
  0
LAYER
  5
FBF
100
AcDbSymbolTableRecord
100
AcDbLayerTableRecord
  2
90000_FRAME
 70
     0
 62
     7
  6
CONTINUOUS
290
     1
370
    -3
390
0
  0
LAYER
  5
FC0
100
AcDbSymbolTableRecord
100
AcDbLayerTableRecord
  2
91000_TIP
 70
     0
 62
     7
  6
CONTINUOUS
290
     1
370
    -3
390
0
  0
LAYER
  5
FC1
100
AcDbSymbolTableRecord
100
AcDbLayerTableRecord
  2
10000_FRONT
 70
     0
 62
     7
  6
CONTINUOUS
290
     1
370
    -3
390
0
  0
LAYER
  5
FC2
100
AcDbSymbolTableRecord
100
AcDbLayerTableRecord
  2
11000_LEFT
 70
     0
 62
     7
  6
CONTINUOUS
290
     1
370
    -3
390
0
  0
LAYER
  5
FC5
100
AcDbSymbolTableRecord
100
AcDbLayerTableRecord
  2
DEFPOINTS
 70
     0
 62
     7
  6
CONTINUOUS
290
     0
370
    -3
390
0
  0
LAYER
  5
FC6
100
AcDbSymbolTableRecord
100
AcDbLayerTableRecord
  2
10100_FRONT_DIM
 70
     0
 62
     7
  6
CONTINUOUS
290
     1
370
    -3
390
0
  0
LAYER
  5
FC7
100
AcDbSymbolTableRecord
100
AcDbLayerTableRecord
  2
11100_LEFT_DIM
 70
     0
 62
     7
  6
CONTINUOUS
290
     1
370
    -3
390
0
  0
LAYER
  5
FCF
100
AcDbSymbolTableRecord
100
AcDbLayerTableRecord
  2
15000_BACK
 70
     0
 62
     7
  6
CONTINUOUS
290
     1
370
    -3
390
0
  0
LAYER
  5
FD0
100
AcDbSymbolTableRecord
100
AcDbLayerTableRecord
  2
15100_BACK_DIM
 70
     0
 62
     7
  6
CONTINUOUS
290
     1
370
    -3
390
0
  0
ENDTAB
  0
TABLE
  2
STYLE
  5
FAE
100
AcDbSymbolTable
 70
     1
  0
STYLE
  5
FD5
100
AcDbSymbolTableRecord
100
AcDbTextStyleTableRecord
  2
STANDARD
 70
     0
 40
0.0
 41
1.0
 50
0.0
 71
     0
 42
0.2
  3
txt.shx
  4

  0
ENDTAB
  0
TABLE
  2
VIEW
  5
FB0
100
AcDbSymbolTable
 70
     0
  0
ENDTAB
  0
TABLE
  2
UCS
  5
FB1
100
AcDbSymbolTable
 70
     0
  0
ENDTAB
  0
TABLE
  2
APPID
  5
FB3
100
AcDbSymbolTable
 70
     3
  0
APPID
  5
FD2
100
AcDbSymbolTableRecord
100
AcDbRegAppTableRecord
  2
ACAD
 70
     0
  0
APPID
  5
FD3
100
AcDbSymbolTableRecord
100
AcDbRegAppTableRecord
  2
AUSTER_ANSICHT
 70
     0
  0
APPID
  5
FD4
100
AcDbSymbolTableRecord
100
AcDbRegAppTableRecord
  2
AUSTER_FOLIE
 70
     0
  0
ENDTAB
  0
TABLE
  2
DIMSTYLE
  5
FB4
100
AcDbSymbolTable
 70
     3
100
AcDbDimStyleTable
 71
     0
  0
DIMSTYLE
105
FDF
100
AcDbSymbolTableRecord
100
AcDbDimStyleTableRecord
  2
STANDARD
 70
     0
  3

  4

 40
1.0
 41
0.18
 42
0.0625
 43
0.38
 44
0.18
 45
0.0
 46
0.0
 47
0.0
 48
0.0
 71
     0
 72
     0
 73
     1
 74
     1
 75
     0
 76
     0
 77
     0
 78
     0
 79
     0
140
0.18
141
0.09
142
0.0
143
25.4
144
1.0
145
0.0
146
1.0
147
0.09
148
0.0
170
     0
171
     2
172
     0
173
     0
174
     0
175
     0
176
     0
177
     0
178
     0
179
     0
271
     4
272
     4
273
     2
274
     2
275
     0
276
     0
277
     2
278
    46
279
     0
280
     0
281
     0
282
     0
283
     1
284
     0
285
     0
286
     0
288
     0
289
     3
340
FD5
341
0
342
0
343
0
344
0
371
    -2
372
    -2
  0
DIMSTYLE
105
FE0
100
AcDbSymbolTableRecord
100
AcDbDimStyleTableRecord
  2
DSTYLE1
 70
     0
  3

  4

 40
1.0
 41
3.0
 42
0.0
 43
0.38
 44
1.0
 45
0.0
 46
0.0
 47
0.0
 48
0.0
 71
     0
 72
     0
 73
     0
 74
     0
 75
     0
 76
     0
 77
     1
 78
     3
 79
     0
140
2.5
141
0.09
142
0.0
143
0.03937
144
1.0
145
0.0
146
1.0
147
1.0
148
0.0
170
     0
171
     2
172
     0
173
     0
174
     0
175
     0
176
     0
177
     0
178
     0
179
     0
271
     4
272
     4
273
     2
274
     2
275
     0
276
     0
277
     2
278
    46
279
     0
280
     0
281
     0
282
     0
283
     1
284
     0
285
     0
286
     0
288
     0
289
     3
340
FD5
341
0
342
0
343
0
344
0
371
    -2
372
    -2
  0
DIMSTYLE
105
FE1
100
AcDbSymbolTableRecord
100
AcDbDimStyleTableRecord
  2
H035
 70
     0
  3

  4

 40
0.0
 41
3.5
 42
0.0
 43
3.75
 44
2.0
 45
0.0
 46
0.0
 47
0.0
 48
0.0
 71
     0
 72
     0
 73
     0
 74
     0
 75
     0
 76
     0
 77
     1
 78
     8
 79
     0
140
3.5
141
2.5
142
0.0
143
0.039
144
1.0
145
0.0
146
1.0
147
0.5
148
0.0
170
     0
171
     4
172
     1
173
     0
174
     0
175
     0
176
   256
177
     7
178
     7
179
     0
271
     4
272
     4
273
     2
274
     2
275
     0
276
     0
277
     2
278
    46
279
     0
280
     0
281
     0
282
     0
283
     1
284
     0
285
     0
286
     0
288
     0
289
     3
340
FD5
341
0
342
0
343
0
344
0
371
    -2
372
    -2
  0
ENDTAB
  0
TABLE
  2
BLOCK_RECORD
  5
FDA
100
AcDbSymbolTable
 70
     2
  0
BLOCK_RECORD
  5
FD8
100
AcDbSymbolTableRecord
100
AcDbBlockTableRecord
  2
*Model_Space
340
0
  0
BLOCK_RECORD
  5
FD9
100
AcDbSymbolTableRecord
100
AcDbBlockTableRecord
  2
*Paper_Space
340
0
  0
BLOCK_RECORD
  5
FD6
100
AcDbSymbolTableRecord
100
AcDbBlockTableRecord
  2
$MODEL_SPACE
340
0
  0
BLOCK_RECORD
  5
FD7
100
AcDbSymbolTableRecord
100
AcDbBlockTableRecord
  2
$PAPER_SPACE
340
0
  0
ENDTAB
  0
ENDSEC
  0
SECTION
  2
BLOCKS
  0
BLOCK
  5
FDB
100
AcDbEntity
  8
0
390
0
100
AcDbBlockBegin
  2
*Model_Space
 70
     0
 10
0.0
 20
0.0
 30
0.0
  3
*Model_Space
  1

  0
ENDBLK
  5
FDC
100
AcDbEntity
  8
0
390
0
100
AcDbBlockEnd
  0
BLOCK
  5
FDD
100
AcDbEntity
 67
     1
  8
0
390
0
100
AcDbBlockBegin
  2
*Paper_Space
 70
     0
 10
0.0
 20
0.0
 30
0.0
  3
*Paper_Space
  1

  0
ENDBLK
  5
FDE
100
AcDbEntity
 67
     1
  8
0
390
0
100
AcDbBlockEnd
  0
BLOCK
  5
FE2
100
AcDbEntity
  8
0
100
AcDbBlockBegin
  2
$MODEL_SPACE
 70
     0
 10
0.0
 20
0.0
 30
0.0
  3
$MODEL_SPACE
  1

  0
ENDBLK
  5
21
100
AcDbEntity
  8
0
100
AcDbBlockEnd
  0
BLOCK
  5
FE3
100
AcDbEntity
  8
0
100
AcDbBlockBegin
  2
$PAPER_SPACE
 70
     0
 10
0.0
 20
0.0
 30
0.0
  3
$PAPER_SPACE
  1

  0
ENDBLK
  5
76
100
AcDbEntity
  8
0
100
AcDbBlockEnd
  0
ENDSEC
  0
SECTION
  2
ENTITIES
  0
LINE
  5
FE9
100
AcDbEntity
  8
10000_FRONT
370
    25
390
0
  6
CONTINUOUS
 62
     7
100
AcDbLine
 10
360.885881
 20
699.935142
 30
0.0
 11
360.885881
 21
699.95
 31
0.0
  0
LINE
  5
FEA
100
AcDbEntity
  8
10000_FRONT
370
    25
390
0
  6
CONTINUOUS
 62
     7
100
AcDbLine
 10
360.885881
 20
699.065555
 30
0.0
 11
360.885881
 21
699.935142
 31
0.0
  0
LINE
  5
FEB
100
AcDbEntity
  8
10000_FRONT
370
    25
390
0
  6
CONTINUOUS
 62
     7
100
AcDbLine
 10
360.885881
 20
683.534496
 30
0.0
 11
360.885881
 21
699.065555
 31
0.0
  0
LINE
  5
FEC
100
AcDbEntity
  8
10000_FRONT
370
    25
390
0
  6
CONTINUOUS
 62
     7
100
AcDbLine
 10
360.885881
 20
682.850002
 30
0.0
 11
360.885881
 21
683.534496
 31
0.0
  0
ARC
  5
FED
100
AcDbEntity
  8
10000_FRONT
370
    25
390
0
  6
CONTINUOUS
 62
     7
100
AcDbCircle
 10
348.285881
 20
693.35
 30
0.0
 40
3.6
100
AcDbArc
 50
90.000006
 51
269.999994
  0
ARC
  5
FEE
100
AcDbEntity
  8
10000_FRONT
370
    25
390
0
  6
CONTINUOUS
 62
     7
100
AcDbCircle
 10
325.885881
 20
693.35
 30
0.0
 40
3.6
100
AcDbArc
 50
90.0
 51
270.0
  0
ARC
  5
FEF
100
AcDbEntity
  8
10000_FRONT
370
    25
390
0
  6
CONTINUOUS
 62
     7
100
AcDbCircle
 10
303.485881
 20
693.35
 30
0.0
 40
3.6
100
AcDbArc
 50
89.999994
 51
270.000006
  0
ARC
  5
FF0
100
AcDbEntity
  8
10000_FRONT
370
    25
390
0
  6
CONTINUOUS
 62
     7
100
AcDbCircle
 10
303.485881
 20
693.35
 30
0.0
 40
3.6
100
AcDbArc
 50
270.000006
 51
89.999994
  0
ARC
  5
FF1
100
AcDbEntity
  8
10000_FRONT
370
    25
390
0
  6
CONTINUOUS
 62
     7
100
AcDbCircle
 10
325.885881
 20
693.35
 30
0.0
 40
3.6
100
AcDbArc
 50
270.0
 51
90.0
  0
ARC
  5
FF2
100
AcDbEntity
  8
10000_FRONT
370
    25
390
0
  6
CONTINUOUS
 62
     7
100
AcDbCircle
 10
348.285881
 20
693.35
 30
0.0
 40
3.6
100
AcDbArc
 50
269.999994
 51
90.000006
  0
LINE
  5
FF3
100
AcDbEntity
  8
10000_FRONT
370
    25
390
0
  6
CONTINUOUS
 62
     7
100
AcDbLine
 10
294.035881
 20
679.249988
 30
0.0
 11
309.785881
 21
679.249988
 31
0.0
  0
ARC
  5
FF4
100
AcDbEntity
  8
10000_FRONT
370
    25
390
0
  6
CONTINUOUS
 62
     7
100
AcDbCircle
 10
309.785881
 20
679.64999
 30
0.0
 40
0.4
100
AcDbArc
 50
345.522634
 51
359.999902
  0
LINE
  5
FF5
100
AcDbEntity
  8
10000_FRONT
370
    25
390
0
  6
CONTINUOUS
 62
     7
100
AcDbLine
 10
309.785881
 20
679.249988
 30
0.0
 11
309.805435
 21
679.250484
 31
0.0
  0
LINE
  5
FF6
100
AcDbEntity
  8
10000_FRONT
370
    25
390
0
  6
CONTINUOUS
 62
     7
100
AcDbLine
 10
309.805435
 20
679.250484
 30
0.0
 11
309.825166
 21
679.251971
 31
0.0
  0
LINE
  5
FF7
100
AcDbEntity
  8
10000_FRONT
370
    25
390
0
  6
CONTINUOUS
 62
     7
100
AcDbLine
 10
309.825166
 20
679.251971
 30
0.0
 11
309.844953
 21
679.254436
 31
0.0
  0
LINE
  5
FF8
100
AcDbEntity
  8
10000_FRONT
370
    25
390
0
  6
CONTINUOUS
 62
     7
100
AcDbLine
 10
309.844953
 20
679.254436
 30
0.0
 11
309.864669
 21
679.257877
 31
0.0
  0
LINE
  5
FF9
100
AcDbEntity
  8
10000_FRONT
370
    25
390
0
  6
CONTINUOUS
 62
     7
100
AcDbLine
 10
309.864669
 20
679.257877
 30
0.0
 11
309.884193
 21
679.262279
 31
0.0
  0
LINE
  5
FFA
100
AcDbEntity
  8
10000_FRONT
370
    25
390
0
  6
CONTINUOUS
 62
     7
100
AcDbLine
 10
309.884193
 20
679.262279
 30
0.0
 11
309.903403
 21
679.267642
 31
0.0
  0
LINE
  5
FFB
100
AcDbEntity
  8
10000_FRONT
370
    25
390
0
  6
CONTINUOUS
 62
     7
100
AcDbLine
 10
309.903403
 20
679.267642
 30
0.0
 11
309.922191
 21
679.273944
 31
0.0
  0
LINE
  5
FFC
100
AcDbEntity
  8
10000_FRONT
370
    25
390
0
  6
CONTINUOUS
 62
     7
100
AcDbLine
 10
309.922191
 20
679.273944
 30
0.0
 11
309.940488
 21
679.281116
 31
0.0
  0
LINE
  5
FFD
100
AcDbEntity
  8
10000_FRONT
370
    25
390
0
  6
CONTINUOUS
 62
     7
100
AcDbLine
 10
309.940488
 20
679.281116
 30
0.0
 11
309.958217
 21
679.289073
 31
0.0
  0
LINE
  5
FFE
100
AcDbEntity
  8
10000_FRONT
370
    25
390
0
  6
CONTINUOUS
 62
     7
100
AcDbLine
 10
309.958217
 20
679.289073
 30
0.0
 11
309.975299
 21
679.297733
 31
0.0
  0
LINE
  5
FFF
100
AcDbEntity
  8
10000_FRONT
370
    25
390
0
  6
CONTINUOUS
 62
     7
100
AcDbLine
 10
309.975299
 20
679.297733
 30
0.0
 11
309.991657
 21
679.307002
 31
0.0
  0
LINE
  5
1000
100
AcDbEntity
  8
10000_FRONT
370
    25
390
0
  6
CONTINUOUS
 62
     7
100
AcDbLine
 10
309.991657
 20
679.307002
 30
0.0
 11
310.007212
 21
679.316806
 31
0.0
  0
LINE
  5
1001
100
AcDbEntity
  8
10000_FRONT
370
    25
390
0
  6
CONTINUOUS
 62
     7
100
AcDbLine
 10
310.007212
 20
679.316806
 30
0.0
 11
310.02214
 21
679.327228
 31
0.0
  0
LINE
  5
1002
100
AcDbEntity
  8
10000_FRONT
370
    25
390
0
  6
CONTINUOUS
 62
     7
100
AcDbLine
 10
310.02214
 20
679.327228
 30
0.0
 11
310.03689
 21
679.338596
 31
0.0
  0
LINE
  5
1003
100
AcDbEntity
  8
10000_FRONT
370
    25
390
0
  6
CONTINUOUS
 62
     7
100
AcDbLine
 10
310.03689
 20
679.338596
 30
0.0
 11
310.051375
 21
679.350871
 31
0.0
  0
LINE
  5
1004
100
AcDbEntity
  8
10000_FRONT
370
    25
390
0
  6
CONTINUOUS
 62
     7
100
AcDbLine
 10
310.051375
 20
679.350871
 30
0.0
 11
310.06549
 21
679.364017
 31
0.0
  0
LINE
  5
1005
100
AcDbEntity
  8
10000_FRONT
370
    25
390
0
  6
CONTINUOUS
 62
     7
100
AcDbLine
 10
310.06549
 20
679.364017
 30
0.0
 11
310.079134
 21
679.377994
 31
0.0
  0
LINE
  5
1006
100
AcDbEntity
  8
10000_FRONT
370
    25
390
0
  6
CONTINUOUS
 62
     7
100
AcDbLine
 10
310.079134
 20
679.377994
 30
0.0
 11
310.0922
 21
679.392764
 31
0.0
  0
LINE
  5
1007
100
AcDbEntity
  8
10000_FRONT
370
    25
390
0
  6
CONTINUOUS
 62
     7
100
AcDbLine
 10
310.0922
 20
679.392764
 30
0.0
 11
310.104586
 21
679.408282
 31
0.0
  0
LINE
  5
1008
100
AcDbEntity
  8
10000_FRONT
370
    25
390
0
  6
CONTINUOUS
 62
     7
100
AcDbLine
 10
310.104586
 20
679.408282
 30
0.0
 11
310.116216
 21
679.424487
 31
0.0
  0
LINE
  5
1009
100
AcDbEntity
  8
10000_FRONT
370
    25
390
0
  6
CONTINUOUS
 62
     7
100
AcDbLine
 10
310.116216
 20
679.424487
 30
0.0
 11
310.127041
 21
679.441272
 31
0.0
  0
LINE
  5
100A
100
AcDbEntity
  8
10000_FRONT
370
    25
390
0
  6
CONTINUOUS
 62
     7
100
AcDbLine
 10
310.127041
 20
679.441272
 30
0.0
 11
310.137016
 21
679.458537
 31
0.0
  0
LINE
  5
100B
100
AcDbEntity
  8
10000_FRONT
370
    25
390
0
  6
CONTINUOUS
 62
     7
100
AcDbLine
 10
310.137016
 20
679.458537
 30
0.0
 11
310.146092
 21
679.476169
 31
0.0
  0
LINE
  5
100C
100
AcDbEntity
  8
10000_FRONT
370
    25
390
0
  6
CONTINUOUS
 62
     7
100
AcDbLine
 10
310.146092
 20
679.476169
 30
0.0
 11
310.154226
 21
679.494067
 31
0.0
  0
LINE
  5
100D
100
AcDbEntity
  8
10000_FRONT
370
    25
390
0
  6
CONTINUOUS
 62
     7
100
AcDbLine
 10
310.154226
 20
679.494067
 30
0.0
 11
310.161374
 21
679.512134
 31
0.0
  0
LINE
  5
100E
100
AcDbEntity
  8
10000_FRONT
370
    25
390
0
  6
CONTINUOUS
 62
     7
100
AcDbLine
 10
310.161374
 20
679.512134
 30
0.0
 11
310.167658
 21
679.530757
 31
0.0
  0
LINE
  5
100F
100
AcDbEntity
  8
10000_FRONT
370
    25
390
0
  6
CONTINUOUS
 62
     7
100
AcDbLine
 10
310.167658
 20
679.530757
 30
0.0
 11
310.17318
 21
679.549991
 31
0.0
  0
LINE
  5
1010
100
AcDbEntity
  8
10000_FRONT
370
    25
390
0
  6
CONTINUOUS
 62
     7
100
AcDbLine
 10
310.185881
 20
682.449992
 30
0.0
 11
310.185881
 21
682.849986
 31
0.0
  0
LINE
  5
1011
100
AcDbEntity
  8
10000_FRONT
370
    25
390
0
  6
CONTINUOUS
 62
     7
100
AcDbLine
 10
310.185881
 20
679.649989
 30
0.0
 11
310.185881
 21
682.449992
 31
0.0
  0
LINE
  5
1012
100
AcDbEntity
  8
10000_FRONT
370
    25
390
0
  6
CONTINUOUS
 62
     7
100
AcDbLine
 10
319.085881
 20
682.449992
 30
0.0
 11
319.085881
 21
679.649989
 31
0.0
  0
LINE
  5
1013
100
AcDbEntity
  8
10000_FRONT
370
    25
390
0
  6
CONTINUOUS
 62
     7
100
AcDbLine
 10
319.085881
 20
682.449992
 30
0.0
 11
319.085881
 21
682.849986
 31
0.0
  0
LINE
  5
1014
100
AcDbEntity
  8
10000_FRONT
370
    25
390
0
  6
CONTINUOUS
 62
     7
100
AcDbLine
 10
319.098582
 20
679.549991
 30
0.0
 11
319.104104
 21
679.530757
 31
0.0
  0
LINE
  5
1015
100
AcDbEntity
  8
10000_FRONT
370
    25
390
0
  6
CONTINUOUS
 62
     7
100
AcDbLine
 10
319.104104
 20
679.530757
 30
0.0
 11
319.110388
 21
679.512134
 31
0.0
  0
LINE
  5
1016
100
AcDbEntity
  8
10000_FRONT
370
    25
390
0
  6
CONTINUOUS
 62
     7
100
AcDbLine
 10
319.110388
 20
679.512134
 30
0.0
 11
319.117537
 21
679.494067
 31
0.0
  0
LINE
  5
1017
100
AcDbEntity
  8
10000_FRONT
370
    25
390
0
  6
CONTINUOUS
 62
     7
100
AcDbLine
 10
319.117537
 20
679.494067
 30
0.0
 11
319.12567
 21
679.476169
 31
0.0
  0
LINE
  5
1018
100
AcDbEntity
  8
10000_FRONT
370
    25
390
0
  6
CONTINUOUS
 62
     7
100
AcDbLine
 10
319.12567
 20
679.476169
 30
0.0
 11
319.134747
 21
679.458537
 31
0.0
  0
LINE
  5
1019
100
AcDbEntity
  8
10000_FRONT
370
    25
390
0
  6
CONTINUOUS
 62
     7
100
AcDbLine
 10
319.134747
 20
679.458537
 30
0.0
 11
319.144721
 21
679.441272
 31
0.0
  0
LINE
  5
101A
100
AcDbEntity
  8
10000_FRONT
370
    25
390
0
  6
CONTINUOUS
 62
     7
100
AcDbLine
 10
319.144721
 20
679.441272
 30
0.0
 11
319.155546
 21
679.424487
 31
0.0
  0
LINE
  5
101B
100
AcDbEntity
  8
10000_FRONT
370
    25
390
0
  6
CONTINUOUS
 62
     7
100
AcDbLine
 10
319.155546
 20
679.424487
 30
0.0
 11
319.167176
 21
679.408282
 31
0.0
  0
LINE
  5
101C
100
AcDbEntity
  8
10000_FRONT
370
    25
390
0
  6
CONTINUOUS
 62
     7
100
AcDbLine
 10
319.167176
 20
679.408282
 30
0.0
 11
319.179562
 21
679.392764
 31
0.0
  0
LINE
  5
101D
100
AcDbEntity
  8
10000_FRONT
370
    25
390
0
  6
CONTINUOUS
 62
     7
100
AcDbLine
 10
319.179562
 20
679.392764
 30
0.0
 11
319.192628
 21
679.377994
 31
0.0
  0
LINE
  5
101E
100
AcDbEntity
  8
10000_FRONT
370
    25
390
0
  6
CONTINUOUS
 62
     7
100
AcDbLine
 10
319.192628
 20
679.377994
 30
0.0
 11
319.206272
 21
679.364017
 31
0.0
  0
LINE
  5
101F
100
AcDbEntity
  8
10000_FRONT
370
    25
390
0
  6
CONTINUOUS
 62
     7
100
AcDbLine
 10
319.206272
 20
679.364017
 30
0.0
 11
319.220388
 21
679.350871
 31
0.0
  0
LINE
  5
1020
100
AcDbEntity
  8
10000_FRONT
370
    25
390
0
  6
CONTINUOUS
 62
     7
100
AcDbLine
 10
319.220388
 20
679.350871
 30
0.0
 11
319.234872
 21
679.338596
 31
0.0
  0
LINE
  5
1021
100
AcDbEntity
  8
10000_FRONT
370
    25
390
0
  6
CONTINUOUS
 62
     7
100
AcDbLine
 10
319.234872
 20
679.338596
 30
0.0
 11
319.249621
 21
679.327228
 31
0.0
  0
LINE
  5
1022
100
AcDbEntity
  8
10000_FRONT
370
    25
390
0
  6
CONTINUOUS
 62
     7
100
AcDbLine
 10
319.249621
 20
679.327228
 30
0.0
 11
319.26455
 21
679.316806
 31
0.0
  0
LINE
  5
1023
100
AcDbEntity
  8
10000_FRONT
370
    25
390
0
  6
CONTINUOUS
 62
     7
100
AcDbLine
 10
319.26455
 20
679.316806
 30
0.0
 11
319.280105
 21
679.307002
 31
0.0
  0
LINE
  5
1024
100
AcDbEntity
  8
10000_FRONT
370
    25
390
0
  6
CONTINUOUS
 62
     7
100
AcDbLine
 10
319.280105
 20
679.307002
 30
0.0
 11
319.296463
 21
679.297733
 31
0.0
  0
LINE
  5
1025
100
AcDbEntity
  8
10000_FRONT
370
    25
390
0
  6
CONTINUOUS
 62
     7
100
AcDbLine
 10
319.296463
 20
679.297733
 30
0.0
 11
319.313545
 21
679.289073
 31
0.0
  0
LINE
  5
1026
100
AcDbEntity
  8
10000_FRONT
370
    25
390
0
  6
CONTINUOUS
 62
     7
100
AcDbLine
 10
319.313545
 20
679.289073
 30
0.0
 11
319.331274
 21
679.281116
 31
0.0
  0
LINE
  5
1027
100
AcDbEntity
  8
10000_FRONT
370
    25
390
0
  6
CONTINUOUS
 62
     7
100
AcDbLine
 10
319.331274
 20
679.281116
 30
0.0
 11
319.349571
 21
679.273944
 31
0.0
  0
LINE
  5
1028
100
AcDbEntity
  8
10000_FRONT
370
    25
390
0
  6
CONTINUOUS
 62
     7
100
AcDbLine
 10
319.349571
 20
679.273944
 30
0.0
 11
319.368359
 21
679.267642
 31
0.0
  0
LINE
  5
1029
100
AcDbEntity
  8
10000_FRONT
370
    25
390
0
  6
CONTINUOUS
 62
     7
100
AcDbLine
 10
319.368359
 20
679.267642
 30
0.0
 11
319.387568
 21
679.262279
 31
0.0
  0
LINE
  5
102A
100
AcDbEntity
  8
10000_FRONT
370
    25
390
0
  6
CONTINUOUS
 62
     7
100
AcDbLine
 10
319.387568
 20
679.262279
 30
0.0
 11
319.407093
 21
679.257877
 31
0.0
  0
LINE
  5
102B
100
AcDbEntity
  8
10000_FRONT
370
    25
390
0
  6
CONTINUOUS
 62
     7
100
AcDbLine
 10
319.407093
 20
679.257877
 30
0.0
 11
319.426809
 21
679.254436
 31
0.0
  0
LINE
  5
102C
100
AcDbEntity
  8
10000_FRONT
370
    25
390
0
  6
CONTINUOUS
 62
     7
100
AcDbLine
 10
319.426809
 20
679.254436
 30
0.0
 11
319.446595
 21
679.251971
 31
0.0
  0
LINE
  5
102D
100
AcDbEntity
  8
10000_FRONT
370
    25
390
0
  6
CONTINUOUS
 62
     7
100
AcDbLine
 10
319.446595
 20
679.251971
 30
0.0
 11
319.466327
 21
679.250484
 31
0.0
  0
LINE
  5
102E
100
AcDbEntity
  8
10000_FRONT
370
    25
390
0
  6
CONTINUOUS
 62
     7
100
AcDbLine
 10
319.466327
 20
679.250484
 30
0.0
 11
319.485881
 21
679.249988
 31
0.0
  0
ARC
  5
102F
100
AcDbEntity
  8
10000_FRONT
370
    25
390
0
  6
CONTINUOUS
 62
     7
100
AcDbCircle
 10
319.485881
 20
679.64999
 30
0.0
 40
0.4
100
AcDbArc
 50
180.000098
 51
194.477366
  0
LINE
  5
1030
100
AcDbEntity
  8
10000_FRONT
370
    25
390
0
  6
CONTINUOUS
 62
     7
100
AcDbLine
 10
341.585881
 20
682.449992
 30
0.0
 11
341.585881
 21
679.649989
 31
0.0
  0
LINE
  5
1031
100
AcDbEntity
  8
10000_FRONT
370
    25
390
0
  6
CONTINUOUS
 62
     7
100
AcDbLine
 10
341.585881
 20
682.449992
 30
0.0
 11
341.585881
 21
682.849986
 31
0.0
  0
LINE
  5
1032
100
AcDbEntity
  8
10000_FRONT
370
    25
390
0
  6
CONTINUOUS
 62
     7
100
AcDbLine
 10
341.598582
 20
679.549991
 30
0.0
 11
341.604104
 21
679.530757
 31
0.0
  0
LINE
  5
1033
100
AcDbEntity
  8
10000_FRONT
370
    25
390
0
  6
CONTINUOUS
 62
     7
100
AcDbLine
 10
341.604104
 20
679.530757
 30
0.0
 11
341.610388
 21
679.512134
 31
0.0
  0
LINE
  5
1034
100
AcDbEntity
  8
10000_FRONT
370
    25
390
0
  6
CONTINUOUS
 62
     7
100
AcDbLine
 10
341.610388
 20
679.512134
 30
0.0
 11
341.617536
 21
679.494067
 31
0.0
  0
LINE
  5
1035
100
AcDbEntity
  8
10000_FRONT
370
    25
390
0
  6
CONTINUOUS
 62
     7
100
AcDbLine
 10
341.617536
 20
679.494067
 30
0.0
 11
341.62567
 21
679.476169
 31
0.0
  0
LINE
  5
1036
100
AcDbEntity
  8
10000_FRONT
370
    25
390
0
  6
CONTINUOUS
 62
     7
100
AcDbLine
 10
341.62567
 20
679.476169
 30
0.0
 11
341.634746
 21
679.458537
 31
0.0
  0
LINE
  5
1037
100
AcDbEntity
  8
10000_FRONT
370
    25
390
0
  6
CONTINUOUS
 62
     7
100
AcDbLine
 10
341.634746
 20
679.458537
 30
0.0
 11
341.644721
 21
679.441272
 31
0.0
  0
LINE
  5
1038
100
AcDbEntity
  8
10000_FRONT
370
    25
390
0
  6
CONTINUOUS
 62
     7
100
AcDbLine
 10
341.644721
 20
679.441272
 30
0.0
 11
341.655546
 21
679.424487
 31
0.0
  0
LINE
  5
1039
100
AcDbEntity
  8
10000_FRONT
370
    25
390
0
  6
CONTINUOUS
 62
     7
100
AcDbLine
 10
341.655546
 20
679.424487
 30
0.0
 11
341.667176
 21
679.408282
 31
0.0
  0
LINE
  5
103A
100
AcDbEntity
  8
10000_FRONT
370
    25
390
0
  6
CONTINUOUS
 62
     7
100
AcDbLine
 10
341.667176
 20
679.408282
 30
0.0
 11
341.679562
 21
679.392764
 31
0.0
  0
LINE
  5
103B
100
AcDbEntity
  8
10000_FRONT
370
    25
390
0
  6
CONTINUOUS
 62
     7
100
AcDbLine
 10
341.679562
 20
679.392764
 30
0.0
 11
341.692628
 21
679.377994
 31
0.0
  0
LINE
  5
103C
100
AcDbEntity
  8
10000_FRONT
370
    25
390
0
  6
CONTINUOUS
 62
     7
100
AcDbLine
 10
341.692628
 20
679.377994
 30
0.0
 11
341.706272
 21
679.364017
 31
0.0
  0
LINE
  5
103D
100
AcDbEntity
  8
10000_FRONT
370
    25
390
0
  6
CONTINUOUS
 62
     7
100
AcDbLine
 10
341.706272
 20
679.364017
 30
0.0
 11
341.720387
 21
679.350871
 31
0.0
  0
LINE
  5
103E
100
AcDbEntity
  8
10000_FRONT
370
    25
390
0
  6
CONTINUOUS
 62
     7
100
AcDbLine
 10
341.720387
 20
679.350871
 30
0.0
 11
341.734872
 21
679.338596
 31
0.0
  0
LINE
  5
103F
100
AcDbEntity
  8
10000_FRONT
370
    25
390
0
  6
CONTINUOUS
 62
     7
100
AcDbLine
 10
341.734872
 20
679.338596
 30
0.0
 11
341.749622
 21
679.327228
 31
0.0
  0
LINE
  5
1040
100
AcDbEntity
  8
10000_FRONT
370
    25
390
0
  6
CONTINUOUS
 62
     7
100
AcDbLine
 10
341.749622
 20
679.327228
 30
0.0
 11
341.76455
 21
679.316806
 31
0.0
  0
LINE
  5
1041
100
AcDbEntity
  8
10000_FRONT
370
    25
390
0
  6
CONTINUOUS
 62
     7
100
AcDbLine
 10
341.76455
 20
679.316806
 30
0.0
 11
341.780105
 21
679.307002
 31
0.0
  0
LINE
  5
1042
100
AcDbEntity
  8
10000_FRONT
370
    25
390
0
  6
CONTINUOUS
 62
     7
100
AcDbLine
 10
341.780105
 20
679.307002
 30
0.0
 11
341.796463
 21
679.297733
 31
0.0
  0
LINE
  5
1043
100
AcDbEntity
  8
10000_FRONT
370
    25
390
0
  6
CONTINUOUS
 62
     7
100
AcDbLine
 10
341.796463
 20
679.297733
 30
0.0
 11
341.813545
 21
679.289073
 31
0.0
  0
LINE
  5
1044
100
AcDbEntity
  8
10000_FRONT
370
    25
390
0
  6
CONTINUOUS
 62
     7
100
AcDbLine
 10
341.813545
 20
679.289073
 30
0.0
 11
341.831274
 21
679.281116
 31
0.0
  0
LINE
  5
1045
100
AcDbEntity
  8
10000_FRONT
370
    25
390
0
  6
CONTINUOUS
 62
     7
100
AcDbLine
 10
341.831274
 20
679.281116
 30
0.0
 11
341.849571
 21
679.273944
 31
0.0
  0
LINE
  5
1046
100
AcDbEntity
  8
10000_FRONT
370
    25
390
0
  6
CONTINUOUS
 62
     7
100
AcDbLine
 10
341.849571
 20
679.273944
 30
0.0
 11
341.868359
 21
679.267642
 31
0.0
  0
LINE
  5
1047
100
AcDbEntity
  8
10000_FRONT
370
    25
390
0
  6
CONTINUOUS
 62
     7
100
AcDbLine
 10
341.868359
 20
679.267642
 30
0.0
 11
341.887569
 21
679.262279
 31
0.0
  0
LINE
  5
1048
100
AcDbEntity
  8
10000_FRONT
370
    25
390
0
  6
CONTINUOUS
 62
     7
100
AcDbLine
 10
341.887569
 20
679.262279
 30
0.0
 11
341.907093
 21
679.257877
 31
0.0
  0
LINE
  5
1049
100
AcDbEntity
  8
10000_FRONT
370
    25
390
0
  6
CONTINUOUS
 62
     7
100
AcDbLine
 10
341.907093
 20
679.257877
 30
0.0
 11
341.926809
 21
679.254436
 31
0.0
  0
LINE
  5
104A
100
AcDbEntity
  8
10000_FRONT
370
    25
390
0
  6
CONTINUOUS
 62
     7
100
AcDbLine
 10
341.926809
 20
679.254436
 30
0.0
 11
341.946596
 21
679.251971
 31
0.0
  0
LINE
  5
104B
100
AcDbEntity
  8
10000_FRONT
370
    25
390
0
  6
CONTINUOUS
 62
     7
100
AcDbLine
 10
341.946596
 20
679.251971
 30
0.0
 11
341.966327
 21
679.250484
 31
0.0
  0
LINE
  5
104C
100
AcDbEntity
  8
10000_FRONT
370
    25
390
0
  6
CONTINUOUS
 62
     7
100
AcDbLine
 10
341.966327
 20
679.250484
 30
0.0
 11
341.985881
 21
679.249988
 31
0.0
  0
ARC
  5
104D
100
AcDbEntity
  8
10000_FRONT
370
    25
390
0
  6
CONTINUOUS
 62
     7
100
AcDbCircle
 10
341.985881
 20
679.64999
 30
0.0
 40
0.4
100
AcDbArc
 50
180.000098
 51
194.477366
  0
LINE
  5
104E
100
AcDbEntity
  8
10000_FRONT
370
    25
390
0
  6
CONTINUOUS
 62
     7
100
AcDbLine
 10
341.985881
 20
679.249988
 30
0.0
 11
357.735881
 21
679.249988
 31
0.0
  0
LINE
  5
104F
100
AcDbEntity
  8
10000_FRONT
370
    25
390
0
  6
CONTINUOUS
 62
     7
100
AcDbLine
 10
293.235879
 20
682.849986
 30
0.0
 11
293.249586
 21
682.849757
 31
0.0
  0
LINE
  5
1050
100
AcDbEntity
  8
10000_FRONT
370
    25
390
0
  6
CONTINUOUS
 62
     7
100
AcDbLine
 10
293.249586
 20
682.849757
 30
0.0
 11
293.263612
 21
682.849025
 31
0.0
  0
LINE
  5
1051
100
AcDbEntity
  8
10000_FRONT
370
    25
390
0
  6
CONTINUOUS
 62
     7
100
AcDbLine
 10
293.263612
 20
682.849025
 30
0.0
 11
293.278867
 21
682.847667
 31
0.0
  0
LINE
  5
1052
100
AcDbEntity
  8
10000_FRONT
370
    25
390
0
  6
CONTINUOUS
 62
     7
100
AcDbLine
 10
293.278867
 20
682.847667
 30
0.0
 11
293.295114
 21
682.845576
 31
0.0
  0
LINE
  5
1053
100
AcDbEntity
  8
10000_FRONT
370
    25
390
0
  6
CONTINUOUS
 62
     7
100
AcDbLine
 10
293.295114
 20
682.845576
 30
0.0
 11
293.312135
 21
682.842632
 31
0.0
  0
LINE
  5
1054
100
AcDbEntity
  8
10000_FRONT
370
    25
390
0
  6
CONTINUOUS
 62
     7
100
AcDbLine
 10
293.312135
 20
682.842632
 30
0.0
 11
293.330076
 21
682.838702
 31
0.0
  0
LINE
  5
1055
100
AcDbEntity
  8
10000_FRONT
370
    25
390
0
  6
CONTINUOUS
 62
     7
100
AcDbLine
 10
293.330076
 20
682.838702
 30
0.0
 11
293.348589
 21
682.833766
 31
0.0
  0
LINE
  5
1056
100
AcDbEntity
  8
10000_FRONT
370
    25
390
0
  6
CONTINUOUS
 62
     7
100
AcDbLine
 10
293.348589
 20
682.833766
 30
0.0
 11
293.367326
 21
682.827777
 31
0.0
  0
LINE
  5
1057
100
AcDbEntity
  8
10000_FRONT
370
    25
390
0
  6
CONTINUOUS
 62
     7
100
AcDbLine
 10
293.367326
 20
682.827777
 30
0.0
 11
293.386289
 21
682.820598
 31
0.0
  0
LINE
  5
1058
100
AcDbEntity
  8
10000_FRONT
370
    25
390
0
  6
CONTINUOUS
 62
     7
100
AcDbLine
 10
293.386289
 20
682.820598
 30
0.0
 11
293.405584
 21
682.812091
 31
0.0
  0
LINE
  5
1059
100
AcDbEntity
  8
10000_FRONT
370
    25
390
0
  6
CONTINUOUS
 62
     7
100
AcDbLine
 10
293.405584
 20
682.812091
 30
0.0
 11
293.425043
 21
682.802257
 31
0.0
  0
LINE
  5
105A
100
AcDbEntity
  8
10000_FRONT
370
    25
390
0
  6
CONTINUOUS
 62
     7
100
AcDbLine
 10
293.425043
 20
682.802257
 30
0.0
 11
293.444494
 21
682.79108
 31
0.0
  0
LINE
  5
105B
100
AcDbEntity
  8
10000_FRONT
370
    25
390
0
  6
CONTINUOUS
 62
     7
100
AcDbLine
 10
293.444494
 20
682.79108
 30
0.0
 11
293.463773
 21
682.778537
 31
0.0
  0
LINE
  5
105C
100
AcDbEntity
  8
10000_FRONT
370
    25
390
0
  6
CONTINUOUS
 62
     7
100
AcDbLine
 10
293.463773
 20
682.778537
 30
0.0
 11
293.482709
 21
682.764636
 31
0.0
  0
LINE
  5
105D
100
AcDbEntity
  8
10000_FRONT
370
    25
390
0
  6
CONTINUOUS
 62
     7
100
AcDbLine
 10
293.482709
 20
682.764636
 30
0.0
 11
293.501134
 21
682.749347
 31
0.0
  0
LINE
  5
105E
100
AcDbEntity
  8
10000_FRONT
370
    25
390
0
  6
CONTINUOUS
 62
     7
100
AcDbLine
 10
293.501134
 20
682.749347
 30
0.0
 11
293.518884
 21
682.732677
 31
0.0
  0
LINE
  5
105F
100
AcDbEntity
  8
10000_FRONT
370
    25
390
0
  6
CONTINUOUS
 62
     7
100
AcDbLine
 10
293.518884
 20
682.732677
 30
0.0
 11
293.536073
 21
682.714297
 31
0.0
  0
LINE
  5
1060
100
AcDbEntity
  8
10000_FRONT
370
    25
390
0
  6
CONTINUOUS
 62
     7
100
AcDbLine
 10
293.536073
 20
682.714297
 30
0.0
 11
293.552713
 21
682.694019
 31
0.0
  0
LINE
  5
1061
100
AcDbEntity
  8
10000_FRONT
370
    25
390
0
  6
CONTINUOUS
 62
     7
100
AcDbLine
 10
293.552713
 20
682.694019
 30
0.0
 11
293.568517
 21
682.671977
 31
0.0
  0
LINE
  5
1062
100
AcDbEntity
  8
10000_FRONT
370
    25
390
0
  6
CONTINUOUS
 62
     7
100
AcDbLine
 10
293.568517
 20
682.671977
 30
0.0
 11
293.583211
 21
682.648273
 31
0.0
  0
LINE
  5
1063
100
AcDbEntity
  8
10000_FRONT
370
    25
390
0
  6
CONTINUOUS
 62
     7
100
AcDbLine
 10
293.583211
 20
682.648273
 30
0.0
 11
293.596506
 21
682.623027
 31
0.0
  0
LINE
  5
1064
100
AcDbEntity
  8
10000_FRONT
370
    25
390
0
  6
CONTINUOUS
 62
     7
100
AcDbLine
 10
293.596506
 20
682.623027
 30
0.0
 11
293.608133
 21
682.59637
 31
0.0
  0
LINE
  5
1065
100
AcDbEntity
  8
10000_FRONT
370
    25
390
0
  6
CONTINUOUS
 62
     7
100
AcDbLine
 10
293.608133
 20
682.59637
 30
0.0
 11
293.617918
 21
682.568492
 31
0.0
  0
LINE
  5
1066
100
AcDbEntity
  8
10000_FRONT
370
    25
390
0
  6
CONTINUOUS
 62
     7
100
AcDbLine
 10
293.617918
 20
682.568492
 30
0.0
 11
293.625703
 21
682.539645
 31
0.0
  0
LINE
  5
1067
100
AcDbEntity
  8
10000_FRONT
370
    25
390
0
  6
CONTINUOUS
 62
     7
100
AcDbLine
 10
293.625703
 20
682.539645
 30
0.0
 11
293.631334
 21
682.510089
 31
0.0
  0
LINE
  5
1068
100
AcDbEntity
  8
10000_FRONT
370
    25
390
0
  6
CONTINUOUS
 62
     7
100
AcDbLine
 10
293.631334
 20
682.510089
 30
0.0
 11
293.63474
 21
682.480098
 31
0.0
  0
LINE
  5
1069
100
AcDbEntity
  8
10000_FRONT
370
    25
390
0
  6
CONTINUOUS
 62
     7
100
AcDbLine
 10
293.63474
 20
682.480098
 30
0.0
 11
293.635881
 21
682.449992
 31
0.0
  0
LINE
  5
106A
100
AcDbEntity
  8
10000_FRONT
370
    25
390
0
  6
CONTINUOUS
 62
     7
100
AcDbLine
 10
293.635881
 20
682.449992
 30
0.0
 11
293.635881
 21
679.649989
 31
0.0
  0
LINE
  5
106B
100
AcDbEntity
  8
10000_FRONT
370
    25
390
0
  6
CONTINUOUS
 62
     7
100
AcDbLine
 10
293.64858
 20
679.549991
 30
0.0
 11
293.654104
 21
679.530757
 31
0.0
  0
LINE
  5
106C
100
AcDbEntity
  8
10000_FRONT
370
    25
390
0
  6
CONTINUOUS
 62
     7
100
AcDbLine
 10
293.654104
 20
679.530757
 30
0.0
 11
293.660387
 21
679.512134
 31
0.0
  0
LINE
  5
106D
100
AcDbEntity
  8
10000_FRONT
370
    25
390
0
  6
CONTINUOUS
 62
     7
100
AcDbLine
 10
293.660387
 20
679.512134
 30
0.0
 11
293.667535
 21
679.494067
 31
0.0
  0
LINE
  5
106E
100
AcDbEntity
  8
10000_FRONT
370
    25
390
0
  6
CONTINUOUS
 62
     7
100
AcDbLine
 10
293.667535
 20
679.494067
 30
0.0
 11
293.675668
 21
679.476169
 31
0.0
  0
LINE
  5
106F
100
AcDbEntity
  8
10000_FRONT
370
    25
390
0
  6
CONTINUOUS
 62
     7
100
AcDbLine
 10
293.675668
 20
679.476169
 30
0.0
 11
293.684747
 21
679.458537
 31
0.0
  0
LINE
  5
1070
100
AcDbEntity
  8
10000_FRONT
370
    25
390
0
  6
CONTINUOUS
 62
     7
100
AcDbLine
 10
293.684747
 20
679.458537
 30
0.0
 11
293.694719
 21
679.441272
 31
0.0
  0
LINE
  5
1071
100
AcDbEntity
  8
10000_FRONT
370
    25
390
0
  6
CONTINUOUS
 62
     7
100
AcDbLine
 10
293.694719
 20
679.441272
 30
0.0
 11
293.705545
 21
679.424487
 31
0.0
  0
LINE
  5
1072
100
AcDbEntity
  8
10000_FRONT
370
    25
390
0
  6
CONTINUOUS
 62
     7
100
AcDbLine
 10
293.705545
 20
679.424487
 30
0.0
 11
293.717176
 21
679.408282
 31
0.0
  0
LINE
  5
1073
100
AcDbEntity
  8
10000_FRONT
370
    25
390
0
  6
CONTINUOUS
 62
     7
100
AcDbLine
 10
293.717176
 20
679.408282
 30
0.0
 11
293.729562
 21
679.392764
 31
0.0
  0
LINE
  5
1074
100
AcDbEntity
  8
10000_FRONT
370
    25
390
0
  6
CONTINUOUS
 62
     7
100
AcDbLine
 10
293.729562
 20
679.392764
 30
0.0
 11
293.742628
 21
679.377994
 31
0.0
  0
LINE
  5
1075
100
AcDbEntity
  8
10000_FRONT
370
    25
390
0
  6
CONTINUOUS
 62
     7
100
AcDbLine
 10
293.742628
 20
679.377994
 30
0.0
 11
293.756273
 21
679.364017
 31
0.0
  0
LINE
  5
1076
100
AcDbEntity
  8
10000_FRONT
370
    25
390
0
  6
CONTINUOUS
 62
     7
100
AcDbLine
 10
293.756273
 20
679.364017
 30
0.0
 11
293.770387
 21
679.350871
 31
0.0
  0
LINE
  5
1077
100
AcDbEntity
  8
10000_FRONT
370
    25
390
0
  6
CONTINUOUS
 62
     7
100
AcDbLine
 10
293.770387
 20
679.350871
 30
0.0
 11
293.784872
 21
679.338596
 31
0.0
  0
LINE
  5
1078
100
AcDbEntity
  8
10000_FRONT
370
    25
390
0
  6
CONTINUOUS
 62
     7
100
AcDbLine
 10
293.784872
 20
679.338596
 30
0.0
 11
293.799623
 21
679.327228
 31
0.0
  0
LINE
  5
1079
100
AcDbEntity
  8
10000_FRONT
370
    25
390
0
  6
CONTINUOUS
 62
     7
100
AcDbLine
 10
293.799623
 20
679.327228
 30
0.0
 11
293.81455
 21
679.316806
 31
0.0
  0
LINE
  5
107A
100
AcDbEntity
  8
10000_FRONT
370
    25
390
0
  6
CONTINUOUS
 62
     7
100
AcDbLine
 10
293.81455
 20
679.316806
 30
0.0
 11
293.830106
 21
679.307002
 31
0.0
  0
LINE
  5
107B
100
AcDbEntity
  8
10000_FRONT
370
    25
390
0
  6
CONTINUOUS
 62
     7
100
AcDbLine
 10
293.830106
 20
679.307002
 30
0.0
 11
293.846464
 21
679.297733
 31
0.0
  0
LINE
  5
107C
100
AcDbEntity
  8
10000_FRONT
370
    25
390
0
  6
CONTINUOUS
 62
     7
100
AcDbLine
 10
293.846464
 20
679.297733
 30
0.0
 11
293.863531
 21
679.289027
 31
0.0
  0
LINE
  5
107D
100
AcDbEntity
  8
10000_FRONT
370
    25
390
0
  6
CONTINUOUS
 62
     7
100
AcDbLine
 10
293.863531
 20
679.289027
 30
0.0
 11
293.881273
 21
679.281116
 31
0.0
  0
LINE
  5
107E
100
AcDbEntity
  8
10000_FRONT
370
    25
390
0
  6
CONTINUOUS
 62
     7
100
AcDbLine
 10
293.881273
 20
679.281116
 30
0.0
 11
293.89957
 21
679.273944
 31
0.0
  0
LINE
  5
107F
100
AcDbEntity
  8
10000_FRONT
370
    25
390
0
  6
CONTINUOUS
 62
     7
100
AcDbLine
 10
293.89957
 20
679.273944
 30
0.0
 11
293.918359
 21
679.267642
 31
0.0
  0
LINE
  5
1080
100
AcDbEntity
  8
10000_FRONT
370
    25
390
0
  6
CONTINUOUS
 62
     7
100
AcDbLine
 10
293.918359
 20
679.267642
 30
0.0
 11
293.937568
 21
679.262279
 31
0.0
  0
LINE
  5
1081
100
AcDbEntity
  8
10000_FRONT
370
    25
390
0
  6
CONTINUOUS
 62
     7
100
AcDbLine
 10
293.937568
 20
679.262279
 30
0.0
 11
293.957092
 21
679.257877
 31
0.0
  0
LINE
  5
1082
100
AcDbEntity
  8
10000_FRONT
370
    25
390
0
  6
CONTINUOUS
 62
     7
100
AcDbLine
 10
293.957092
 20
679.257877
 30
0.0
 11
293.97681
 21
679.254436
 31
0.0
  0
LINE
  5
1083
100
AcDbEntity
  8
10000_FRONT
370
    25
390
0
  6
CONTINUOUS
 62
     7
100
AcDbLine
 10
293.97681
 20
679.254436
 30
0.0
 11
293.996595
 21
679.251971
 31
0.0
  0
LINE
  5
1084
100
AcDbEntity
  8
10000_FRONT
370
    25
390
0
  6
CONTINUOUS
 62
     7
100
AcDbLine
 10
293.996595
 20
679.251971
 30
0.0
 11
294.016326
 21
679.250484
 31
0.0
  0
LINE
  5
1085
100
AcDbEntity
  8
10000_FRONT
370
    25
390
0
  6
CONTINUOUS
 62
     7
100
AcDbLine
 10
294.016326
 20
679.250484
 30
0.0
 11
294.035881
 21
679.249988
 31
0.0
  0
ARC
  5
1086
100
AcDbEntity
  8
10000_FRONT
370
    25
390
0
  6
CONTINUOUS
 62
     7
100
AcDbCircle
 10
294.035881
 20
679.64999
 30
0.0
 40
0.4
100
AcDbArc
 50
180.000098
 51
194.477304
  0
LINE
  5
1087
100
AcDbEntity
  8
10000_FRONT
370
    25
390
0
  6
CONTINUOUS
 62
     7
100
AcDbLine
 10
310.585881
 20
682.849986
 30
0.0
 11
310.586283
 21
682.849994
 31
0.0
  0
LINE
  5
1088
100
AcDbEntity
  8
10000_FRONT
370
    25
390
0
  6
CONTINUOUS
 62
     7
100
AcDbLine
 10
310.586283
 20
682.849994
 30
0.0
 11
310.586673
 21
682.849994
 31
0.0
  0
LINE
  5
1089
100
AcDbEntity
  8
10000_FRONT
370
    25
390
0
  6
CONTINUOUS
 62
     7
100
AcDbLine
 10
310.586673
 20
682.849994
 30
0.0
 11
310.587015
 21
682.849994
 31
0.0
  0
LINE
  5
108A
100
AcDbEntity
  8
10000_FRONT
370
    25
390
0
  6
CONTINUOUS
 62
     7
100
AcDbLine
 10
310.587015
 20
682.849994
 30
0.0
 11
310.587301
 21
682.849994
 31
0.0
  0
LINE
  5
108B
100
AcDbEntity
  8
10000_FRONT
370
    25
390
0
  6
CONTINUOUS
 62
     7
100
AcDbLine
 10
310.587301
 20
682.849994
 30
0.0
 11
310.587515
 21
682.849994
 31
0.0
  0
LINE
  5
108C
100
AcDbEntity
  8
10000_FRONT
370
    25
390
0
  6
CONTINUOUS
 62
     7
100
AcDbLine
 10
310.587515
 20
682.849994
 30
0.0
 11
310.58765
 21
682.849994
 31
0.0
  0
LINE
  5
108D
100
AcDbEntity
  8
10000_FRONT
370
    25
390
0
  6
CONTINUOUS
 62
     7
100
AcDbLine
 10
310.58765
 20
682.849994
 30
0.0
 11
310.587695
 21
682.849994
 31
0.0
  0
LINE
  5
108E
100
AcDbEntity
  8
10000_FRONT
370
    25
390
0
  6
CONTINUOUS
 62
     7
100
AcDbLine
 10
318.684068
 20
682.849994
 30
0.0
 11
318.684128
 21
682.849994
 31
0.0
  0
LINE
  5
108F
100
AcDbEntity
  8
10000_FRONT
370
    25
390
0
  6
CONTINUOUS
 62
     7
100
AcDbLine
 10
318.684128
 20
682.849994
 30
0.0
 11
318.68431
 21
682.849994
 31
0.0
  0
LINE
  5
1090
100
AcDbEntity
  8
10000_FRONT
370
    25
390
0
  6
CONTINUOUS
 62
     7
100
AcDbLine
 10
318.68431
 20
682.849994
 30
0.0
 11
318.684592
 21
682.849994
 31
0.0
  0
LINE
  5
1091
100
AcDbEntity
  8
10000_FRONT
370
    25
390
0
  6
CONTINUOUS
 62
     7
100
AcDbLine
 10
318.684592
 20
682.849994
 30
0.0
 11
318.684972
 21
682.849994
 31
0.0
  0
LINE
  5
1092
100
AcDbEntity
  8
10000_FRONT
370
    25
390
0
  6
CONTINUOUS
 62
     7
100
AcDbLine
 10
318.684972
 20
682.849994
 30
0.0
 11
318.685411
 21
682.849994
 31
0.0
  0
LINE
  5
1093
100
AcDbEntity
  8
10000_FRONT
370
    25
390
0
  6
CONTINUOUS
 62
     7
100
AcDbLine
 10
318.685411
 20
682.849994
 30
0.0
 11
318.685881
 21
682.849986
 31
0.0
  0
LINE
  5
1094
100
AcDbEntity
  8
10000_FRONT
370
    25
390
0
  6
CONTINUOUS
 62
     7
100
AcDbLine
 10
319.485881
 20
679.249988
 30
0.0
 11
332.285881
 21
679.249988
 31
0.0
  0
ARC
  5
1095
100
AcDbEntity
  8
10000_FRONT
370
    25
390
0
  6
CONTINUOUS
 62
     7
100
AcDbCircle
 10
332.285881
 20
679.64999
 30
0.0
 40
0.4
100
AcDbArc
 50
345.522634
 51
359.999902
  0
LINE
  5
1096
100
AcDbEntity
  8
10000_FRONT
370
    25
390
0
  6
CONTINUOUS
 62
     7
100
AcDbLine
 10
332.285881
 20
679.249988
 30
0.0
 11
332.305435
 21
679.250484
 31
0.0
  0
LINE
  5
1097
100
AcDbEntity
  8
10000_FRONT
370
    25
390
0
  6
CONTINUOUS
 62
     7
100
AcDbLine
 10
332.305435
 20
679.250484
 30
0.0
 11
332.325167
 21
679.251971
 31
0.0
  0
LINE
  5
1098
100
AcDbEntity
  8
10000_FRONT
370
    25
390
0
  6
CONTINUOUS
 62
     7
100
AcDbLine
 10
332.325167
 20
679.251971
 30
0.0
 11
332.344953
 21
679.254436
 31
0.0
  0
LINE
  5
1099
100
AcDbEntity
  8
10000_FRONT
370
    25
390
0
  6
CONTINUOUS
 62
     7
100
AcDbLine
 10
332.344953
 20
679.254436
 30
0.0
 11
332.364669
 21
679.257877
 31
0.0
  0
LINE
  5
109A
100
AcDbEntity
  8
10000_FRONT
370
    25
390
0
  6
CONTINUOUS
 62
     7
100
AcDbLine
 10
332.364669
 20
679.257877
 30
0.0
 11
332.384194
 21
679.262279
 31
0.0
  0
LINE
  5
109B
100
AcDbEntity
  8
10000_FRONT
370
    25
390
0
  6
CONTINUOUS
 62
     7
100
AcDbLine
 10
332.384194
 20
679.262279
 30
0.0
 11
332.403403
 21
679.267642
 31
0.0
  0
LINE
  5
109C
100
AcDbEntity
  8
10000_FRONT
370
    25
390
0
  6
CONTINUOUS
 62
     7
100
AcDbLine
 10
332.403403
 20
679.267642
 30
0.0
 11
332.422191
 21
679.273944
 31
0.0
  0
LINE
  5
109D
100
AcDbEntity
  8
10000_FRONT
370
    25
390
0
  6
CONTINUOUS
 62
     7
100
AcDbLine
 10
332.422191
 20
679.273944
 30
0.0
 11
332.440488
 21
679.281116
 31
0.0
  0
LINE
  5
109E
100
AcDbEntity
  8
10000_FRONT
370
    25
390
0
  6
CONTINUOUS
 62
     7
100
AcDbLine
 10
332.440488
 20
679.281116
 30
0.0
 11
332.458217
 21
679.289073
 31
0.0
  0
LINE
  5
109F
100
AcDbEntity
  8
10000_FRONT
370
    25
390
0
  6
CONTINUOUS
 62
     7
100
AcDbLine
 10
332.458217
 20
679.289073
 30
0.0
 11
332.475299
 21
679.297733
 31
0.0
  0
LINE
  5
10A0
100
AcDbEntity
  8
10000_FRONT
370
    25
390
0
  6
CONTINUOUS
 62
     7
100
AcDbLine
 10
332.475299
 20
679.297733
 30
0.0
 11
332.491657
 21
679.307002
 31
0.0
  0
LINE
  5
10A1
100
AcDbEntity
  8
10000_FRONT
370
    25
390
0
  6
CONTINUOUS
 62
     7
100
AcDbLine
 10
332.491657
 20
679.307002
 30
0.0
 11
332.507212
 21
679.316806
 31
0.0
  0
LINE
  5
10A2
100
AcDbEntity
  8
10000_FRONT
370
    25
390
0
  6
CONTINUOUS
 62
     7
100
AcDbLine
 10
332.507212
 20
679.316806
 30
0.0
 11
332.522141
 21
679.327228
 31
0.0
  0
LINE
  5
10A3
100
AcDbEntity
  8
10000_FRONT
370
    25
390
0
  6
CONTINUOUS
 62
     7
100
AcDbLine
 10
332.522141
 20
679.327228
 30
0.0
 11
332.53689
 21
679.338596
 31
0.0
  0
LINE
  5
10A4
100
AcDbEntity
  8
10000_FRONT
370
    25
390
0
  6
CONTINUOUS
 62
     7
100
AcDbLine
 10
332.53689
 20
679.338596
 30
0.0
 11
332.551374
 21
679.350871
 31
0.0
  0
LINE
  5
10A5
100
AcDbEntity
  8
10000_FRONT
370
    25
390
0
  6
CONTINUOUS
 62
     7
100
AcDbLine
 10
332.551374
 20
679.350871
 30
0.0
 11
332.56549
 21
679.364017
 31
0.0
  0
LINE
  5
10A6
100
AcDbEntity
  8
10000_FRONT
370
    25
390
0
  6
CONTINUOUS
 62
     7
100
AcDbLine
 10
332.56549
 20
679.364017
 30
0.0
 11
332.579134
 21
679.377994
 31
0.0
  0
LINE
  5
10A7
100
AcDbEntity
  8
10000_FRONT
370
    25
390
0
  6
CONTINUOUS
 62
     7
100
AcDbLine
 10
332.579134
 20
679.377994
 30
0.0
 11
332.5922
 21
679.392764
 31
0.0
  0
LINE
  5
10A8
100
AcDbEntity
  8
10000_FRONT
370
    25
390
0
  6
CONTINUOUS
 62
     7
100
AcDbLine
 10
332.5922
 20
679.392764
 30
0.0
 11
332.604586
 21
679.408282
 31
0.0
  0
LINE
  5
10A9
100
AcDbEntity
  8
10000_FRONT
370
    25
390
0
  6
CONTINUOUS
 62
     7
100
AcDbLine
 10
332.604586
 20
679.408282
 30
0.0
 11
332.616216
 21
679.424487
 31
0.0
  0
LINE
  5
10AA
100
AcDbEntity
  8
10000_FRONT
370
    25
390
0
  6
CONTINUOUS
 62
     7
100
AcDbLine
 10
332.616216
 20
679.424487
 30
0.0
 11
332.627041
 21
679.441272
 31
0.0
  0
LINE
  5
10AB
100
AcDbEntity
  8
10000_FRONT
370
    25
390
0
  6
CONTINUOUS
 62
     7
100
AcDbLine
 10
332.627041
 20
679.441272
 30
0.0
 11
332.637015
 21
679.458537
 31
0.0
  0
LINE
  5
10AC
100
AcDbEntity
  8
10000_FRONT
370
    25
390
0
  6
CONTINUOUS
 62
     7
100
AcDbLine
 10
332.637015
 20
679.458537
 30
0.0
 11
332.646092
 21
679.476169
 31
0.0
  0
LINE
  5
10AD
100
AcDbEntity
  8
10000_FRONT
370
    25
390
0
  6
CONTINUOUS
 62
     7
100
AcDbLine
 10
332.646092
 20
679.476169
 30
0.0
 11
332.654225
 21
679.494067
 31
0.0
  0
LINE
  5
10AE
100
AcDbEntity
  8
10000_FRONT
370
    25
390
0
  6
CONTINUOUS
 62
     7
100
AcDbLine
 10
332.654225
 20
679.494067
 30
0.0
 11
332.661374
 21
679.512134
 31
0.0
  0
LINE
  5
10AF
100
AcDbEntity
  8
10000_FRONT
370
    25
390
0
  6
CONTINUOUS
 62
     7
100
AcDbLine
 10
332.661374
 20
679.512134
 30
0.0
 11
332.667658
 21
679.530757
 31
0.0
  0
LINE
  5
10B0
100
AcDbEntity
  8
10000_FRONT
370
    25
390
0
  6
CONTINUOUS
 62
     7
100
AcDbLine
 10
332.667658
 20
679.530757
 30
0.0
 11
332.67318
 21
679.549991
 31
0.0
  0
LINE
  5
10B1
100
AcDbEntity
  8
10000_FRONT
370
    25
390
0
  6
CONTINUOUS
 62
     7
100
AcDbLine
 10
332.685881
 20
682.449992
 30
0.0
 11
332.685881
 21
682.849986
 31
0.0
  0
LINE
  5
10B2
100
AcDbEntity
  8
10000_FRONT
370
    25
390
0
  6
CONTINUOUS
 62
     7
100
AcDbLine
 10
332.685881
 20
679.649989
 30
0.0
 11
332.685881
 21
682.449992
 31
0.0
  0
LINE
  5
10B3
100
AcDbEntity
  8
10000_FRONT
370
    25
390
0
  6
CONTINUOUS
 62
     7
100
AcDbLine
 10
333.085881
 20
682.849986
 30
0.0
 11
333.086283
 21
682.849994
 31
0.0
  0
LINE
  5
10B4
100
AcDbEntity
  8
10000_FRONT
370
    25
390
0
  6
CONTINUOUS
 62
     7
100
AcDbLine
 10
333.086283
 20
682.849994
 30
0.0
 11
333.086674
 21
682.849994
 31
0.0
  0
LINE
  5
10B5
100
AcDbEntity
  8
10000_FRONT
370
    25
390
0
  6
CONTINUOUS
 62
     7
100
AcDbLine
 10
333.086674
 20
682.849994
 30
0.0
 11
333.087015
 21
682.849994
 31
0.0
  0
LINE
  5
10B6
100
AcDbEntity
  8
10000_FRONT
370
    25
390
0
  6
CONTINUOUS
 62
     7
100
AcDbLine
 10
333.087015
 20
682.849994
 30
0.0
 11
333.087301
 21
682.849994
 31
0.0
  0
LINE
  5
10B7
100
AcDbEntity
  8
10000_FRONT
370
    25
390
0
  6
CONTINUOUS
 62
     7
100
AcDbLine
 10
333.087301
 20
682.849994
 30
0.0
 11
333.087515
 21
682.849994
 31
0.0
  0
LINE
  5
10B8
100
AcDbEntity
  8
10000_FRONT
370
    25
390
0
  6
CONTINUOUS
 62
     7
100
AcDbLine
 10
333.087515
 20
682.849994
 30
0.0
 11
333.08765
 21
682.849994
 31
0.0
  0
LINE
  5
10B9
100
AcDbEntity
  8
10000_FRONT
370
    25
390
0
  6
CONTINUOUS
 62
     7
100
AcDbLine
 10
333.08765
 20
682.849994
 30
0.0
 11
333.087694
 21
682.849994
 31
0.0
  0
LINE
  5
10BA
100
AcDbEntity
  8
10000_FRONT
370
    25
390
0
  6
CONTINUOUS
 62
     7
100
AcDbLine
 10
341.184067
 20
682.849994
 30
0.0
 11
341.184128
 21
682.849994
 31
0.0
  0
LINE
  5
10BB
100
AcDbEntity
  8
10000_FRONT
370
    25
390
0
  6
CONTINUOUS
 62
     7
100
AcDbLine
 10
341.184128
 20
682.849994
 30
0.0
 11
341.18431
 21
682.849994
 31
0.0
  0
LINE
  5
10BC
100
AcDbEntity
  8
10000_FRONT
370
    25
390
0
  6
CONTINUOUS
 62
     7
100
AcDbLine
 10
341.18431
 20
682.849994
 30
0.0
 11
341.184592
 21
682.849994
 31
0.0
  0
LINE
  5
10BD
100
AcDbEntity
  8
10000_FRONT
370
    25
390
0
  6
CONTINUOUS
 62
     7
100
AcDbLine
 10
341.184592
 20
682.849994
 30
0.0
 11
341.184972
 21
682.849994
 31
0.0
  0
LINE
  5
10BE
100
AcDbEntity
  8
10000_FRONT
370
    25
390
0
  6
CONTINUOUS
 62
     7
100
AcDbLine
 10
341.184972
 20
682.849994
 30
0.0
 11
341.185411
 21
682.849994
 31
0.0
  0
LINE
  5
10BF
100
AcDbEntity
  8
10000_FRONT
370
    25
390
0
  6
CONTINUOUS
 62
     7
100
AcDbLine
 10
341.185411
 20
682.849994
 30
0.0
 11
341.185881
 21
682.849986
 31
0.0
  0
ARC
  5
10C0
100
AcDbEntity
  8
10000_FRONT
370
    25
390
0
  6
CONTINUOUS
 62
     7
100
AcDbCircle
 10
357.735881
 20
679.64999
 30
0.0
 40
0.4
100
AcDbArc
 50
345.522696
 51
359.999902
  0
LINE
  5
10C1
100
AcDbEntity
  8
10000_FRONT
370
    25
390
0
  6
CONTINUOUS
 62
     7
100
AcDbLine
 10
357.735881
 20
679.249988
 30
0.0
 11
357.755436
 21
679.250484
 31
0.0
  0
LINE
  5
10C2
100
AcDbEntity
  8
10000_FRONT
370
    25
390
0
  6
CONTINUOUS
 62
     7
100
AcDbLine
 10
357.755436
 20
679.250484
 30
0.0
 11
357.775167
 21
679.251971
 31
0.0
  0
LINE
  5
10C3
100
AcDbEntity
  8
10000_FRONT
370
    25
390
0
  6
CONTINUOUS
 62
     7
100
AcDbLine
 10
357.775167
 20
679.251971
 30
0.0
 11
357.794952
 21
679.254436
 31
0.0
  0
LINE
  5
10C4
100
AcDbEntity
  8
10000_FRONT
370
    25
390
0
  6
CONTINUOUS
 62
     7
100
AcDbLine
 10
357.794952
 20
679.254436
 30
0.0
 11
357.81467
 21
679.257877
 31
0.0
  0
LINE
  5
10C5
100
AcDbEntity
  8
10000_FRONT
370
    25
390
0
  6
CONTINUOUS
 62
     7
100
AcDbLine
 10
357.81467
 20
679.257877
 30
0.0
 11
357.834194
 21
679.262279
 31
0.0
  0
LINE
  5
10C6
100
AcDbEntity
  8
10000_FRONT
370
    25
390
0
  6
CONTINUOUS
 62
     7
100
AcDbLine
 10
357.834194
 20
679.262279
 30
0.0
 11
357.853403
 21
679.267642
 31
0.0
  0
LINE
  5
10C7
100
AcDbEntity
  8
10000_FRONT
370
    25
390
0
  6
CONTINUOUS
 62
     7
100
AcDbLine
 10
357.853403
 20
679.267642
 30
0.0
 11
357.872192
 21
679.273944
 31
0.0
  0
LINE
  5
10C8
100
AcDbEntity
  8
10000_FRONT
370
    25
390
0
  6
CONTINUOUS
 62
     7
100
AcDbLine
 10
357.872192
 20
679.273944
 30
0.0
 11
357.890489
 21
679.281116
 31
0.0
  0
LINE
  5
10C9
100
AcDbEntity
  8
10000_FRONT
370
    25
390
0
  6
CONTINUOUS
 62
     7
100
AcDbLine
 10
357.890489
 20
679.281116
 30
0.0
 11
357.908216
 21
679.289073
 31
0.0
  0
LINE
  5
10CA
100
AcDbEntity
  8
10000_FRONT
370
    25
390
0
  6
CONTINUOUS
 62
     7
100
AcDbLine
 10
357.908216
 20
679.289073
 30
0.0
 11
357.925298
 21
679.297733
 31
0.0
  0
LINE
  5
10CB
100
AcDbEntity
  8
10000_FRONT
370
    25
390
0
  6
CONTINUOUS
 62
     7
100
AcDbLine
 10
357.925298
 20
679.297733
 30
0.0
 11
357.941656
 21
679.307002
 31
0.0
  0
LINE
  5
10CC
100
AcDbEntity
  8
10000_FRONT
370
    25
390
0
  6
CONTINUOUS
 62
     7
100
AcDbLine
 10
357.941656
 20
679.307002
 30
0.0
 11
357.957212
 21
679.316806
 31
0.0
  0
LINE
  5
10CD
100
AcDbEntity
  8
10000_FRONT
370
    25
390
0
  6
CONTINUOUS
 62
     7
100
AcDbLine
 10
357.957212
 20
679.316806
 30
0.0
 11
357.972139
 21
679.327228
 31
0.0
  0
LINE
  5
10CE
100
AcDbEntity
  8
10000_FRONT
370
    25
390
0
  6
CONTINUOUS
 62
     7
100
AcDbLine
 10
357.972139
 20
679.327228
 30
0.0
 11
357.98689
 21
679.338596
 31
0.0
  0
LINE
  5
10CF
100
AcDbEntity
  8
10000_FRONT
370
    25
390
0
  6
CONTINUOUS
 62
     7
100
AcDbLine
 10
357.98689
 20
679.338596
 30
0.0
 11
358.001375
 21
679.350871
 31
0.0
  0
LINE
  5
10D0
100
AcDbEntity
  8
10000_FRONT
370
    25
390
0
  6
CONTINUOUS
 62
     7
100
AcDbLine
 10
358.001375
 20
679.350871
 30
0.0
 11
358.015489
 21
679.364017
 31
0.0
  0
LINE
  5
10D1
100
AcDbEntity
  8
10000_FRONT
370
    25
390
0
  6
CONTINUOUS
 62
     7
100
AcDbLine
 10
358.015489
 20
679.364017
 30
0.0
 11
358.029134
 21
679.377994
 31
0.0
  0
LINE
  5
10D2
100
AcDbEntity
  8
10000_FRONT
370
    25
390
0
  6
CONTINUOUS
 62
     7
100
AcDbLine
 10
358.029134
 20
679.377994
 30
0.0
 11
358.042203
 21
679.392764
 31
0.0
  0
LINE
  5
10D3
100
AcDbEntity
  8
10000_FRONT
370
    25
390
0
  6
CONTINUOUS
 62
     7
100
AcDbLine
 10
358.042203
 20
679.392764
 30
0.0
 11
358.054586
 21
679.408282
 31
0.0
  0
LINE
  5
10D4
100
AcDbEntity
  8
10000_FRONT
370
    25
390
0
  6
CONTINUOUS
 62
     7
100
AcDbLine
 10
358.054586
 20
679.408282
 30
0.0
 11
358.066217
 21
679.424487
 31
0.0
  0
LINE
  5
10D5
100
AcDbEntity
  8
10000_FRONT
370
    25
390
0
  6
CONTINUOUS
 62
     7
100
AcDbLine
 10
358.066217
 20
679.424487
 30
0.0
 11
358.077043
 21
679.441272
 31
0.0
  0
LINE
  5
10D6
100
AcDbEntity
  8
10000_FRONT
370
    25
390
0
  6
CONTINUOUS
 62
     7
100
AcDbLine
 10
358.077043
 20
679.441272
 30
0.0
 11
358.087015
 21
679.458537
 31
0.0
  0
LINE
  5
10D7
100
AcDbEntity
  8
10000_FRONT
370
    25
390
0
  6
CONTINUOUS
 62
     7
100
AcDbLine
 10
358.087015
 20
679.458537
 30
0.0
 11
358.096094
 21
679.476169
 31
0.0
  0
LINE
  5
10D8
100
AcDbEntity
  8
10000_FRONT
370
    25
390
0
  6
CONTINUOUS
 62
     7
100
AcDbLine
 10
358.096094
 20
679.476169
 30
0.0
 11
358.104227
 21
679.494067
 31
0.0
  0
LINE
  5
10D9
100
AcDbEntity
  8
10000_FRONT
370
    25
390
0
  6
CONTINUOUS
 62
     7
100
AcDbLine
 10
358.104227
 20
679.494067
 30
0.0
 11
358.111375
 21
679.512134
 31
0.0
  0
LINE
  5
10DA
100
AcDbEntity
  8
10000_FRONT
370
    25
390
0
  6
CONTINUOUS
 62
     7
100
AcDbLine
 10
358.111375
 20
679.512134
 30
0.0
 11
358.117658
 21
679.530757
 31
0.0
  0
LINE
  5
10DB
100
AcDbEntity
  8
10000_FRONT
370
    25
390
0
  6
CONTINUOUS
 62
     7
100
AcDbLine
 10
358.117658
 20
679.530757
 30
0.0
 11
358.123182
 21
679.549991
 31
0.0
  0
LINE
  5
10DC
100
AcDbEntity
  8
10000_FRONT
370
    25
390
0
  6
CONTINUOUS
 62
     7
100
AcDbLine
 10
358.135881
 20
679.649989
 30
0.0
 11
358.135881
 21
682.449992
 31
0.0
  0
LINE
  5
10DD
100
AcDbEntity
  8
10000_FRONT
370
    25
390
0
  6
CONTINUOUS
 62
     7
100
AcDbLine
 10
358.135881
 20
682.449992
 30
0.0
 11
358.137022
 21
682.480098
 31
0.0
  0
LINE
  5
10DE
100
AcDbEntity
  8
10000_FRONT
370
    25
390
0
  6
CONTINUOUS
 62
     7
100
AcDbLine
 10
358.137022
 20
682.480098
 30
0.0
 11
358.140428
 21
682.510089
 31
0.0
  0
LINE
  5
10DF
100
AcDbEntity
  8
10000_FRONT
370
    25
390
0
  6
CONTINUOUS
 62
     7
100
AcDbLine
 10
358.140428
 20
682.510089
 30
0.0
 11
358.146059
 21
682.539645
 31
0.0
  0
LINE
  5
10E0
100
AcDbEntity
  8
10000_FRONT
370
    25
390
0
  6
CONTINUOUS
 62
     7
100
AcDbLine
 10
358.146059
 20
682.539645
 30
0.0
 11
358.153844
 21
682.568492
 31
0.0
  0
LINE
  5
10E1
100
AcDbEntity
  8
10000_FRONT
370
    25
390
0
  6
CONTINUOUS
 62
     7
100
AcDbLine
 10
358.153844
 20
682.568492
 30
0.0
 11
358.163629
 21
682.59637
 31
0.0
  0
LINE
  5
10E2
100
AcDbEntity
  8
10000_FRONT
370
    25
390
0
  6
CONTINUOUS
 62
     7
100
AcDbLine
 10
358.163629
 20
682.59637
 30
0.0
 11
358.175256
 21
682.623027
 31
0.0
  0
LINE
  5
10E3
100
AcDbEntity
  8
10000_FRONT
370
    25
390
0
  6
CONTINUOUS
 62
     7
100
AcDbLine
 10
358.175256
 20
682.623027
 30
0.0
 11
358.188551
 21
682.648273
 31
0.0
  0
LINE
  5
10E4
100
AcDbEntity
  8
10000_FRONT
370
    25
390
0
  6
CONTINUOUS
 62
     7
100
AcDbLine
 10
358.188551
 20
682.648273
 30
0.0
 11
358.203245
 21
682.671977
 31
0.0
  0
LINE
  5
10E5
100
AcDbEntity
  8
10000_FRONT
370
    25
390
0
  6
CONTINUOUS
 62
     7
100
AcDbLine
 10
358.203245
 20
682.671977
 30
0.0
 11
358.219049
 21
682.694019
 31
0.0
  0
LINE
  5
10E6
100
AcDbEntity
  8
10000_FRONT
370
    25
390
0
  6
CONTINUOUS
 62
     7
100
AcDbLine
 10
358.219049
 20
682.694019
 30
0.0
 11
358.235689
 21
682.714297
 31
0.0
  0
LINE
  5
10E7
100
AcDbEntity
  8
10000_FRONT
370
    25
390
0
  6
CONTINUOUS
 62
     7
100
AcDbLine
 10
358.235689
 20
682.714297
 30
0.0
 11
358.252878
 21
682.732677
 31
0.0
  0
LINE
  5
10E8
100
AcDbEntity
  8
10000_FRONT
370
    25
390
0
  6
CONTINUOUS
 62
     7
100
AcDbLine
 10
358.252878
 20
682.732677
 30
0.0
 11
358.270628
 21
682.749347
 31
0.0
  0
LINE
  5
10E9
100
AcDbEntity
  8
10000_FRONT
370
    25
390
0
  6
CONTINUOUS
 62
     7
100
AcDbLine
 10
358.270628
 20
682.749347
 30
0.0
 11
358.289053
 21
682.764636
 31
0.0
  0
LINE
  5
10EA
100
AcDbEntity
  8
10000_FRONT
370
    25
390
0
  6
CONTINUOUS
 62
     7
100
AcDbLine
 10
358.289053
 20
682.764636
 30
0.0
 11
358.307989
 21
682.778537
 31
0.0
  0
LINE
  5
10EB
100
AcDbEntity
  8
10000_FRONT
370
    25
390
0
  6
CONTINUOUS
 62
     7
100
AcDbLine
 10
358.307989
 20
682.778537
 30
0.0
 11
358.327268
 21
682.79108
 31
0.0
  0
LINE
  5
10EC
100
AcDbEntity
  8
10000_FRONT
370
    25
390
0
  6
CONTINUOUS
 62
     7
100
AcDbLine
 10
358.327268
 20
682.79108
 30
0.0
 11
358.346719
 21
682.802257
 31
0.0
  0
LINE
  5
10ED
100
AcDbEntity
  8
10000_FRONT
370
    25
390
0
  6
CONTINUOUS
 62
     7
100
AcDbLine
 10
358.346719
 20
682.802257
 30
0.0
 11
358.366178
 21
682.812091
 31
0.0
  0
LINE
  5
10EE
100
AcDbEntity
  8
10000_FRONT
370
    25
390
0
  6
CONTINUOUS
 62
     7
100
AcDbLine
 10
358.366178
 20
682.812091
 30
0.0
 11
358.385473
 21
682.820598
 31
0.0
  0
LINE
  5
10EF
100
AcDbEntity
  8
10000_FRONT
370
    25
390
0
  6
CONTINUOUS
 62
     7
100
AcDbLine
 10
358.385473
 20
682.820598
 30
0.0
 11
358.404436
 21
682.827777
 31
0.0
  0
LINE
  5
10F0
100
AcDbEntity
  8
10000_FRONT
370
    25
390
0
  6
CONTINUOUS
 62
     7
100
AcDbLine
 10
358.404436
 20
682.827777
 30
0.0
 11
358.423173
 21
682.833766
 31
0.0
  0
LINE
  5
10F1
100
AcDbEntity
  8
10000_FRONT
370
    25
390
0
  6
CONTINUOUS
 62
     7
100
AcDbLine
 10
358.423173
 20
682.833766
 30
0.0
 11
358.441686
 21
682.838702
 31
0.0
  0
LINE
  5
10F2
100
AcDbEntity
  8
10000_FRONT
370
    25
390
0
  6
CONTINUOUS
 62
     7
100
AcDbLine
 10
358.441686
 20
682.838702
 30
0.0
 11
358.459627
 21
682.842632
 31
0.0
  0
LINE
  5
10F3
100
AcDbEntity
  8
10000_FRONT
370
    25
390
0
  6
CONTINUOUS
 62
     7
100
AcDbLine
 10
358.459627
 20
682.842632
 30
0.0
 11
358.476648
 21
682.845576
 31
0.0
  0
LINE
  5
10F4
100
AcDbEntity
  8
10000_FRONT
370
    25
390
0
  6
CONTINUOUS
 62
     7
100
AcDbLine
 10
358.476648
 20
682.845576
 30
0.0
 11
358.492895
 21
682.847667
 31
0.0
  0
LINE
  5
10F5
100
AcDbEntity
  8
10000_FRONT
370
    25
390
0
  6
CONTINUOUS
 62
     7
100
AcDbLine
 10
358.492895
 20
682.847667
 30
0.0
 11
358.50815
 21
682.849025
 31
0.0
  0
LINE
  5
10F6
100
AcDbEntity
  8
10000_FRONT
370
    25
390
0
  6
CONTINUOUS
 62
     7
100
AcDbLine
 10
358.50815
 20
682.849025
 30
0.0
 11
358.522176
 21
682.849757
 31
0.0
  0
LINE
  5
10F7
100
AcDbEntity
  8
10000_FRONT
370
    25
390
0
  6
CONTINUOUS
 62
     7
100
AcDbLine
 10
358.522176
 20
682.849757
 30
0.0
 11
358.535883
 21
682.849986
 31
0.0
  0
LINE
  5
10F8
100
AcDbEntity
  8
10000_FRONT
370
    25
390
0
  6
CONTINUOUS
 62
     7
100
AcDbLine
 10
290.885881
 20
682.850002
 30
0.0
 11
290.885881
 21
683.534496
 31
0.0
  0
LINE
  5
10F9
100
AcDbEntity
  8
10000_FRONT
370
    25
390
0
  6
CONTINUOUS
 62
     7
100
AcDbLine
 10
290.885881
 20
699.065555
 30
0.0
 11
290.885881
 21
683.534496
 31
0.0
  0
LINE
  5
10FA
100
AcDbEntity
  8
10000_FRONT
370
    25
390
0
  6
CONTINUOUS
 62
     7
100
AcDbLine
 10
290.885881
 20
699.065555
 30
0.0
 11
290.885881
 21
699.935142
 31
0.0
  0
LINE
  5
10FB
100
AcDbEntity
  8
10000_FRONT
370
    25
390
0
  6
CONTINUOUS
 62
     7
100
AcDbLine
 10
290.885881
 20
699.95
 30
0.0
 11
290.885881
 21
699.935142
 31
0.0
  0
LINE
  5
10FC
100
AcDbEntity
  8
10000_FRONT
370
    25
390
0
  6
CONTINUOUS
 62
     7
100
AcDbLine
 10
293.635881
 20
682.449992
 30
0.0
 11
310.185881
 21
682.449992
 31
0.0
  0
LINE
  5
10FD
100
AcDbEntity
  8
10000_FRONT
370
    25
390
0
  6
CONTINUOUS
 62
     7
100
AcDbLine
 10
319.085881
 20
682.449992
 30
0.0
 11
332.685881
 21
682.449992
 31
0.0
  0
LINE
  5
10FE
100
AcDbEntity
  8
10000_FRONT
370
    25
390
0
  6
CONTINUOUS
 62
     7
100
AcDbLine
 10
293.64858
 20
679.549991
 30
0.0
 11
310.17318
 21
679.549991
 31
0.0
  0
LINE
  5
10FF
100
AcDbEntity
  8
10000_FRONT
370
    25
390
0
  6
CONTINUOUS
 62
     7
100
AcDbLine
 10
319.098582
 20
679.549991
 30
0.0
 11
332.67318
 21
679.549991
 31
0.0
  0
LINE
  5
1100
100
AcDbEntity
  8
10000_FRONT
370
    25
390
0
  6
CONTINUOUS
 62
     7
100
AcDbLine
 10
341.598582
 20
679.549991
 30
0.0
 11
358.123182
 21
679.549991
 31
0.0
  0
LINE
  5
1101
100
AcDbEntity
  8
10000_FRONT
370
    25
390
0
  6
CONTINUOUS
 62
     7
100
AcDbLine
 10
341.585881
 20
682.449992
 30
0.0
 11
358.135881
 21
682.449992
 31
0.0
  0
LINE
  5
1102
100
AcDbEntity
  8
10000_FRONT
370
    25
390
0
  6
CONTINUOUS
 62
     7
100
AcDbLine
 10
290.885881
 20
682.850002
 30
0.0
 11
360.885881
 21
682.850002
 31
0.0
  0
LINE
  5
1103
100
AcDbEntity
  8
10000_FRONT
370
    25
390
0
  6
CONTINUOUS
 62
     7
100
AcDbLine
 10
290.885881
 20
683.534496
 30
0.0
 11
360.885881
 21
683.534496
 31
0.0
  0
LINE
  5
1104
100
AcDbEntity
  8
10000_FRONT
370
    25
390
0
  6
CONTINUOUS
 62
     7
100
AcDbLine
 10
290.885881
 20
699.065555
 30
0.0
 11
360.885881
 21
699.065555
 31
0.0
  0
LINE
  5
1105
100
AcDbEntity
  8
10000_FRONT
370
    25
390
0
  6
CONTINUOUS
 62
     7
100
AcDbLine
 10
290.885881
 20
699.935142
 30
0.0
 11
360.885881
 21
699.935142
 31
0.0
  0
LINE
  5
1106
100
AcDbEntity
  8
10000_FRONT
370
    25
390
0
  6
CONTINUOUS
 62
     7
100
AcDbLine
 10
290.885881
 20
699.95
 30
0.0
 11
360.885881
 21
699.95
 31
0.0
  0
LINE
  5
1107
100
AcDbEntity
  8
10000_FRONT
370
    25
390
0
  6
CONTINUOUS
 62
     7
100
AcDbLine
 10
290.885881
 20
818.964858
 30
0.0
 11
290.885881
 21
818.95
 31
0.0
  0
LINE
  5
1108
100
AcDbEntity
  8
10000_FRONT
370
    25
390
0
  6
CONTINUOUS
 62
     7
100
AcDbLine
 10
290.885881
 20
818.964858
 30
0.0
 11
290.885881
 21
819.834445
 31
0.0
  0
LINE
  5
1109
100
AcDbEntity
  8
10000_FRONT
370
    25
390
0
  6
CONTINUOUS
 62
     7
100
AcDbLine
 10
290.885881
 20
835.365504
 30
0.0
 11
290.885881
 21
819.834445
 31
0.0
  0
LINE
  5
110A
100
AcDbEntity
  8
10000_FRONT
370
    25
390
0
  6
CONTINUOUS
 62
     7
100
AcDbLine
 10
290.885881
 20
835.365504
 30
0.0
 11
290.885881
 21
836.049998
 31
0.0
  0
ARC
  5
110B
100
AcDbEntity
  8
10000_FRONT
370
    25
390
0
  6
CONTINUOUS
 62
     7
100
AcDbCircle
 10
303.485881
 20
825.55
 30
0.0
 40
3.6
100
AcDbArc
 50
270.000006
 51
89.999994
  0
ARC
  5
110C
100
AcDbEntity
  8
10000_FRONT
370
    25
390
0
  6
CONTINUOUS
 62
     7
100
AcDbCircle
 10
325.885881
 20
825.55
 30
0.0
 40
3.6
100
AcDbArc
 50
270.0
 51
90.0
  0
ARC
  5
110D
100
AcDbEntity
  8
10000_FRONT
370
    25
390
0
  6
CONTINUOUS
 62
     7
100
AcDbCircle
 10
348.285881
 20
825.55
 30
0.0
 40
3.6
100
AcDbArc
 50
269.999994
 51
90.000006
  0
ARC
  5
110E
100
AcDbEntity
  8
10000_FRONT
370
    25
390
0
  6
CONTINUOUS
 62
     7
100
AcDbCircle
 10
348.285881
 20
825.55
 30
0.0
 40
3.6
100
AcDbArc
 50
90.000006
 51
269.999994
  0
ARC
  5
110F
100
AcDbEntity
  8
10000_FRONT
370
    25
390
0
  6
CONTINUOUS
 62
     7
100
AcDbCircle
 10
325.885881
 20
825.55
 30
0.0
 40
3.6
100
AcDbArc
 50
90.0
 51
270.0
  0
ARC
  5
1110
100
AcDbEntity
  8
10000_FRONT
370
    25
390
0
  6
CONTINUOUS
 62
     7
100
AcDbCircle
 10
303.485881
 20
825.55
 30
0.0
 40
3.6
100
AcDbArc
 50
89.999994
 51
270.000006
  0
LINE
  5
1111
100
AcDbEntity
  8
10000_FRONT
370
    25
390
0
  6
CONTINUOUS
 62
     7
100
AcDbLine
 10
357.735881
 20
839.650012
 30
0.0
 11
341.985881
 21
839.650012
 31
0.0
  0
ARC
  5
1112
100
AcDbEntity
  8
10000_FRONT
370
    25
390
0
  6
CONTINUOUS
 62
     7
100
AcDbCircle
 10
341.985881
 20
839.25001
 30
0.0
 40
0.4
100
AcDbArc
 50
165.522634
 51
179.999902
  0
LINE
  5
1113
100
AcDbEntity
  8
10000_FRONT
370
    25
390
0
  6
CONTINUOUS
 62
     7
100
AcDbLine
 10
341.985881
 20
839.650012
 30
0.0
 11
341.966327
 21
839.649516
 31
0.0
  0
LINE
  5
1114
100
AcDbEntity
  8
10000_FRONT
370
    25
390
0
  6
CONTINUOUS
 62
     7
100
AcDbLine
 10
341.966327
 20
839.649516
 30
0.0
 11
341.946596
 21
839.648029
 31
0.0
  0
LINE
  5
1115
100
AcDbEntity
  8
10000_FRONT
370
    25
390
0
  6
CONTINUOUS
 62
     7
100
AcDbLine
 10
341.946596
 20
839.648029
 30
0.0
 11
341.926809
 21
839.645564
 31
0.0
  0
LINE
  5
1116
100
AcDbEntity
  8
10000_FRONT
370
    25
390
0
  6
CONTINUOUS
 62
     7
100
AcDbLine
 10
341.926809
 20
839.645564
 30
0.0
 11
341.907093
 21
839.642123
 31
0.0
  0
LINE
  5
1117
100
AcDbEntity
  8
10000_FRONT
370
    25
390
0
  6
CONTINUOUS
 62
     7
100
AcDbLine
 10
341.907093
 20
839.642123
 30
0.0
 11
341.887569
 21
839.637721
 31
0.0
  0
LINE
  5
1118
100
AcDbEntity
  8
10000_FRONT
370
    25
390
0
  6
CONTINUOUS
 62
     7
100
AcDbLine
 10
341.887569
 20
839.637721
 30
0.0
 11
341.868359
 21
839.632358
 31
0.0
  0
LINE
  5
1119
100
AcDbEntity
  8
10000_FRONT
370
    25
390
0
  6
CONTINUOUS
 62
     7
100
AcDbLine
 10
341.868359
 20
839.632358
 30
0.0
 11
341.849571
 21
839.626056
 31
0.0
  0
LINE
  5
111A
100
AcDbEntity
  8
10000_FRONT
370
    25
390
0
  6
CONTINUOUS
 62
     7
100
AcDbLine
 10
341.849571
 20
839.626056
 30
0.0
 11
341.831274
 21
839.618884
 31
0.0
  0
LINE
  5
111B
100
AcDbEntity
  8
10000_FRONT
370
    25
390
0
  6
CONTINUOUS
 62
     7
100
AcDbLine
 10
341.831274
 20
839.618884
 30
0.0
 11
341.813545
 21
839.610927
 31
0.0
  0
LINE
  5
111C
100
AcDbEntity
  8
10000_FRONT
370
    25
390
0
  6
CONTINUOUS
 62
     7
100
AcDbLine
 10
341.813545
 20
839.610927
 30
0.0
 11
341.796463
 21
839.602267
 31
0.0
  0
LINE
  5
111D
100
AcDbEntity
  8
10000_FRONT
370
    25
390
0
  6
CONTINUOUS
 62
     7
100
AcDbLine
 10
341.796463
 20
839.602267
 30
0.0
 11
341.780105
 21
839.592998
 31
0.0
  0
LINE
  5
111E
100
AcDbEntity
  8
10000_FRONT
370
    25
390
0
  6
CONTINUOUS
 62
     7
100
AcDbLine
 10
341.780105
 20
839.592998
 30
0.0
 11
341.76455
 21
839.583194
 31
0.0
  0
LINE
  5
111F
100
AcDbEntity
  8
10000_FRONT
370
    25
390
0
  6
CONTINUOUS
 62
     7
100
AcDbLine
 10
341.76455
 20
839.583194
 30
0.0
 11
341.749622
 21
839.572772
 31
0.0
  0
LINE
  5
1120
100
AcDbEntity
  8
10000_FRONT
370
    25
390
0
  6
CONTINUOUS
 62
     7
100
AcDbLine
 10
341.749622
 20
839.572772
 30
0.0
 11
341.734872
 21
839.561404
 31
0.0
  0
LINE
  5
1121
100
AcDbEntity
  8
10000_FRONT
370
    25
390
0
  6
CONTINUOUS
 62
     7
100
AcDbLine
 10
341.734872
 20
839.561404
 30
0.0
 11
341.720387
 21
839.549129
 31
0.0
  0
LINE
  5
1122
100
AcDbEntity
  8
10000_FRONT
370
    25
390
0
  6
CONTINUOUS
 62
     7
100
AcDbLine
 10
341.720387
 20
839.549129
 30
0.0
 11
341.706272
 21
839.535983
 31
0.0
  0
LINE
  5
1123
100
AcDbEntity
  8
10000_FRONT
370
    25
390
0
  6
CONTINUOUS
 62
     7
100
AcDbLine
 10
341.706272
 20
839.535983
 30
0.0
 11
341.692628
 21
839.522006
 31
0.0
  0
LINE
  5
1124
100
AcDbEntity
  8
10000_FRONT
370
    25
390
0
  6
CONTINUOUS
 62
     7
100
AcDbLine
 10
341.692628
 20
839.522006
 30
0.0
 11
341.679562
 21
839.507236
 31
0.0
  0
LINE
  5
1125
100
AcDbEntity
  8
10000_FRONT
370
    25
390
0
  6
CONTINUOUS
 62
     7
100
AcDbLine
 10
341.679562
 20
839.507236
 30
0.0
 11
341.667176
 21
839.491718
 31
0.0
  0
LINE
  5
1126
100
AcDbEntity
  8
10000_FRONT
370
    25
390
0
  6
CONTINUOUS
 62
     7
100
AcDbLine
 10
341.667176
 20
839.491718
 30
0.0
 11
341.655546
 21
839.475513
 31
0.0
  0
LINE
  5
1127
100
AcDbEntity
  8
10000_FRONT
370
    25
390
0
  6
CONTINUOUS
 62
     7
100
AcDbLine
 10
341.655546
 20
839.475513
 30
0.0
 11
341.644721
 21
839.458728
 31
0.0
  0
LINE
  5
1128
100
AcDbEntity
  8
10000_FRONT
370
    25
390
0
  6
CONTINUOUS
 62
     7
100
AcDbLine
 10
341.644721
 20
839.458728
 30
0.0
 11
341.634746
 21
839.441463
 31
0.0
  0
LINE
  5
1129
100
AcDbEntity
  8
10000_FRONT
370
    25
390
0
  6
CONTINUOUS
 62
     7
100
AcDbLine
 10
341.634746
 20
839.441463
 30
0.0
 11
341.62567
 21
839.423831
 31
0.0
  0
LINE
  5
112A
100
AcDbEntity
  8
10000_FRONT
370
    25
390
0
  6
CONTINUOUS
 62
     7
100
AcDbLine
 10
341.62567
 20
839.423831
 30
0.0
 11
341.617536
 21
839.405933
 31
0.0
  0
LINE
  5
112B
100
AcDbEntity
  8
10000_FRONT
370
    25
390
0
  6
CONTINUOUS
 62
     7
100
AcDbLine
 10
341.617536
 20
839.405933
 30
0.0
 11
341.610388
 21
839.387866
 31
0.0
  0
LINE
  5
112C
100
AcDbEntity
  8
10000_FRONT
370
    25
390
0
  6
CONTINUOUS
 62
     7
100
AcDbLine
 10
341.610388
 20
839.387866
 30
0.0
 11
341.604104
 21
839.369243
 31
0.0
  0
LINE
  5
112D
100
AcDbEntity
  8
10000_FRONT
370
    25
390
0
  6
CONTINUOUS
 62
     7
100
AcDbLine
 10
341.604104
 20
839.369243
 30
0.0
 11
341.598582
 21
839.350009
 31
0.0
  0
LINE
  5
112E
100
AcDbEntity
  8
10000_FRONT
370
    25
390
0
  6
CONTINUOUS
 62
     7
100
AcDbLine
 10
341.585881
 20
836.050014
 30
0.0
 11
341.585881
 21
836.450008
 31
0.0
  0
LINE
  5
112F
100
AcDbEntity
  8
10000_FRONT
370
    25
390
0
  6
CONTINUOUS
 62
     7
100
AcDbLine
 10
341.585881
 20
839.250011
 30
0.0
 11
341.585881
 21
836.450008
 31
0.0
  0
LINE
  5
1130
100
AcDbEntity
  8
10000_FRONT
370
    25
390
0
  6
CONTINUOUS
 62
     7
100
AcDbLine
 10
332.685881
 20
836.450008
 30
0.0
 11
332.685881
 21
839.250011
 31
0.0
  0
LINE
  5
1131
100
AcDbEntity
  8
10000_FRONT
370
    25
390
0
  6
CONTINUOUS
 62
     7
100
AcDbLine
 10
332.685881
 20
836.050014
 30
0.0
 11
332.685881
 21
836.450008
 31
0.0
  0
LINE
  5
1132
100
AcDbEntity
  8
10000_FRONT
370
    25
390
0
  6
CONTINUOUS
 62
     7
100
AcDbLine
 10
332.67318
 20
839.350009
 30
0.0
 11
332.667658
 21
839.369243
 31
0.0
  0
LINE
  5
1133
100
AcDbEntity
  8
10000_FRONT
370
    25
390
0
  6
CONTINUOUS
 62
     7
100
AcDbLine
 10
332.667658
 20
839.369243
 30
0.0
 11
332.661374
 21
839.387866
 31
0.0
  0
LINE
  5
1134
100
AcDbEntity
  8
10000_FRONT
370
    25
390
0
  6
CONTINUOUS
 62
     7
100
AcDbLine
 10
332.661374
 20
839.387866
 30
0.0
 11
332.654225
 21
839.405933
 31
0.0
  0
LINE
  5
1135
100
AcDbEntity
  8
10000_FRONT
370
    25
390
0
  6
CONTINUOUS
 62
     7
100
AcDbLine
 10
332.654225
 20
839.405933
 30
0.0
 11
332.646092
 21
839.423831
 31
0.0
  0
LINE
  5
1136
100
AcDbEntity
  8
10000_FRONT
370
    25
390
0
  6
CONTINUOUS
 62
     7
100
AcDbLine
 10
332.646092
 20
839.423831
 30
0.0
 11
332.637015
 21
839.441463
 31
0.0
  0
LINE
  5
1137
100
AcDbEntity
  8
10000_FRONT
370
    25
390
0
  6
CONTINUOUS
 62
     7
100
AcDbLine
 10
332.637015
 20
839.441463
 30
0.0
 11
332.627041
 21
839.458728
 31
0.0
  0
LINE
  5
1138
100
AcDbEntity
  8
10000_FRONT
370
    25
390
0
  6
CONTINUOUS
 62
     7
100
AcDbLine
 10
332.627041
 20
839.458728
 30
0.0
 11
332.616216
 21
839.475513
 31
0.0
  0
LINE
  5
1139
100
AcDbEntity
  8
10000_FRONT
370
    25
390
0
  6
CONTINUOUS
 62
     7
100
AcDbLine
 10
332.616216
 20
839.475513
 30
0.0
 11
332.604586
 21
839.491718
 31
0.0
  0
LINE
  5
113A
100
AcDbEntity
  8
10000_FRONT
370
    25
390
0
  6
CONTINUOUS
 62
     7
100
AcDbLine
 10
332.604586
 20
839.491718
 30
0.0
 11
332.5922
 21
839.507236
 31
0.0
  0
LINE
  5
113B
100
AcDbEntity
  8
10000_FRONT
370
    25
390
0
  6
CONTINUOUS
 62
     7
100
AcDbLine
 10
332.5922
 20
839.507236
 30
0.0
 11
332.579134
 21
839.522006
 31
0.0
  0
LINE
  5
113C
100
AcDbEntity
  8
10000_FRONT
370
    25
390
0
  6
CONTINUOUS
 62
     7
100
AcDbLine
 10
332.579134
 20
839.522006
 30
0.0
 11
332.56549
 21
839.535983
 31
0.0
  0
LINE
  5
113D
100
AcDbEntity
  8
10000_FRONT
370
    25
390
0
  6
CONTINUOUS
 62
     7
100
AcDbLine
 10
332.56549
 20
839.535983
 30
0.0
 11
332.551374
 21
839.549129
 31
0.0
  0
LINE
  5
113E
100
AcDbEntity
  8
10000_FRONT
370
    25
390
0
  6
CONTINUOUS
 62
     7
100
AcDbLine
 10
332.551374
 20
839.549129
 30
0.0
 11
332.53689
 21
839.561404
 31
0.0
  0
LINE
  5
113F
100
AcDbEntity
  8
10000_FRONT
370
    25
390
0
  6
CONTINUOUS
 62
     7
100
AcDbLine
 10
332.53689
 20
839.561404
 30
0.0
 11
332.522141
 21
839.572772
 31
0.0
  0
LINE
  5
1140
100
AcDbEntity
  8
10000_FRONT
370
    25
390
0
  6
CONTINUOUS
 62
     7
100
AcDbLine
 10
332.522141
 20
839.572772
 30
0.0
 11
332.507212
 21
839.583194
 31
0.0
  0
LINE
  5
1141
100
AcDbEntity
  8
10000_FRONT
370
    25
390
0
  6
CONTINUOUS
 62
     7
100
AcDbLine
 10
332.507212
 20
839.583194
 30
0.0
 11
332.491657
 21
839.592998
 31
0.0
  0
LINE
  5
1142
100
AcDbEntity
  8
10000_FRONT
370
    25
390
0
  6
CONTINUOUS
 62
     7
100
AcDbLine
 10
332.491657
 20
839.592998
 30
0.0
 11
332.475299
 21
839.602267
 31
0.0
  0
LINE
  5
1143
100
AcDbEntity
  8
10000_FRONT
370
    25
390
0
  6
CONTINUOUS
 62
     7
100
AcDbLine
 10
332.475299
 20
839.602267
 30
0.0
 11
332.458217
 21
839.610927
 31
0.0
  0
LINE
  5
1144
100
AcDbEntity
  8
10000_FRONT
370
    25
390
0
  6
CONTINUOUS
 62
     7
100
AcDbLine
 10
332.458217
 20
839.610927
 30
0.0
 11
332.440488
 21
839.618884
 31
0.0
  0
LINE
  5
1145
100
AcDbEntity
  8
10000_FRONT
370
    25
390
0
  6
CONTINUOUS
 62
     7
100
AcDbLine
 10
332.440488
 20
839.618884
 30
0.0
 11
332.422191
 21
839.626056
 31
0.0
  0
LINE
  5
1146
100
AcDbEntity
  8
10000_FRONT
370
    25
390
0
  6
CONTINUOUS
 62
     7
100
AcDbLine
 10
332.422191
 20
839.626056
 30
0.0
 11
332.403403
 21
839.632358
 31
0.0
  0
LINE
  5
1147
100
AcDbEntity
  8
10000_FRONT
370
    25
390
0
  6
CONTINUOUS
 62
     7
100
AcDbLine
 10
332.403403
 20
839.632358
 30
0.0
 11
332.384194
 21
839.637721
 31
0.0
  0
LINE
  5
1148
100
AcDbEntity
  8
10000_FRONT
370
    25
390
0
  6
CONTINUOUS
 62
     7
100
AcDbLine
 10
332.384194
 20
839.637721
 30
0.0
 11
332.364669
 21
839.642123
 31
0.0
  0
LINE
  5
1149
100
AcDbEntity
  8
10000_FRONT
370
    25
390
0
  6
CONTINUOUS
 62
     7
100
AcDbLine
 10
332.364669
 20
839.642123
 30
0.0
 11
332.344953
 21
839.645564
 31
0.0
  0
LINE
  5
114A
100
AcDbEntity
  8
10000_FRONT
370
    25
390
0
  6
CONTINUOUS
 62
     7
100
AcDbLine
 10
332.344953
 20
839.645564
 30
0.0
 11
332.325167
 21
839.648029
 31
0.0
  0
LINE
  5
114B
100
AcDbEntity
  8
10000_FRONT
370
    25
390
0
  6
CONTINUOUS
 62
     7
100
AcDbLine
 10
332.325167
 20
839.648029
 30
0.0
 11
332.305435
 21
839.649516
 31
0.0
  0
LINE
  5
114C
100
AcDbEntity
  8
10000_FRONT
370
    25
390
0
  6
CONTINUOUS
 62
     7
100
AcDbLine
 10
332.305435
 20
839.649516
 30
0.0
 11
332.285881
 21
839.650012
 31
0.0
  0
ARC
  5
114D
100
AcDbEntity
  8
10000_FRONT
370
    25
390
0
  6
CONTINUOUS
 62
     7
100
AcDbCircle
 10
332.285881
 20
839.25001
 30
0.0
 40
0.4
100
AcDbArc
 50
0.000098
 51
14.477366
  0
LINE
  5
114E
100
AcDbEntity
  8
10000_FRONT
370
    25
390
0
  6
CONTINUOUS
 62
     7
100
AcDbLine
 10
310.185881
 20
836.450008
 30
0.0
 11
310.185881
 21
839.250011
 31
0.0
  0
LINE
  5
114F
100
AcDbEntity
  8
10000_FRONT
370
    25
390
0
  6
CONTINUOUS
 62
     7
100
AcDbLine
 10
310.185881
 20
836.050014
 30
0.0
 11
310.185881
 21
836.450008
 31
0.0
  0
LINE
  5
1150
100
AcDbEntity
  8
10000_FRONT
370
    25
390
0
  6
CONTINUOUS
 62
     7
100
AcDbLine
 10
310.17318
 20
839.350009
 30
0.0
 11
310.167658
 21
839.369243
 31
0.0
  0
LINE
  5
1151
100
AcDbEntity
  8
10000_FRONT
370
    25
390
0
  6
CONTINUOUS
 62
     7
100
AcDbLine
 10
310.167658
 20
839.369243
 30
0.0
 11
310.161374
 21
839.387866
 31
0.0
  0
LINE
  5
1152
100
AcDbEntity
  8
10000_FRONT
370
    25
390
0
  6
CONTINUOUS
 62
     7
100
AcDbLine
 10
310.161374
 20
839.387866
 30
0.0
 11
310.154226
 21
839.405933
 31
0.0
  0
LINE
  5
1153
100
AcDbEntity
  8
10000_FRONT
370
    25
390
0
  6
CONTINUOUS
 62
     7
100
AcDbLine
 10
310.154226
 20
839.405933
 30
0.0
 11
310.146092
 21
839.423831
 31
0.0
  0
LINE
  5
1154
100
AcDbEntity
  8
10000_FRONT
370
    25
390
0
  6
CONTINUOUS
 62
     7
100
AcDbLine
 10
310.146092
 20
839.423831
 30
0.0
 11
310.137016
 21
839.441463
 31
0.0
  0
LINE
  5
1155
100
AcDbEntity
  8
10000_FRONT
370
    25
390
0
  6
CONTINUOUS
 62
     7
100
AcDbLine
 10
310.137016
 20
839.441463
 30
0.0
 11
310.127041
 21
839.458728
 31
0.0
  0
LINE
  5
1156
100
AcDbEntity
  8
10000_FRONT
370
    25
390
0
  6
CONTINUOUS
 62
     7
100
AcDbLine
 10
310.127041
 20
839.458728
 30
0.0
 11
310.116216
 21
839.475513
 31
0.0
  0
LINE
  5
1157
100
AcDbEntity
  8
10000_FRONT
370
    25
390
0
  6
CONTINUOUS
 62
     7
100
AcDbLine
 10
310.116216
 20
839.475513
 30
0.0
 11
310.104586
 21
839.491718
 31
0.0
  0
LINE
  5
1158
100
AcDbEntity
  8
10000_FRONT
370
    25
390
0
  6
CONTINUOUS
 62
     7
100
AcDbLine
 10
310.104586
 20
839.491718
 30
0.0
 11
310.0922
 21
839.507236
 31
0.0
  0
LINE
  5
1159
100
AcDbEntity
  8
10000_FRONT
370
    25
390
0
  6
CONTINUOUS
 62
     7
100
AcDbLine
 10
310.0922
 20
839.507236
 30
0.0
 11
310.079134
 21
839.522006
 31
0.0
  0
LINE
  5
115A
100
AcDbEntity
  8
10000_FRONT
370
    25
390
0
  6
CONTINUOUS
 62
     7
100
AcDbLine
 10
310.079134
 20
839.522006
 30
0.0
 11
310.06549
 21
839.535983
 31
0.0
  0
LINE
  5
115B
100
AcDbEntity
  8
10000_FRONT
370
    25
390
0
  6
CONTINUOUS
 62
     7
100
AcDbLine
 10
310.06549
 20
839.535983
 30
0.0
 11
310.051375
 21
839.549129
 31
0.0
  0
LINE
  5
115C
100
AcDbEntity
  8
10000_FRONT
370
    25
390
0
  6
CONTINUOUS
 62
     7
100
AcDbLine
 10
310.051375
 20
839.549129
 30
0.0
 11
310.03689
 21
839.561404
 31
0.0
  0
LINE
  5
115D
100
AcDbEntity
  8
10000_FRONT
370
    25
390
0
  6
CONTINUOUS
 62
     7
100
AcDbLine
 10
310.03689
 20
839.561404
 30
0.0
 11
310.02214
 21
839.572772
 31
0.0
  0
LINE
  5
115E
100
AcDbEntity
  8
10000_FRONT
370
    25
390
0
  6
CONTINUOUS
 62
     7
100
AcDbLine
 10
310.02214
 20
839.572772
 30
0.0
 11
310.007212
 21
839.583194
 31
0.0
  0
LINE
  5
115F
100
AcDbEntity
  8
10000_FRONT
370
    25
390
0
  6
CONTINUOUS
 62
     7
100
AcDbLine
 10
310.007212
 20
839.583194
 30
0.0
 11
309.991657
 21
839.592998
 31
0.0
  0
LINE
  5
1160
100
AcDbEntity
  8
10000_FRONT
370
    25
390
0
  6
CONTINUOUS
 62
     7
100
AcDbLine
 10
309.991657
 20
839.592998
 30
0.0
 11
309.975299
 21
839.602267
 31
0.0
  0
LINE
  5
1161
100
AcDbEntity
  8
10000_FRONT
370
    25
390
0
  6
CONTINUOUS
 62
     7
100
AcDbLine
 10
309.975299
 20
839.602267
 30
0.0
 11
309.958217
 21
839.610927
 31
0.0
  0
LINE
  5
1162
100
AcDbEntity
  8
10000_FRONT
370
    25
390
0
  6
CONTINUOUS
 62
     7
100
AcDbLine
 10
309.958217
 20
839.610927
 30
0.0
 11
309.940488
 21
839.618884
 31
0.0
  0
LINE
  5
1163
100
AcDbEntity
  8
10000_FRONT
370
    25
390
0
  6
CONTINUOUS
 62
     7
100
AcDbLine
 10
309.940488
 20
839.618884
 30
0.0
 11
309.922191
 21
839.626056
 31
0.0
  0
LINE
  5
1164
100
AcDbEntity
  8
10000_FRONT
370
    25
390
0
  6
CONTINUOUS
 62
     7
100
AcDbLine
 10
309.922191
 20
839.626056
 30
0.0
 11
309.903403
 21
839.632358
 31
0.0
  0
LINE
  5
1165
100
AcDbEntity
  8
10000_FRONT
370
    25
390
0
  6
CONTINUOUS
 62
     7
100
AcDbLine
 10
309.903403
 20
839.632358
 30
0.0
 11
309.884193
 21
839.637721
 31
0.0
  0
LINE
  5
1166
100
AcDbEntity
  8
10000_FRONT
370
    25
390
0
  6
CONTINUOUS
 62
     7
100
AcDbLine
 10
309.884193
 20
839.637721
 30
0.0
 11
309.864669
 21
839.642123
 31
0.0
  0
LINE
  5
1167
100
AcDbEntity
  8
10000_FRONT
370
    25
390
0
  6
CONTINUOUS
 62
     7
100
AcDbLine
 10
309.864669
 20
839.642123
 30
0.0
 11
309.844953
 21
839.645564
 31
0.0
  0
LINE
  5
1168
100
AcDbEntity
  8
10000_FRONT
370
    25
390
0
  6
CONTINUOUS
 62
     7
100
AcDbLine
 10
309.844953
 20
839.645564
 30
0.0
 11
309.825166
 21
839.648029
 31
0.0
  0
LINE
  5
1169
100
AcDbEntity
  8
10000_FRONT
370
    25
390
0
  6
CONTINUOUS
 62
     7
100
AcDbLine
 10
309.825166
 20
839.648029
 30
0.0
 11
309.805435
 21
839.649516
 31
0.0
  0
LINE
  5
116A
100
AcDbEntity
  8
10000_FRONT
370
    25
390
0
  6
CONTINUOUS
 62
     7
100
AcDbLine
 10
309.805435
 20
839.649516
 30
0.0
 11
309.785881
 21
839.650012
 31
0.0
  0
ARC
  5
116B
100
AcDbEntity
  8
10000_FRONT
370
    25
390
0
  6
CONTINUOUS
 62
     7
100
AcDbCircle
 10
309.785881
 20
839.25001
 30
0.0
 40
0.4
100
AcDbArc
 50
0.000098
 51
14.477366
  0
LINE
  5
116C
100
AcDbEntity
  8
10000_FRONT
370
    25
390
0
  6
CONTINUOUS
 62
     7
100
AcDbLine
 10
309.785881
 20
839.650012
 30
0.0
 11
294.035881
 21
839.650012
 31
0.0
  0
LINE
  5
116D
100
AcDbEntity
  8
10000_FRONT
370
    25
390
0
  6
CONTINUOUS
 62
     7
100
AcDbLine
 10
358.535883
 20
836.050014
 30
0.0
 11
358.522176
 21
836.050243
 31
0.0
  0
LINE
  5
116E
100
AcDbEntity
  8
10000_FRONT
370
    25
390
0
  6
CONTINUOUS
 62
     7
100
AcDbLine
 10
358.522176
 20
836.050243
 30
0.0
 11
358.50815
 21
836.050975
 31
0.0
  0
LINE
  5
116F
100
AcDbEntity
  8
10000_FRONT
370
    25
390
0
  6
CONTINUOUS
 62
     7
100
AcDbLine
 10
358.50815
 20
836.050975
 30
0.0
 11
358.492895
 21
836.052333
 31
0.0
  0
LINE
  5
1170
100
AcDbEntity
  8
10000_FRONT
370
    25
390
0
  6
CONTINUOUS
 62
     7
100
AcDbLine
 10
358.492895
 20
836.052333
 30
0.0
 11
358.476648
 21
836.054424
 31
0.0
  0
LINE
  5
1171
100
AcDbEntity
  8
10000_FRONT
370
    25
390
0
  6
CONTINUOUS
 62
     7
100
AcDbLine
 10
358.476648
 20
836.054424
 30
0.0
 11
358.459627
 21
836.057368
 31
0.0
  0
LINE
  5
1172
100
AcDbEntity
  8
10000_FRONT
370
    25
390
0
  6
CONTINUOUS
 62
     7
100
AcDbLine
 10
358.459627
 20
836.057368
 30
0.0
 11
358.441686
 21
836.061298
 31
0.0
  0
LINE
  5
1173
100
AcDbEntity
  8
10000_FRONT
370
    25
390
0
  6
CONTINUOUS
 62
     7
100
AcDbLine
 10
358.441686
 20
836.061298
 30
0.0
 11
358.423173
 21
836.066234
 31
0.0
  0
LINE
  5
1174
100
AcDbEntity
  8
10000_FRONT
370
    25
390
0
  6
CONTINUOUS
 62
     7
100
AcDbLine
 10
358.423173
 20
836.066234
 30
0.0
 11
358.404436
 21
836.072223
 31
0.0
  0
LINE
  5
1175
100
AcDbEntity
  8
10000_FRONT
370
    25
390
0
  6
CONTINUOUS
 62
     7
100
AcDbLine
 10
358.404436
 20
836.072223
 30
0.0
 11
358.385473
 21
836.079402
 31
0.0
  0
LINE
  5
1176
100
AcDbEntity
  8
10000_FRONT
370
    25
390
0
  6
CONTINUOUS
 62
     7
100
AcDbLine
 10
358.385473
 20
836.079402
 30
0.0
 11
358.366178
 21
836.087909
 31
0.0
  0
LINE
  5
1177
100
AcDbEntity
  8
10000_FRONT
370
    25
390
0
  6
CONTINUOUS
 62
     7
100
AcDbLine
 10
358.366178
 20
836.087909
 30
0.0
 11
358.346719
 21
836.097743
 31
0.0
  0
LINE
  5
1178
100
AcDbEntity
  8
10000_FRONT
370
    25
390
0
  6
CONTINUOUS
 62
     7
100
AcDbLine
 10
358.346719
 20
836.097743
 30
0.0
 11
358.327268
 21
836.10892
 31
0.0
  0
LINE
  5
1179
100
AcDbEntity
  8
10000_FRONT
370
    25
390
0
  6
CONTINUOUS
 62
     7
100
AcDbLine
 10
358.327268
 20
836.10892
 30
0.0
 11
358.307989
 21
836.121463
 31
0.0
  0
LINE
  5
117A
100
AcDbEntity
  8
10000_FRONT
370
    25
390
0
  6
CONTINUOUS
 62
     7
100
AcDbLine
 10
358.307989
 20
836.121463
 30
0.0
 11
358.289053
 21
836.135364
 31
0.0
  0
LINE
  5
117B
100
AcDbEntity
  8
10000_FRONT
370
    25
390
0
  6
CONTINUOUS
 62
     7
100
AcDbLine
 10
358.289053
 20
836.135364
 30
0.0
 11
358.270628
 21
836.150653
 31
0.0
  0
LINE
  5
117C
100
AcDbEntity
  8
10000_FRONT
370
    25
390
0
  6
CONTINUOUS
 62
     7
100
AcDbLine
 10
358.270628
 20
836.150653
 30
0.0
 11
358.252878
 21
836.167323
 31
0.0
  0
LINE
  5
117D
100
AcDbEntity
  8
10000_FRONT
370
    25
390
0
  6
CONTINUOUS
 62
     7
100
AcDbLine
 10
358.252878
 20
836.167323
 30
0.0
 11
358.235689
 21
836.185703
 31
0.0
  0
LINE
  5
117E
100
AcDbEntity
  8
10000_FRONT
370
    25
390
0
  6
CONTINUOUS
 62
     7
100
AcDbLine
 10
358.235689
 20
836.185703
 30
0.0
 11
358.219049
 21
836.205981
 31
0.0
  0
LINE
  5
117F
100
AcDbEntity
  8
10000_FRONT
370
    25
390
0
  6
CONTINUOUS
 62
     7
100
AcDbLine
 10
358.219049
 20
836.205981
 30
0.0
 11
358.203245
 21
836.228023
 31
0.0
  0
LINE
  5
1180
100
AcDbEntity
  8
10000_FRONT
370
    25
390
0
  6
CONTINUOUS
 62
     7
100
AcDbLine
 10
358.203245
 20
836.228023
 30
0.0
 11
358.188551
 21
836.251727
 31
0.0
  0
LINE
  5
1181
100
AcDbEntity
  8
10000_FRONT
370
    25
390
0
  6
CONTINUOUS
 62
     7
100
AcDbLine
 10
358.188551
 20
836.251727
 30
0.0
 11
358.175256
 21
836.276973
 31
0.0
  0
LINE
  5
1182
100
AcDbEntity
  8
10000_FRONT
370
    25
390
0
  6
CONTINUOUS
 62
     7
100
AcDbLine
 10
358.175256
 20
836.276973
 30
0.0
 11
358.163629
 21
836.30363
 31
0.0
  0
LINE
  5
1183
100
AcDbEntity
  8
10000_FRONT
370
    25
390
0
  6
CONTINUOUS
 62
     7
100
AcDbLine
 10
358.163629
 20
836.30363
 30
0.0
 11
358.153844
 21
836.331508
 31
0.0
  0
LINE
  5
1184
100
AcDbEntity
  8
10000_FRONT
370
    25
390
0
  6
CONTINUOUS
 62
     7
100
AcDbLine
 10
358.153844
 20
836.331508
 30
0.0
 11
358.146059
 21
836.360355
 31
0.0
  0
LINE
  5
1185
100
AcDbEntity
  8
10000_FRONT
370
    25
390
0
  6
CONTINUOUS
 62
     7
100
AcDbLine
 10
358.146059
 20
836.360355
 30
0.0
 11
358.140428
 21
836.389911
 31
0.0
  0
LINE
  5
1186
100
AcDbEntity
  8
10000_FRONT
370
    25
390
0
  6
CONTINUOUS
 62
     7
100
AcDbLine
 10
358.140428
 20
836.389911
 30
0.0
 11
358.137022
 21
836.419902
 31
0.0
  0
LINE
  5
1187
100
AcDbEntity
  8
10000_FRONT
370
    25
390
0
  6
CONTINUOUS
 62
     7
100
AcDbLine
 10
358.137022
 20
836.419902
 30
0.0
 11
358.135881
 21
836.450008
 31
0.0
  0
LINE
  5
1188
100
AcDbEntity
  8
10000_FRONT
370
    25
390
0
  6
CONTINUOUS
 62
     7
100
AcDbLine
 10
358.135881
 20
836.450008
 30
0.0
 11
358.135881
 21
839.250011
 31
0.0
  0
LINE
  5
1189
100
AcDbEntity
  8
10000_FRONT
370
    25
390
0
  6
CONTINUOUS
 62
     7
100
AcDbLine
 10
358.123182
 20
839.350009
 30
0.0
 11
358.117658
 21
839.369243
 31
0.0
  0
LINE
  5
118A
100
AcDbEntity
  8
10000_FRONT
370
    25
390
0
  6
CONTINUOUS
 62
     7
100
AcDbLine
 10
358.117658
 20
839.369243
 30
0.0
 11
358.111375
 21
839.387866
 31
0.0
  0
LINE
  5
118B
100
AcDbEntity
  8
10000_FRONT
370
    25
390
0
  6
CONTINUOUS
 62
     7
100
AcDbLine
 10
358.111375
 20
839.387866
 30
0.0
 11
358.104227
 21
839.405933
 31
0.0
  0
LINE
  5
118C
100
AcDbEntity
  8
10000_FRONT
370
    25
390
0
  6
CONTINUOUS
 62
     7
100
AcDbLine
 10
358.104227
 20
839.405933
 30
0.0
 11
358.096094
 21
839.423831
 31
0.0
  0
LINE
  5
118D
100
AcDbEntity
  8
10000_FRONT
370
    25
390
0
  6
CONTINUOUS
 62
     7
100
AcDbLine
 10
358.096094
 20
839.423831
 30
0.0
 11
358.087015
 21
839.441463
 31
0.0
  0
LINE
  5
118E
100
AcDbEntity
  8
10000_FRONT
370
    25
390
0
  6
CONTINUOUS
 62
     7
100
AcDbLine
 10
358.087015
 20
839.441463
 30
0.0
 11
358.077043
 21
839.458728
 31
0.0
  0
LINE
  5
118F
100
AcDbEntity
  8
10000_FRONT
370
    25
390
0
  6
CONTINUOUS
 62
     7
100
AcDbLine
 10
358.077043
 20
839.458728
 30
0.0
 11
358.066217
 21
839.475513
 31
0.0
  0
LINE
  5
1190
100
AcDbEntity
  8
10000_FRONT
370
    25
390
0
  6
CONTINUOUS
 62
     7
100
AcDbLine
 10
358.066217
 20
839.475513
 30
0.0
 11
358.054586
 21
839.491718
 31
0.0
  0
LINE
  5
1191
100
AcDbEntity
  8
10000_FRONT
370
    25
390
0
  6
CONTINUOUS
 62
     7
100
AcDbLine
 10
358.054586
 20
839.491718
 30
0.0
 11
358.0422
 21
839.507236
 31
0.0
  0
LINE
  5
1192
100
AcDbEntity
  8
10000_FRONT
370
    25
390
0
  6
CONTINUOUS
 62
     7
100
AcDbLine
 10
358.0422
 20
839.507236
 30
0.0
 11
358.029134
 21
839.522006
 31
0.0
  0
LINE
  5
1193
100
AcDbEntity
  8
10000_FRONT
370
    25
390
0
  6
CONTINUOUS
 62
     7
100
AcDbLine
 10
358.029134
 20
839.522006
 30
0.0
 11
358.015489
 21
839.535983
 31
0.0
  0
LINE
  5
1194
100
AcDbEntity
  8
10000_FRONT
370
    25
390
0
  6
CONTINUOUS
 62
     7
100
AcDbLine
 10
358.015489
 20
839.535983
 30
0.0
 11
358.001375
 21
839.549129
 31
0.0
  0
LINE
  5
1195
100
AcDbEntity
  8
10000_FRONT
370
    25
390
0
  6
CONTINUOUS
 62
     7
100
AcDbLine
 10
358.001375
 20
839.549129
 30
0.0
 11
357.98689
 21
839.561404
 31
0.0
  0
LINE
  5
1196
100
AcDbEntity
  8
10000_FRONT
370
    25
390
0
  6
CONTINUOUS
 62
     7
100
AcDbLine
 10
357.98689
 20
839.561404
 30
0.0
 11
357.972139
 21
839.572772
 31
0.0
  0
LINE
  5
1197
100
AcDbEntity
  8
10000_FRONT
370
    25
390
0
  6
CONTINUOUS
 62
     7
100
AcDbLine
 10
357.972139
 20
839.572772
 30
0.0
 11
357.957212
 21
839.583194
 31
0.0
  0
LINE
  5
1198
100
AcDbEntity
  8
10000_FRONT
370
    25
390
0
  6
CONTINUOUS
 62
     7
100
AcDbLine
 10
357.957212
 20
839.583194
 30
0.0
 11
357.941656
 21
839.592998
 31
0.0
  0
LINE
  5
1199
100
AcDbEntity
  8
10000_FRONT
370
    25
390
0
  6
CONTINUOUS
 62
     7
100
AcDbLine
 10
357.941656
 20
839.592998
 30
0.0
 11
357.925298
 21
839.602267
 31
0.0
  0
LINE
  5
119A
100
AcDbEntity
  8
10000_FRONT
370
    25
390
0
  6
CONTINUOUS
 62
     7
100
AcDbLine
 10
357.925298
 20
839.602267
 30
0.0
 11
357.908231
 21
839.610973
 31
0.0
  0
LINE
  5
119B
100
AcDbEntity
  8
10000_FRONT
370
    25
390
0
  6
CONTINUOUS
 62
     7
100
AcDbLine
 10
357.908231
 20
839.610973
 30
0.0
 11
357.890489
 21
839.618884
 31
0.0
  0
LINE
  5
119C
100
AcDbEntity
  8
10000_FRONT
370
    25
390
0
  6
CONTINUOUS
 62
     7
100
AcDbLine
 10
357.890489
 20
839.618884
 30
0.0
 11
357.872192
 21
839.626056
 31
0.0
  0
LINE
  5
119D
100
AcDbEntity
  8
10000_FRONT
370
    25
390
0
  6
CONTINUOUS
 62
     7
100
AcDbLine
 10
357.872192
 20
839.626056
 30
0.0
 11
357.853403
 21
839.632358
 31
0.0
  0
LINE
  5
119E
100
AcDbEntity
  8
10000_FRONT
370
    25
390
0
  6
CONTINUOUS
 62
     7
100
AcDbLine
 10
357.853403
 20
839.632358
 30
0.0
 11
357.834194
 21
839.637721
 31
0.0
  0
LINE
  5
119F
100
AcDbEntity
  8
10000_FRONT
370
    25
390
0
  6
CONTINUOUS
 62
     7
100
AcDbLine
 10
357.834194
 20
839.637721
 30
0.0
 11
357.81467
 21
839.642123
 31
0.0
  0
LINE
  5
11A0
100
AcDbEntity
  8
10000_FRONT
370
    25
390
0
  6
CONTINUOUS
 62
     7
100
AcDbLine
 10
357.81467
 20
839.642123
 30
0.0
 11
357.794952
 21
839.645564
 31
0.0
  0
LINE
  5
11A1
100
AcDbEntity
  8
10000_FRONT
370
    25
390
0
  6
CONTINUOUS
 62
     7
100
AcDbLine
 10
357.794952
 20
839.645564
 30
0.0
 11
357.775167
 21
839.648029
 31
0.0
  0
LINE
  5
11A2
100
AcDbEntity
  8
10000_FRONT
370
    25
390
0
  6
CONTINUOUS
 62
     7
100
AcDbLine
 10
357.775167
 20
839.648029
 30
0.0
 11
357.755436
 21
839.649516
 31
0.0
  0
LINE
  5
11A3
100
AcDbEntity
  8
10000_FRONT
370
    25
390
0
  6
CONTINUOUS
 62
     7
100
AcDbLine
 10
357.755436
 20
839.649516
 30
0.0
 11
357.735881
 21
839.650012
 31
0.0
  0
ARC
  5
11A4
100
AcDbEntity
  8
10000_FRONT
370
    25
390
0
  6
CONTINUOUS
 62
     7
100
AcDbCircle
 10
357.735881
 20
839.25001
 30
0.0
 40
0.4
100
AcDbArc
 50
0.000098
 51
14.477304
  0
LINE
  5
11A5
100
AcDbEntity
  8
10000_FRONT
370
    25
390
0
  6
CONTINUOUS
 62
     7
100
AcDbLine
 10
332.285881
 20
839.650012
 30
0.0
 11
319.485881
 21
839.650012
 31
0.0
  0
ARC
  5
11A6
100
AcDbEntity
  8
10000_FRONT
370
    25
390
0
  6
CONTINUOUS
 62
     7
100
AcDbCircle
 10
319.485881
 20
839.25001
 30
0.0
 40
0.4
100
AcDbArc
 50
165.522634
 51
179.999902
  0
LINE
  5
11A7
100
AcDbEntity
  8
10000_FRONT
370
    25
390
0
  6
CONTINUOUS
 62
     7
100
AcDbLine
 10
319.485881
 20
839.650012
 30
0.0
 11
319.466327
 21
839.649516
 31
0.0
  0
LINE
  5
11A8
100
AcDbEntity
  8
10000_FRONT
370
    25
390
0
  6
CONTINUOUS
 62
     7
100
AcDbLine
 10
319.466327
 20
839.649516
 30
0.0
 11
319.446595
 21
839.648029
 31
0.0
  0
LINE
  5
11A9
100
AcDbEntity
  8
10000_FRONT
370
    25
390
0
  6
CONTINUOUS
 62
     7
100
AcDbLine
 10
319.446595
 20
839.648029
 30
0.0
 11
319.426809
 21
839.645564
 31
0.0
  0
LINE
  5
11AA
100
AcDbEntity
  8
10000_FRONT
370
    25
390
0
  6
CONTINUOUS
 62
     7
100
AcDbLine
 10
319.426809
 20
839.645564
 30
0.0
 11
319.407093
 21
839.642123
 31
0.0
  0
LINE
  5
11AB
100
AcDbEntity
  8
10000_FRONT
370
    25
390
0
  6
CONTINUOUS
 62
     7
100
AcDbLine
 10
319.407093
 20
839.642123
 30
0.0
 11
319.387568
 21
839.637721
 31
0.0
  0
LINE
  5
11AC
100
AcDbEntity
  8
10000_FRONT
370
    25
390
0
  6
CONTINUOUS
 62
     7
100
AcDbLine
 10
319.387568
 20
839.637721
 30
0.0
 11
319.368359
 21
839.632358
 31
0.0
  0
LINE
  5
11AD
100
AcDbEntity
  8
10000_FRONT
370
    25
390
0
  6
CONTINUOUS
 62
     7
100
AcDbLine
 10
319.368359
 20
839.632358
 30
0.0
 11
319.349571
 21
839.626056
 31
0.0
  0
LINE
  5
11AE
100
AcDbEntity
  8
10000_FRONT
370
    25
390
0
  6
CONTINUOUS
 62
     7
100
AcDbLine
 10
319.349571
 20
839.626056
 30
0.0
 11
319.331274
 21
839.618884
 31
0.0
  0
LINE
  5
11AF
100
AcDbEntity
  8
10000_FRONT
370
    25
390
0
  6
CONTINUOUS
 62
     7
100
AcDbLine
 10
319.331274
 20
839.618884
 30
0.0
 11
319.313545
 21
839.610927
 31
0.0
  0
LINE
  5
11B0
100
AcDbEntity
  8
10000_FRONT
370
    25
390
0
  6
CONTINUOUS
 62
     7
100
AcDbLine
 10
319.313545
 20
839.610927
 30
0.0
 11
319.296463
 21
839.602267
 31
0.0
  0
LINE
  5
11B1
100
AcDbEntity
  8
10000_FRONT
370
    25
390
0
  6
CONTINUOUS
 62
     7
100
AcDbLine
 10
319.296463
 20
839.602267
 30
0.0
 11
319.280105
 21
839.592998
 31
0.0
  0
LINE
  5
11B2
100
AcDbEntity
  8
10000_FRONT
370
    25
390
0
  6
CONTINUOUS
 62
     7
100
AcDbLine
 10
319.280105
 20
839.592998
 30
0.0
 11
319.26455
 21
839.583194
 31
0.0
  0
LINE
  5
11B3
100
AcDbEntity
  8
10000_FRONT
370
    25
390
0
  6
CONTINUOUS
 62
     7
100
AcDbLine
 10
319.26455
 20
839.583194
 30
0.0
 11
319.249621
 21
839.572772
 31
0.0
  0
LINE
  5
11B4
100
AcDbEntity
  8
10000_FRONT
370
    25
390
0
  6
CONTINUOUS
 62
     7
100
AcDbLine
 10
319.249621
 20
839.572772
 30
0.0
 11
319.234872
 21
839.561404
 31
0.0
  0
LINE
  5
11B5
100
AcDbEntity
  8
10000_FRONT
370
    25
390
0
  6
CONTINUOUS
 62
     7
100
AcDbLine
 10
319.234872
 20
839.561404
 30
0.0
 11
319.220388
 21
839.549129
 31
0.0
  0
LINE
  5
11B6
100
AcDbEntity
  8
10000_FRONT
370
    25
390
0
  6
CONTINUOUS
 62
     7
100
AcDbLine
 10
319.220388
 20
839.549129
 30
0.0
 11
319.206272
 21
839.535983
 31
0.0
  0
LINE
  5
11B7
100
AcDbEntity
  8
10000_FRONT
370
    25
390
0
  6
CONTINUOUS
 62
     7
100
AcDbLine
 10
319.206272
 20
839.535983
 30
0.0
 11
319.192628
 21
839.522006
 31
0.0
  0
LINE
  5
11B8
100
AcDbEntity
  8
10000_FRONT
370
    25
390
0
  6
CONTINUOUS
 62
     7
100
AcDbLine
 10
319.192628
 20
839.522006
 30
0.0
 11
319.179562
 21
839.507236
 31
0.0
  0
LINE
  5
11B9
100
AcDbEntity
  8
10000_FRONT
370
    25
390
0
  6
CONTINUOUS
 62
     7
100
AcDbLine
 10
319.179562
 20
839.507236
 30
0.0
 11
319.167176
 21
839.491718
 31
0.0
  0
LINE
  5
11BA
100
AcDbEntity
  8
10000_FRONT
370
    25
390
0
  6
CONTINUOUS
 62
     7
100
AcDbLine
 10
319.167176
 20
839.491718
 30
0.0
 11
319.155546
 21
839.475513
 31
0.0
  0
LINE
  5
11BB
100
AcDbEntity
  8
10000_FRONT
370
    25
390
0
  6
CONTINUOUS
 62
     7
100
AcDbLine
 10
319.155546
 20
839.475513
 30
0.0
 11
319.144721
 21
839.458728
 31
0.0
  0
LINE
  5
11BC
100
AcDbEntity
  8
10000_FRONT
370
    25
390
0
  6
CONTINUOUS
 62
     7
100
AcDbLine
 10
319.144721
 20
839.458728
 30
0.0
 11
319.134747
 21
839.441463
 31
0.0
  0
LINE
  5
11BD
100
AcDbEntity
  8
10000_FRONT
370
    25
390
0
  6
CONTINUOUS
 62
     7
100
AcDbLine
 10
319.134747
 20
839.441463
 30
0.0
 11
319.12567
 21
839.423831
 31
0.0
  0
LINE
  5
11BE
100
AcDbEntity
  8
10000_FRONT
370
    25
390
0
  6
CONTINUOUS
 62
     7
100
AcDbLine
 10
319.12567
 20
839.423831
 30
0.0
 11
319.117537
 21
839.405933
 31
0.0
  0
LINE
  5
11BF
100
AcDbEntity
  8
10000_FRONT
370
    25
390
0
  6
CONTINUOUS
 62
     7
100
AcDbLine
 10
319.117537
 20
839.405933
 30
0.0
 11
319.110388
 21
839.387866
 31
0.0
  0
LINE
  5
11C0
100
AcDbEntity
  8
10000_FRONT
370
    25
390
0
  6
CONTINUOUS
 62
     7
100
AcDbLine
 10
319.110388
 20
839.387866
 30
0.0
 11
319.104104
 21
839.369243
 31
0.0
  0
LINE
  5
11C1
100
AcDbEntity
  8
10000_FRONT
370
    25
390
0
  6
CONTINUOUS
 62
     7
100
AcDbLine
 10
319.104104
 20
839.369243
 30
0.0
 11
319.098582
 21
839.350009
 31
0.0
  0
LINE
  5
11C2
100
AcDbEntity
  8
10000_FRONT
370
    25
390
0
  6
CONTINUOUS
 62
     7
100
AcDbLine
 10
319.085881
 20
836.050014
 30
0.0
 11
319.085881
 21
836.450008
 31
0.0
  0
LINE
  5
11C3
100
AcDbEntity
  8
10000_FRONT
370
    25
390
0
  6
CONTINUOUS
 62
     7
100
AcDbLine
 10
319.085881
 20
839.250011
 30
0.0
 11
319.085881
 21
836.450008
 31
0.0
  0
ARC
  5
11C4
100
AcDbEntity
  8
10000_FRONT
370
    25
390
0
  6
CONTINUOUS
 62
     7
100
AcDbCircle
 10
294.035881
 20
839.25001
 30
0.0
 40
0.4
100
AcDbArc
 50
165.522696
 51
179.999902
  0
LINE
  5
11C5
100
AcDbEntity
  8
10000_FRONT
370
    25
390
0
  6
CONTINUOUS
 62
     7
100
AcDbLine
 10
294.035881
 20
839.650012
 30
0.0
 11
294.016326
 21
839.649516
 31
0.0
  0
LINE
  5
11C6
100
AcDbEntity
  8
10000_FRONT
370
    25
390
0
  6
CONTINUOUS
 62
     7
100
AcDbLine
 10
294.016326
 20
839.649516
 30
0.0
 11
293.996595
 21
839.648029
 31
0.0
  0
LINE
  5
11C7
100
AcDbEntity
  8
10000_FRONT
370
    25
390
0
  6
CONTINUOUS
 62
     7
100
AcDbLine
 10
293.996595
 20
839.648029
 30
0.0
 11
293.97681
 21
839.645564
 31
0.0
  0
LINE
  5
11C8
100
AcDbEntity
  8
10000_FRONT
370
    25
390
0
  6
CONTINUOUS
 62
     7
100
AcDbLine
 10
293.97681
 20
839.645564
 30
0.0
 11
293.957092
 21
839.642123
 31
0.0
  0
LINE
  5
11C9
100
AcDbEntity
  8
10000_FRONT
370
    25
390
0
  6
CONTINUOUS
 62
     7
100
AcDbLine
 10
293.957092
 20
839.642123
 30
0.0
 11
293.937568
 21
839.637721
 31
0.0
  0
LINE
  5
11CA
100
AcDbEntity
  8
10000_FRONT
370
    25
390
0
  6
CONTINUOUS
 62
     7
100
AcDbLine
 10
293.937568
 20
839.637721
 30
0.0
 11
293.918359
 21
839.632358
 31
0.0
  0
LINE
  5
11CB
100
AcDbEntity
  8
10000_FRONT
370
    25
390
0
  6
CONTINUOUS
 62
     7
100
AcDbLine
 10
293.918359
 20
839.632358
 30
0.0
 11
293.89957
 21
839.626056
 31
0.0
  0
LINE
  5
11CC
100
AcDbEntity
  8
10000_FRONT
370
    25
390
0
  6
CONTINUOUS
 62
     7
100
AcDbLine
 10
293.89957
 20
839.626056
 30
0.0
 11
293.881273
 21
839.618884
 31
0.0
  0
LINE
  5
11CD
100
AcDbEntity
  8
10000_FRONT
370
    25
390
0
  6
CONTINUOUS
 62
     7
100
AcDbLine
 10
293.881273
 20
839.618884
 30
0.0
 11
293.863546
 21
839.610927
 31
0.0
  0
LINE
  5
11CE
100
AcDbEntity
  8
10000_FRONT
370
    25
390
0
  6
CONTINUOUS
 62
     7
100
AcDbLine
 10
293.863546
 20
839.610927
 30
0.0
 11
293.846464
 21
839.602267
 31
0.0
  0
LINE
  5
11CF
100
AcDbEntity
  8
10000_FRONT
370
    25
390
0
  6
CONTINUOUS
 62
     7
100
AcDbLine
 10
293.846464
 20
839.602267
 30
0.0
 11
293.830106
 21
839.592998
 31
0.0
  0
LINE
  5
11D0
100
AcDbEntity
  8
10000_FRONT
370
    25
390
0
  6
CONTINUOUS
 62
     7
100
AcDbLine
 10
293.830106
 20
839.592998
 30
0.0
 11
293.81455
 21
839.583194
 31
0.0
  0
LINE
  5
11D1
100
AcDbEntity
  8
10000_FRONT
370
    25
390
0
  6
CONTINUOUS
 62
     7
100
AcDbLine
 10
293.81455
 20
839.583194
 30
0.0
 11
293.799623
 21
839.572772
 31
0.0
  0
LINE
  5
11D2
100
AcDbEntity
  8
10000_FRONT
370
    25
390
0
  6
CONTINUOUS
 62
     7
100
AcDbLine
 10
293.799623
 20
839.572772
 30
0.0
 11
293.784872
 21
839.561404
 31
0.0
  0
LINE
  5
11D3
100
AcDbEntity
  8
10000_FRONT
370
    25
390
0
  6
CONTINUOUS
 62
     7
100
AcDbLine
 10
293.784872
 20
839.561404
 30
0.0
 11
293.770387
 21
839.549129
 31
0.0
  0
LINE
  5
11D4
100
AcDbEntity
  8
10000_FRONT
370
    25
390
0
  6
CONTINUOUS
 62
     7
100
AcDbLine
 10
293.770387
 20
839.549129
 30
0.0
 11
293.756273
 21
839.535983
 31
0.0
  0
LINE
  5
11D5
100
AcDbEntity
  8
10000_FRONT
370
    25
390
0
  6
CONTINUOUS
 62
     7
100
AcDbLine
 10
293.756273
 20
839.535983
 30
0.0
 11
293.742628
 21
839.522006
 31
0.0
  0
LINE
  5
11D6
100
AcDbEntity
  8
10000_FRONT
370
    25
390
0
  6
CONTINUOUS
 62
     7
100
AcDbLine
 10
293.742628
 20
839.522006
 30
0.0
 11
293.729559
 21
839.507236
 31
0.0
  0
LINE
  5
11D7
100
AcDbEntity
  8
10000_FRONT
370
    25
390
0
  6
CONTINUOUS
 62
     7
100
AcDbLine
 10
293.729559
 20
839.507236
 30
0.0
 11
293.717176
 21
839.491718
 31
0.0
  0
LINE
  5
11D8
100
AcDbEntity
  8
10000_FRONT
370
    25
390
0
  6
CONTINUOUS
 62
     7
100
AcDbLine
 10
293.717176
 20
839.491718
 30
0.0
 11
293.705545
 21
839.475513
 31
0.0
  0
LINE
  5
11D9
100
AcDbEntity
  8
10000_FRONT
370
    25
390
0
  6
CONTINUOUS
 62
     7
100
AcDbLine
 10
293.705545
 20
839.475513
 30
0.0
 11
293.694719
 21
839.458728
 31
0.0
  0
LINE
  5
11DA
100
AcDbEntity
  8
10000_FRONT
370
    25
390
0
  6
CONTINUOUS
 62
     7
100
AcDbLine
 10
293.694719
 20
839.458728
 30
0.0
 11
293.684747
 21
839.441463
 31
0.0
  0
LINE
  5
11DB
100
AcDbEntity
  8
10000_FRONT
370
    25
390
0
  6
CONTINUOUS
 62
     7
100
AcDbLine
 10
293.684747
 20
839.441463
 30
0.0
 11
293.675668
 21
839.423831
 31
0.0
  0
LINE
  5
11DC
100
AcDbEntity
  8
10000_FRONT
370
    25
390
0
  6
CONTINUOUS
 62
     7
100
AcDbLine
 10
293.675668
 20
839.423831
 30
0.0
 11
293.667535
 21
839.405933
 31
0.0
  0
LINE
  5
11DD
100
AcDbEntity
  8
10000_FRONT
370
    25
390
0
  6
CONTINUOUS
 62
     7
100
AcDbLine
 10
293.667535
 20
839.405933
 30
0.0
 11
293.660387
 21
839.387866
 31
0.0
  0
LINE
  5
11DE
100
AcDbEntity
  8
10000_FRONT
370
    25
390
0
  6
CONTINUOUS
 62
     7
100
AcDbLine
 10
293.660387
 20
839.387866
 30
0.0
 11
293.654104
 21
839.369243
 31
0.0
  0
LINE
  5
11DF
100
AcDbEntity
  8
10000_FRONT
370
    25
390
0
  6
CONTINUOUS
 62
     7
100
AcDbLine
 10
293.654104
 20
839.369243
 30
0.0
 11
293.64858
 21
839.350009
 31
0.0
  0
LINE
  5
11E0
100
AcDbEntity
  8
10000_FRONT
370
    25
390
0
  6
CONTINUOUS
 62
     7
100
AcDbLine
 10
293.635881
 20
839.250011
 30
0.0
 11
293.635881
 21
836.450008
 31
0.0
  0
LINE
  5
11E1
100
AcDbEntity
  8
10000_FRONT
370
    25
390
0
  6
CONTINUOUS
 62
     7
100
AcDbLine
 10
293.635881
 20
836.450008
 30
0.0
 11
293.634668
 21
836.418956
 31
0.0
  0
LINE
  5
11E2
100
AcDbEntity
  8
10000_FRONT
370
    25
390
0
  6
CONTINUOUS
 62
     7
100
AcDbLine
 10
293.634668
 20
836.418956
 30
0.0
 11
293.631048
 21
836.388049
 31
0.0
  0
LINE
  5
11E3
100
AcDbEntity
  8
10000_FRONT
370
    25
390
0
  6
CONTINUOUS
 62
     7
100
AcDbLine
 10
293.631048
 20
836.388049
 30
0.0
 11
293.625063
 21
836.357608
 31
0.0
  0
LINE
  5
11E4
100
AcDbEntity
  8
10000_FRONT
370
    25
390
0
  6
CONTINUOUS
 62
     7
100
AcDbLine
 10
293.625063
 20
836.357608
 30
0.0
 11
293.6168
 21
836.32796
 31
0.0
  0
LINE
  5
11E5
100
AcDbEntity
  8
10000_FRONT
370
    25
390
0
  6
CONTINUOUS
 62
     7
100
AcDbLine
 10
293.6168
 20
836.32796
 30
0.0
 11
293.606432
 21
836.299373
 31
0.0
  0
LINE
  5
11E6
100
AcDbEntity
  8
10000_FRONT
370
    25
390
0
  6
CONTINUOUS
 62
     7
100
AcDbLine
 10
293.606432
 20
836.299373
 30
0.0
 11
293.594129
 21
836.272121
 31
0.0
  0
LINE
  5
11E7
100
AcDbEntity
  8
10000_FRONT
370
    25
390
0
  6
CONTINUOUS
 62
     7
100
AcDbLine
 10
293.594129
 20
836.272121
 30
0.0
 11
293.580102
 21
836.246402
 31
0.0
  0
LINE
  5
11E8
100
AcDbEntity
  8
10000_FRONT
370
    25
390
0
  6
CONTINUOUS
 62
     7
100
AcDbLine
 10
293.580102
 20
836.246402
 30
0.0
 11
293.564657
 21
836.222346
 31
0.0
  0
LINE
  5
11E9
100
AcDbEntity
  8
10000_FRONT
370
    25
390
0
  6
CONTINUOUS
 62
     7
100
AcDbLine
 10
293.564657
 20
836.222346
 30
0.0
 11
293.548097
 21
836.200084
 31
0.0
  0
LINE
  5
11EA
100
AcDbEntity
  8
10000_FRONT
370
    25
390
0
  6
CONTINUOUS
 62
     7
100
AcDbLine
 10
293.548097
 20
836.200084
 30
0.0
 11
293.53074
 21
836.179744
 31
0.0
  0
LINE
  5
11EB
100
AcDbEntity
  8
10000_FRONT
370
    25
390
0
  6
CONTINUOUS
 62
     7
100
AcDbLine
 10
293.53074
 20
836.179744
 30
0.0
 11
293.512861
 21
836.161433
 31
0.0
  0
LINE
  5
11EC
100
AcDbEntity
  8
10000_FRONT
370
    25
390
0
  6
CONTINUOUS
 62
     7
100
AcDbLine
 10
293.512861
 20
836.161433
 30
0.0
 11
293.494291
 21
836.144748
 31
0.0
  0
LINE
  5
11ED
100
AcDbEntity
  8
10000_FRONT
370
    25
390
0
  6
CONTINUOUS
 62
     7
100
AcDbLine
 10
293.494291
 20
836.144748
 30
0.0
 11
293.475061
 21
836.129543
 31
0.0
  0
LINE
  5
11EE
100
AcDbEntity
  8
10000_FRONT
370
    25
390
0
  6
CONTINUOUS
 62
     7
100
AcDbLine
 10
293.475061
 20
836.129543
 30
0.0
 11
293.455362
 21
836.115802
 31
0.0
  0
LINE
  5
11EF
100
AcDbEntity
  8
10000_FRONT
370
    25
390
0
  6
CONTINUOUS
 62
     7
100
AcDbLine
 10
293.455362
 20
836.115802
 30
0.0
 11
293.435377
 21
836.103511
 31
0.0
  0
LINE
  5
11F0
100
AcDbEntity
  8
10000_FRONT
370
    25
390
0
  6
CONTINUOUS
 62
     7
100
AcDbLine
 10
293.435377
 20
836.103511
 30
0.0
 11
293.415292
 21
836.092654
 31
0.0
  0
LINE
  5
11F1
100
AcDbEntity
  8
10000_FRONT
370
    25
390
0
  6
CONTINUOUS
 62
     7
100
AcDbLine
 10
293.415292
 20
836.092654
 30
0.0
 11
293.395292
 21
836.083217
 31
0.0
  0
LINE
  5
11F2
100
AcDbEntity
  8
10000_FRONT
370
    25
390
0
  6
CONTINUOUS
 62
     7
100
AcDbLine
 10
293.395292
 20
836.083217
 30
0.0
 11
293.375558
 21
836.075198
 31
0.0
  0
LINE
  5
11F3
100
AcDbEntity
  8
10000_FRONT
370
    25
390
0
  6
CONTINUOUS
 62
     7
100
AcDbLine
 10
293.375558
 20
836.075198
 30
0.0
 11
293.35618
 21
836.068538
 31
0.0
  0
LINE
  5
11F4
100
AcDbEntity
  8
10000_FRONT
370
    25
390
0
  6
CONTINUOUS
 62
     7
100
AcDbLine
 10
293.35618
 20
836.068538
 30
0.0
 11
293.336958
 21
836.063022
 31
0.0
  0
LINE
  5
11F5
100
AcDbEntity
  8
10000_FRONT
370
    25
390
0
  6
CONTINUOUS
 62
     7
100
AcDbLine
 10
293.336958
 20
836.063022
 30
0.0
 11
293.318204
 21
836.058597
 31
0.0
  0
LINE
  5
11F6
100
AcDbEntity
  8
10000_FRONT
370
    25
390
0
  6
CONTINUOUS
 62
     7
100
AcDbLine
 10
293.318204
 20
836.058597
 30
0.0
 11
293.300298
 21
836.055232
 31
0.0
  0
LINE
  5
11F7
100
AcDbEntity
  8
10000_FRONT
370
    25
390
0
  6
CONTINUOUS
 62
     7
100
AcDbLine
 10
293.300298
 20
836.055232
 30
0.0
 11
293.283361
 21
836.052844
 31
0.0
  0
LINE
  5
11F8
100
AcDbEntity
  8
10000_FRONT
370
    25
390
0
  6
CONTINUOUS
 62
     7
100
AcDbLine
 10
293.283361
 20
836.052844
 30
0.0
 11
293.267271
 21
836.051242
 31
0.0
  0
LINE
  5
11F9
100
AcDbEntity
  8
10000_FRONT
370
    25
390
0
  6
CONTINUOUS
 62
     7
100
AcDbLine
 10
293.267271
 20
836.051242
 30
0.0
 11
293.252519
 21
836.050357
 31
0.0
  0
LINE
  5
11FA
100
AcDbEntity
  8
10000_FRONT
370
    25
390
0
  6
CONTINUOUS
 62
     7
100
AcDbLine
 10
293.252519
 20
836.050357
 30
0.0
 11
293.239065
 21
836.050021
 31
0.0
  0
LINE
  5
11FB
100
AcDbEntity
  8
10000_FRONT
370
    25
390
0
  6
CONTINUOUS
 62
     7
100
AcDbLine
 10
360.885881
 20
835.365504
 30
0.0
 11
360.885881
 21
836.049998
 31
0.0
  0
LINE
  5
11FC
100
AcDbEntity
  8
10000_FRONT
370
    25
390
0
  6
CONTINUOUS
 62
     7
100
AcDbLine
 10
360.885881
 20
819.834445
 30
0.0
 11
360.885881
 21
835.365504
 31
0.0
  0
LINE
  5
11FD
100
AcDbEntity
  8
10000_FRONT
370
    25
390
0
  6
CONTINUOUS
 62
     7
100
AcDbLine
 10
360.885881
 20
818.964858
 30
0.0
 11
360.885881
 21
819.834445
 31
0.0
  0
LINE
  5
11FE
100
AcDbEntity
  8
10000_FRONT
370
    25
390
0
  6
CONTINUOUS
 62
     7
100
AcDbLine
 10
360.885881
 20
818.95
 30
0.0
 11
360.885881
 21
818.964858
 31
0.0
  0
LINE
  5
11FF
100
AcDbEntity
  8
10000_FRONT
370
    25
390
0
  6
CONTINUOUS
 62
     7
100
AcDbLine
 10
358.135881
 20
836.450008
 30
0.0
 11
341.585881
 21
836.450008
 31
0.0
  0
LINE
  5
1200
100
AcDbEntity
  8
10000_FRONT
370
    25
390
0
  6
CONTINUOUS
 62
     7
100
AcDbLine
 10
332.685881
 20
836.450008
 30
0.0
 11
319.085881
 21
836.450008
 31
0.0
  0
LINE
  5
1201
100
AcDbEntity
  8
10000_FRONT
370
    25
390
0
  6
CONTINUOUS
 62
     7
100
AcDbLine
 10
358.123182
 20
839.350009
 30
0.0
 11
341.598582
 21
839.350009
 31
0.0
  0
LINE
  5
1202
100
AcDbEntity
  8
10000_FRONT
370
    25
390
0
  6
CONTINUOUS
 62
     7
100
AcDbLine
 10
332.67318
 20
839.350009
 30
0.0
 11
319.098582
 21
839.350009
 31
0.0
  0
LINE
  5
1203
100
AcDbEntity
  8
10000_FRONT
370
    25
390
0
  6
CONTINUOUS
 62
     7
100
AcDbLine
 10
310.17318
 20
839.350009
 30
0.0
 11
293.64858
 21
839.350009
 31
0.0
  0
LINE
  5
1204
100
AcDbEntity
  8
10000_FRONT
370
    25
390
0
  6
CONTINUOUS
 62
     7
100
AcDbLine
 10
310.185881
 20
836.450008
 30
0.0
 11
293.635881
 21
836.450008
 31
0.0
  0
LINE
  5
1205
100
AcDbEntity
  8
10000_FRONT
370
    25
390
0
  6
CONTINUOUS
 62
     7
100
AcDbLine
 10
360.885881
 20
836.049998
 30
0.0
 11
290.885881
 21
836.049998
 31
0.0
  0
LINE
  5
1206
100
AcDbEntity
  8
10000_FRONT
370
    25
390
0
  6
CONTINUOUS
 62
     7
100
AcDbLine
 10
360.885881
 20
835.365504
 30
0.0
 11
290.885881
 21
835.365504
 31
0.0
  0
LINE
  5
1207
100
AcDbEntity
  8
10000_FRONT
370
    25
390
0
  6
CONTINUOUS
 62
     7
100
AcDbLine
 10
360.885881
 20
819.834445
 30
0.0
 11
290.885881
 21
819.834445
 31
0.0
  0
LINE
  5
1208
100
AcDbEntity
  8
10000_FRONT
370
    25
390
0
  6
CONTINUOUS
 62
     7
100
AcDbLine
 10
360.885881
 20
818.964858
 30
0.0
 11
290.885881
 21
818.964858
 31
0.0
  0
LINE
  5
1209
100
AcDbEntity
  8
10000_FRONT
370
    25
390
0
  6
CONTINUOUS
 62
     7
100
AcDbLine
 10
360.885881
 20
818.95
 30
0.0
 11
290.885881
 21
818.95
 31
0.0
  0
LINE
  5
120A
100
AcDbEntity
  8
10000_FRONT
370
    25
390
0
  6
CONTINUOUS
 62
     7
100
AcDbLine
 10
347.135881
 20
814.45
 30
0.0
 11
347.135881
 21
813.95
 31
0.0
  0
LINE
  5
120B
100
AcDbEntity
  8
10000_FRONT
370
    25
390
0
  6
CONTINUOUS
 62
     7
100
AcDbLine
 10
344.335882
 20
814.45
 30
0.0
 11
347.135881
 21
814.45
 31
0.0
  0
LINE
  5
120C
100
AcDbEntity
  8
10000_FRONT
370
    25
390
0
  6
CONTINUOUS
 62
     7
100
AcDbLine
 10
344.335882
 20
813.95
 30
0.0
 11
344.335882
 21
814.45
 31
0.0
  0
LINE
  5
120D
100
AcDbEntity
  8
10000_FRONT
370
    25
390
0
  6
CONTINUOUS
 62
     7
100
AcDbLine
 10
339.935881
 20
813.95
 30
0.0
 11
344.335882
 21
813.95
 31
0.0
  0
LINE
  5
120E
100
AcDbEntity
  8
10000_FRONT
370
    25
390
0
  6
CONTINUOUS
 62
     7
100
AcDbLine
 10
339.935881
 20
814.45
 30
0.0
 11
339.935881
 21
813.95
 31
0.0
  0
LINE
  5
120F
100
AcDbEntity
  8
10000_FRONT
370
    25
390
0
  6
CONTINUOUS
 62
     7
100
AcDbLine
 10
337.135881
 20
814.45
 30
0.0
 11
339.935881
 21
814.45
 31
0.0
  0
LINE
  5
1210
100
AcDbEntity
  8
10000_FRONT
370
    25
390
0
  6
CONTINUOUS
 62
     7
100
AcDbLine
 10
337.135881
 20
813.95
 30
0.0
 11
337.135881
 21
814.45
 31
0.0
  0
LINE
  5
1211
100
AcDbEntity
  8
10000_FRONT
370
    25
390
0
  6
CONTINUOUS
 62
     7
100
AcDbLine
 10
332.735881
 20
813.95
 30
0.0
 11
337.135881
 21
813.95
 31
0.0
  0
LINE
  5
1212
100
AcDbEntity
  8
10000_FRONT
370
    25
390
0
  6
CONTINUOUS
 62
     7
100
AcDbLine
 10
332.735881
 20
814.45
 30
0.0
 11
332.735881
 21
813.95
 31
0.0
  0
LINE
  5
1213
100
AcDbEntity
  8
10000_FRONT
370
    25
390
0
  6
CONTINUOUS
 62
     7
100
AcDbLine
 10
331.085881
 20
814.45
 30
0.0
 11
332.735881
 21
814.45
 31
0.0
  0
ARC
  5
1214
100
AcDbEntity
  8
10000_FRONT
370
    25
390
0
  6
CONTINUOUS
 62
     7
100
AcDbCircle
 10
331.085881
 20
814.25
 30
0.0
 40
0.2
100
AcDbArc
 50
90.000055
 51
180.000219
  0
LINE
  5
1215
100
AcDbEntity
  8
10000_FRONT
370
    25
390
0
  6
CONTINUOUS
 62
     7
100
AcDbLine
 10
330.885881
 20
800.650001
 30
0.0
 11
330.885881
 21
814.249999
 31
0.0
  0
ARC
  5
1216
100
AcDbEntity
  8
10000_FRONT
370
    25
390
0
  6
CONTINUOUS
 62
     7
100
AcDbCircle
 10
331.085881
 20
800.65
 30
0.0
 40
0.2
100
AcDbArc
 50
179.999781
 51
269.999945
  0
LINE
  5
1217
100
AcDbEntity
  8
10000_FRONT
370
    25
390
0
  6
CONTINUOUS
 62
     7
100
AcDbLine
 10
334.285881
 20
800.45
 30
0.0
 11
331.085881
 21
800.45
 31
0.0
  0
LINE
  5
1218
100
AcDbEntity
  8
10000_FRONT
370
    25
390
0
  6
CONTINUOUS
 62
     7
100
AcDbLine
 10
334.285881
 20
801.249999
 30
0.0
 11
334.285881
 21
800.45
 31
0.0
  0
LINE
  5
1219
100
AcDbEntity
  8
10000_FRONT
370
    25
390
0
  6
CONTINUOUS
 62
     7
100
AcDbLine
 10
332.035881
 20
801.249999
 30
0.0
 11
334.285881
 21
801.249999
 31
0.0
  0
LINE
  5
121A
100
AcDbEntity
  8
10000_FRONT
370
    25
390
0
  6
CONTINUOUS
 62
     7
100
AcDbLine
 10
332.035881
 20
803.45
 30
0.0
 11
332.035881
 21
801.249999
 31
0.0
  0
LINE
  5
121B
100
AcDbEntity
  8
10000_FRONT
370
    25
390
0
  6
CONTINUOUS
 62
     7
100
AcDbLine
 10
352.235881
 20
803.45
 30
0.0
 11
332.035881
 21
803.45
 31
0.0
  0
LINE
  5
121C
100
AcDbEntity
  8
10000_FRONT
370
    25
390
0
  6
CONTINUOUS
 62
     7
100
AcDbLine
 10
352.235881
 20
801.249999
 30
0.0
 11
352.235881
 21
803.45
 31
0.0
  0
LINE
  5
121D
100
AcDbEntity
  8
10000_FRONT
370
    25
390
0
  6
CONTINUOUS
 62
     7
100
AcDbLine
 10
349.985881
 20
801.249999
 30
0.0
 11
352.235881
 21
801.249999
 31
0.0
  0
LINE
  5
121E
100
AcDbEntity
  8
10000_FRONT
370
    25
390
0
  6
CONTINUOUS
 62
     7
100
AcDbLine
 10
349.985881
 20
800.45
 30
0.0
 11
349.985881
 21
801.249999
 31
0.0
  0
LINE
  5
121F
100
AcDbEntity
  8
10000_FRONT
370
    25
390
0
  6
CONTINUOUS
 62
     7
100
AcDbLine
 10
353.18588
 20
800.45
 30
0.0
 11
349.985881
 21
800.45
 31
0.0
  0
ARC
  5
1220
100
AcDbEntity
  8
10000_FRONT
370
    25
390
0
  6
CONTINUOUS
 62
     7
100
AcDbCircle
 10
353.185881
 20
800.65
 30
0.0
 40
0.2
100
AcDbArc
 50
269.999781
 51
0.000219
  0
LINE
  5
1221
100
AcDbEntity
  8
10000_FRONT
370
    25
390
0
  6
CONTINUOUS
 62
     7
100
AcDbLine
 10
353.385881
 20
814.249999
 30
0.0
 11
353.385881
 21
800.650001
 31
0.0
  0
ARC
  5
1222
100
AcDbEntity
  8
10000_FRONT
370
    25
390
0
  6
CONTINUOUS
 62
     7
100
AcDbCircle
 10
353.185881
 20
814.25
 30
0.0
 40
0.2
100
AcDbArc
 50
359.999781
 51
90.000219
  0
LINE
  5
1223
100
AcDbEntity
  8
10000_FRONT
370
    25
390
0
  6
CONTINUOUS
 62
     7
100
AcDbLine
 10
351.535881
 20
814.45
 30
0.0
 11
353.18588
 21
814.45
 31
0.0
  0
LINE
  5
1224
100
AcDbEntity
  8
10000_FRONT
370
    25
390
0
  6
CONTINUOUS
 62
     7
100
AcDbLine
 10
351.535881
 20
813.95
 30
0.0
 11
351.535881
 21
814.45
 31
0.0
  0
LINE
  5
1225
100
AcDbEntity
  8
10000_FRONT
370
    25
390
0
  6
CONTINUOUS
 62
     7
100
AcDbLine
 10
347.135881
 20
813.95
 30
0.0
 11
351.535881
 21
813.95
 31
0.0
  0
ARC
  5
1226
100
AcDbEntity
  8
10000_FRONT
370
    25
390
0
  6
CONTINUOUS
 62
     7
100
AcDbCircle
 10
349.335881
 20
807.25
 30
0.0
 40
3.1
100
AcDbArc
 50
89.999986
 51
270.000014
  0
ARC
  5
1227
100
AcDbEntity
  8
10000_FRONT
370
    25
390
0
  6
CONTINUOUS
 62
     7
100
AcDbCircle
 10
349.335881
 20
807.25
 30
0.0
 40
3.1
100
AcDbArc
 50
270.000014
 51
89.999986
  0
ARC
  5
1228
100
AcDbEntity
  8
10000_FRONT
370
    25
390
0
  6
CONTINUOUS
 62
     7
100
AcDbCircle
 10
342.135881
 20
807.25
 30
0.0
 40
3.1
100
AcDbArc
 50
90.0
 51
270.0
  0
ARC
  5
1229
100
AcDbEntity
  8
10000_FRONT
370
    25
390
0
  6
CONTINUOUS
 62
     7
100
AcDbCircle
 10
342.135881
 20
807.25
 30
0.0
 40
3.1
100
AcDbArc
 50
270.0
 51
90.0
  0
ARC
  5
122A
100
AcDbEntity
  8
10000_FRONT
370
    25
390
0
  6
CONTINUOUS
 62
     7
100
AcDbCircle
 10
334.935881
 20
807.25
 30
0.0
 40
3.1
100
AcDbArc
 50
89.999996
 51
270.000004
  0
ARC
  5
122B
100
AcDbEntity
  8
10000_FRONT
370
    25
390
0
  6
CONTINUOUS
 62
     7
100
AcDbCircle
 10
334.935881
 20
807.25
 30
0.0
 40
3.1
100
AcDbArc
 50
270.000004
 51
89.999996
  0
LINE
  5
122C
100
AcDbEntity
  8
10000_FRONT
370
    25
390
0
  6
CONTINUOUS
 62
     7
100
AcDbLine
 10
353.385881
 20
800.648524
 30
0.0
 11
353.385881
 21
800.350005
 31
0.0
  0
LINE
  5
122D
100
AcDbEntity
  8
10000_FRONT
370
    25
390
0
  6
CONTINUOUS
 62
     7
100
AcDbLine
 10
330.885881
 20
800.650001
 30
0.0
 11
330.885881
 21
800.350005
 31
0.0
  0
LINE
  5
122E
100
AcDbEntity
  8
10000_FRONT
370
    25
390
0
  6
CONTINUOUS
 62
     7
100
AcDbLine
 10
314.635881
 20
814.45
 30
0.0
 11
314.635881
 21
813.95
 31
0.0
  0
LINE
  5
122F
100
AcDbEntity
  8
10000_FRONT
370
    25
390
0
  6
CONTINUOUS
 62
     7
100
AcDbLine
 10
311.835881
 20
814.45
 30
0.0
 11
314.635881
 21
814.45
 31
0.0
  0
LINE
  5
1230
100
AcDbEntity
  8
10000_FRONT
370
    25
390
0
  6
CONTINUOUS
 62
     7
100
AcDbLine
 10
311.835881
 20
813.95
 30
0.0
 11
311.835881
 21
814.45
 31
0.0
  0
LINE
  5
1231
100
AcDbEntity
  8
10000_FRONT
370
    25
390
0
  6
CONTINUOUS
 62
     7
100
AcDbLine
 10
307.43588
 20
813.95
 30
0.0
 11
311.835881
 21
813.95
 31
0.0
  0
LINE
  5
1232
100
AcDbEntity
  8
10000_FRONT
370
    25
390
0
  6
CONTINUOUS
 62
     7
100
AcDbLine
 10
307.43588
 20
814.45
 30
0.0
 11
307.43588
 21
813.95
 31
0.0
  0
LINE
  5
1233
100
AcDbEntity
  8
10000_FRONT
370
    25
390
0
  6
CONTINUOUS
 62
     7
100
AcDbLine
 10
304.635881
 20
814.45
 30
0.0
 11
307.43588
 21
814.45
 31
0.0
  0
LINE
  5
1234
100
AcDbEntity
  8
10000_FRONT
370
    25
390
0
  6
CONTINUOUS
 62
     7
100
AcDbLine
 10
304.635881
 20
813.95
 30
0.0
 11
304.635881
 21
814.45
 31
0.0
  0
LINE
  5
1235
100
AcDbEntity
  8
10000_FRONT
370
    25
390
0
  6
CONTINUOUS
 62
     7
100
AcDbLine
 10
300.235881
 20
813.95
 30
0.0
 11
304.635881
 21
813.95
 31
0.0
  0
LINE
  5
1236
100
AcDbEntity
  8
10000_FRONT
370
    25
390
0
  6
CONTINUOUS
 62
     7
100
AcDbLine
 10
300.235881
 20
814.45
 30
0.0
 11
300.235881
 21
813.95
 31
0.0
  0
LINE
  5
1237
100
AcDbEntity
  8
10000_FRONT
370
    25
390
0
  6
CONTINUOUS
 62
     7
100
AcDbLine
 10
298.585882
 20
814.45
 30
0.0
 11
300.235881
 21
814.45
 31
0.0
  0
ARC
  5
1238
100
AcDbEntity
  8
10000_FRONT
370
    25
390
0
  6
CONTINUOUS
 62
     7
100
AcDbCircle
 10
298.585881
 20
814.25
 30
0.0
 40
0.2
100
AcDbArc
 50
89.999781
 51
180.000219
  0
LINE
  5
1239
100
AcDbEntity
  8
10000_FRONT
370
    25
390
0
  6
CONTINUOUS
 62
     7
100
AcDbLine
 10
298.385881
 20
800.650001
 30
0.0
 11
298.385881
 21
814.249999
 31
0.0
  0
ARC
  5
123A
100
AcDbEntity
  8
10000_FRONT
370
    25
390
0
  6
CONTINUOUS
 62
     7
100
AcDbCircle
 10
298.585881
 20
800.65
 30
0.0
 40
0.2
100
AcDbArc
 50
179.999781
 51
270.000219
  0
LINE
  5
123B
100
AcDbEntity
  8
10000_FRONT
370
    25
390
0
  6
CONTINUOUS
 62
     7
100
AcDbLine
 10
301.785881
 20
800.45
 30
0.0
 11
298.585882
 21
800.45
 31
0.0
  0
LINE
  5
123C
100
AcDbEntity
  8
10000_FRONT
370
    25
390
0
  6
CONTINUOUS
 62
     7
100
AcDbLine
 10
301.785881
 20
801.249999
 30
0.0
 11
301.785881
 21
800.45
 31
0.0
  0
LINE
  5
123D
100
AcDbEntity
  8
10000_FRONT
370
    25
390
0
  6
CONTINUOUS
 62
     7
100
AcDbLine
 10
299.535881
 20
801.249999
 30
0.0
 11
301.785881
 21
801.249999
 31
0.0
  0
LINE
  5
123E
100
AcDbEntity
  8
10000_FRONT
370
    25
390
0
  6
CONTINUOUS
 62
     7
100
AcDbLine
 10
299.535881
 20
803.45
 30
0.0
 11
299.535881
 21
801.249999
 31
0.0
  0
LINE
  5
123F
100
AcDbEntity
  8
10000_FRONT
370
    25
390
0
  6
CONTINUOUS
 62
     7
100
AcDbLine
 10
319.735881
 20
803.45
 30
0.0
 11
299.535881
 21
803.45
 31
0.0
  0
LINE
  5
1240
100
AcDbEntity
  8
10000_FRONT
370
    25
390
0
  6
CONTINUOUS
 62
     7
100
AcDbLine
 10
319.735881
 20
801.249999
 30
0.0
 11
319.735881
 21
803.45
 31
0.0
  0
LINE
  5
1241
100
AcDbEntity
  8
10000_FRONT
370
    25
390
0
  6
CONTINUOUS
 62
     7
100
AcDbLine
 10
317.485881
 20
801.249999
 30
0.0
 11
319.735881
 21
801.249999
 31
0.0
  0
LINE
  5
1242
100
AcDbEntity
  8
10000_FRONT
370
    25
390
0
  6
CONTINUOUS
 62
     7
100
AcDbLine
 10
317.485881
 20
800.45
 30
0.0
 11
317.485881
 21
801.249999
 31
0.0
  0
LINE
  5
1243
100
AcDbEntity
  8
10000_FRONT
370
    25
390
0
  6
CONTINUOUS
 62
     7
100
AcDbLine
 10
320.685881
 20
800.45
 30
0.0
 11
317.485881
 21
800.45
 31
0.0
  0
ARC
  5
1244
100
AcDbEntity
  8
10000_FRONT
370
    25
390
0
  6
CONTINUOUS
 62
     7
100
AcDbCircle
 10
320.685881
 20
800.65
 30
0.0
 40
0.2
100
AcDbArc
 50
270.000055
 51
0.000219
  0
LINE
  5
1245
100
AcDbEntity
  8
10000_FRONT
370
    25
390
0
  6
CONTINUOUS
 62
     7
100
AcDbLine
 10
320.885881
 20
814.249999
 30
0.0
 11
320.885881
 21
800.650001
 31
0.0
  0
ARC
  5
1246
100
AcDbEntity
  8
10000_FRONT
370
    25
390
0
  6
CONTINUOUS
 62
     7
100
AcDbCircle
 10
320.685881
 20
814.25
 30
0.0
 40
0.2
100
AcDbArc
 50
359.999781
 51
89.999945
  0
LINE
  5
1247
100
AcDbEntity
  8
10000_FRONT
370
    25
390
0
  6
CONTINUOUS
 62
     7
100
AcDbLine
 10
319.035881
 20
814.45
 30
0.0
 11
320.685881
 21
814.45
 31
0.0
  0
LINE
  5
1248
100
AcDbEntity
  8
10000_FRONT
370
    25
390
0
  6
CONTINUOUS
 62
     7
100
AcDbLine
 10
319.035881
 20
813.95
 30
0.0
 11
319.035881
 21
814.45
 31
0.0
  0
LINE
  5
1249
100
AcDbEntity
  8
10000_FRONT
370
    25
390
0
  6
CONTINUOUS
 62
     7
100
AcDbLine
 10
314.635881
 20
813.95
 30
0.0
 11
319.035881
 21
813.95
 31
0.0
  0
ARC
  5
124A
100
AcDbEntity
  8
10000_FRONT
370
    25
390
0
  6
CONTINUOUS
 62
     7
100
AcDbCircle
 10
316.835881
 20
807.25
 30
0.0
 40
3.1
100
AcDbArc
 50
90.000004
 51
269.999996
  0
ARC
  5
124B
100
AcDbEntity
  8
10000_FRONT
370
    25
390
0
  6
CONTINUOUS
 62
     7
100
AcDbCircle
 10
316.835881
 20
807.25
 30
0.0
 40
3.1
100
AcDbArc
 50
269.999996
 51
90.000004
  0
ARC
  5
124C
100
AcDbEntity
  8
10000_FRONT
370
    25
390
0
  6
CONTINUOUS
 62
     7
100
AcDbCircle
 10
309.635881
 20
807.25
 30
0.0
 40
3.1
100
AcDbArc
 50
90.0
 51
270.0
  0
ARC
  5
124D
100
AcDbEntity
  8
10000_FRONT
370
    25
390
0
  6
CONTINUOUS
 62
     7
100
AcDbCircle
 10
309.635881
 20
807.25
 30
0.0
 40
3.1
100
AcDbArc
 50
270.0
 51
90.0
  0
ARC
  5
124E
100
AcDbEntity
  8
10000_FRONT
370
    25
390
0
  6
CONTINUOUS
 62
     7
100
AcDbCircle
 10
302.435881
 20
807.25
 30
0.0
 40
3.1
100
AcDbArc
 50
90.000014
 51
269.999986
  0
ARC
  5
124F
100
AcDbEntity
  8
10000_FRONT
370
    25
390
0
  6
CONTINUOUS
 62
     7
100
AcDbCircle
 10
302.435881
 20
807.25
 30
0.0
 40
3.1
100
AcDbArc
 50
269.999986
 51
90.000014
  0
LINE
  5
1250
100
AcDbEntity
  8
10000_FRONT
370
    25
390
0
  6
CONTINUOUS
 62
     7
100
AcDbLine
 10
320.885881
 20
800.648524
 30
0.0
 11
320.885881
 21
800.350005
 31
0.0
  0
LINE
  5
1251
100
AcDbEntity
  8
10000_FRONT
370
    25
390
0
  6
CONTINUOUS
 62
     7
100
AcDbLine
 10
298.385881
 20
800.650001
 30
0.0
 11
298.385881
 21
800.350005
 31
0.0
  0
LINE
  5
1252
100
AcDbEntity
  8
10000_FRONT
370
    25
390
0
  6
CONTINUOUS
 62
     7
100
AcDbLine
 10
290.885881
 20
818.95
 30
0.0
 11
290.885881
 21
817.95
 31
0.0
  0
LINE
  5
1253
100
AcDbEntity
  8
10000_FRONT
370
    25
390
0
  6
CONTINUOUS
 62
     7
100
AcDbLine
 10
290.885881
 20
700.95
 30
0.0
 11
290.885881
 21
699.95
 31
0.0
  0
LINE
  5
1254
100
AcDbEntity
  8
10000_FRONT
370
    25
390
0
  6
CONTINUOUS
 62
     7
100
AcDbLine
 10
290.885881
 20
700.949691
 30
0.0
 11
290.885881
 21
704.449908
 31
0.0
  0
LINE
  5
1255
100
AcDbEntity
  8
10000_FRONT
370
    25
390
0
  6
CONTINUOUS
 62
     7
100
AcDbLine
 10
290.885881
 20
705.049998
 30
0.0
 11
290.885881
 21
704.45
 31
0.0
  0
LINE
  5
1256
100
AcDbEntity
  8
10000_FRONT
370
    25
390
0
  6
CONTINUOUS
 62
     7
100
AcDbLine
 10
290.885881
 20
732.95
 30
0.0
 11
290.885881
 21
705.049998
 31
0.0
  0
LINE
  5
1257
100
AcDbEntity
  8
10000_FRONT
370
    25
390
0
  6
CONTINUOUS
 62
     7
100
AcDbLine
 10
290.885881
 20
732.95
 30
0.0
 11
290.885881
 21
777.95
 31
0.0
  0
LINE
  5
1258
100
AcDbEntity
  8
10000_FRONT
370
    25
390
0
  6
CONTINUOUS
 62
     7
100
AcDbLine
 10
290.885881
 20
792.249999
 30
0.0
 11
290.885881
 21
777.95
 31
0.0
  0
LINE
  5
1259
100
AcDbEntity
  8
10000_FRONT
370
    25
390
0
  6
CONTINUOUS
 62
     7
100
AcDbLine
 10
290.885881
 20
792.45
 30
0.0
 11
290.885881
 21
792.249999
 31
0.0
  0
LINE
  5
125A
100
AcDbEntity
  8
10000_FRONT
370
    25
390
0
  6
CONTINUOUS
 62
     7
100
AcDbLine
 10
290.885881
 20
792.749999
 30
0.0
 11
290.885881
 21
792.45
 31
0.0
  0
LINE
  5
125B
100
AcDbEntity
  8
10000_FRONT
370
    25
390
0
  6
CONTINUOUS
 62
     7
100
AcDbLine
 10
290.885881
 20
792.95
 30
0.0
 11
290.885881
 21
792.749999
 31
0.0
  0
LINE
  5
125C
100
AcDbEntity
  8
10000_FRONT
370
    25
390
0
  6
CONTINUOUS
 62
     7
100
AcDbLine
 10
290.885881
 20
813.850002
 30
0.0
 11
290.885881
 21
792.95
 31
0.0
  0
LINE
  5
125D
100
AcDbEntity
  8
10000_FRONT
370
    25
390
0
  6
CONTINUOUS
 62
     7
100
AcDbLine
 10
290.885881
 20
814.45
 30
0.0
 11
290.885881
 21
813.850002
 31
0.0
  0
LINE
  5
125E
100
AcDbEntity
  8
10000_FRONT
370
    25
390
0
  6
CONTINUOUS
 62
     7
100
AcDbLine
 10
290.885881
 20
814.45
 30
0.0
 11
290.885881
 21
817.95
 31
0.0
  0
LINE
  5
125F
100
AcDbEntity
  8
10000_FRONT
370
    25
390
0
  6
CONTINUOUS
 62
     7
100
AcDbLine
 10
335.285881
 20
754.05
 30
0.0
 11
335.449081
 21
754.046265
 31
0.0
  0
LINE
  5
1260
100
AcDbEntity
  8
10000_FRONT
370
    25
390
0
  6
CONTINUOUS
 62
     7
100
AcDbLine
 10
335.449081
 20
754.046265
 30
0.0
 11
335.61419
 21
754.034935
 31
0.0
  0
LINE
  5
1261
100
AcDbEntity
  8
10000_FRONT
370
    25
390
0
  6
CONTINUOUS
 62
     7
100
AcDbLine
 10
335.61419
 20
754.034935
 30
0.0
 11
335.780473
 21
754.015821
 31
0.0
  0
LINE
  5
1262
100
AcDbEntity
  8
10000_FRONT
370
    25
390
0
  6
CONTINUOUS
 62
     7
100
AcDbLine
 10
335.780473
 20
754.015821
 30
0.0
 11
335.947197
 21
753.988735
 31
0.0
  0
LINE
  5
1263
100
AcDbEntity
  8
10000_FRONT
370
    25
390
0
  6
CONTINUOUS
 62
     7
100
AcDbLine
 10
335.947197
 20
753.988735
 30
0.0
 11
336.113634
 21
753.953521
 31
0.0
  0
LINE
  5
1264
100
AcDbEntity
  8
10000_FRONT
370
    25
390
0
  6
CONTINUOUS
 62
     7
100
AcDbLine
 10
336.113634
 20
753.953521
 30
0.0
 11
336.27909
 21
753.91022
 31
0.0
  0
LINE
  5
1265
100
AcDbEntity
  8
10000_FRONT
370
    25
390
0
  6
CONTINUOUS
 62
     7
100
AcDbLine
 10
336.27909
 20
753.91022
 30
0.0
 11
336.442897
 21
753.858957
 31
0.0
  0
LINE
  5
1266
100
AcDbEntity
  8
10000_FRONT
370
    25
390
0
  6
CONTINUOUS
 62
     7
100
AcDbLine
 10
336.442897
 20
753.858957
 30
0.0
 11
336.604378
 21
753.799854
 31
0.0
  0
LINE
  5
1267
100
AcDbEntity
  8
10000_FRONT
370
    25
390
0
  6
CONTINUOUS
 62
     7
100
AcDbLine
 10
336.604378
 20
753.799854
 30
0.0
 11
336.762888
 21
753.733038
 31
0.0
  0
LINE
  5
1268
100
AcDbEntity
  8
10000_FRONT
370
    25
390
0
  6
CONTINUOUS
 62
     7
100
AcDbLine
 10
336.762888
 20
753.733038
 30
0.0
 11
336.91791
 21
753.658753
 31
0.0
  0
LINE
  5
1269
100
AcDbEntity
  8
10000_FRONT
370
    25
390
0
  6
CONTINUOUS
 62
     7
100
AcDbLine
 10
336.91791
 20
753.658753
 30
0.0
 11
337.068885
 21
753.577383
 31
0.0
  0
LINE
  5
126A
100
AcDbEntity
  8
10000_FRONT
370
    25
390
0
  6
CONTINUOUS
 62
     7
100
AcDbLine
 10
337.068885
 20
753.577383
 30
0.0
 11
337.215251
 21
753.489316
 31
0.0
  0
LINE
  5
126B
100
AcDbEntity
  8
10000_FRONT
370
    25
390
0
  6
CONTINUOUS
 62
     7
100
AcDbLine
 10
337.215251
 20
753.489316
 30
0.0
 11
337.356445
 21
753.394945
 31
0.0
  0
LINE
  5
126C
100
AcDbEntity
  8
10000_FRONT
370
    25
390
0
  6
CONTINUOUS
 62
     7
100
AcDbLine
 10
337.356445
 20
753.394945
 30
0.0
 11
337.491982
 21
753.294775
 31
0.0
  0
LINE
  5
126D
100
AcDbEntity
  8
10000_FRONT
370
    25
390
0
  6
CONTINUOUS
 62
     7
100
AcDbLine
 10
337.491982
 20
753.294775
 30
0.0
 11
337.621471
 21
753.18945
 31
0.0
  0
LINE
  5
126E
100
AcDbEntity
  8
10000_FRONT
370
    25
390
0
  6
CONTINUOUS
 62
     7
100
AcDbLine
 10
337.621471
 20
753.18945
 30
0.0
 11
337.744524
 21
753.079623
 31
0.0
  0
LINE
  5
126F
100
AcDbEntity
  8
10000_FRONT
370
    25
390
0
  6
CONTINUOUS
 62
     7
100
AcDbLine
 10
337.744524
 20
753.079623
 30
0.0
 11
337.860879
 21
752.965821
 31
0.0
  0
LINE
  5
1270
100
AcDbEntity
  8
10000_FRONT
370
    25
390
0
  6
CONTINUOUS
 62
     7
100
AcDbLine
 10
337.860879
 20
752.965821
 30
0.0
 11
337.972651
 21
752.846026
 31
0.0
  0
LINE
  5
1271
100
AcDbEntity
  8
10000_FRONT
370
    25
390
0
  6
CONTINUOUS
 62
     7
100
AcDbLine
 10
337.972651
 20
752.846026
 30
0.0
 11
338.080231
 21
752.719615
 31
0.0
  0
LINE
  5
1272
100
AcDbEntity
  8
10000_FRONT
370
    25
390
0
  6
CONTINUOUS
 62
     7
100
AcDbLine
 10
338.080231
 20
752.719615
 30
0.0
 11
338.182969
 21
752.586976
 31
0.0
  0
LINE
  5
1273
100
AcDbEntity
  8
10000_FRONT
370
    25
390
0
  6
CONTINUOUS
 62
     7
100
AcDbLine
 10
338.182969
 20
752.586976
 30
0.0
 11
338.280211
 21
752.448496
 31
0.0
  0
LINE
  5
1274
100
AcDbEntity
  8
10000_FRONT
370
    25
390
0
  6
CONTINUOUS
 62
     7
100
AcDbLine
 10
338.280211
 20
752.448496
 30
0.0
 11
338.371365
 21
752.304599
 31
0.0
  0
LINE
  5
1275
100
AcDbEntity
  8
10000_FRONT
370
    25
390
0
  6
CONTINUOUS
 62
     7
100
AcDbLine
 10
338.371365
 20
752.304599
 30
0.0
 11
338.45601
 21
752.155829
 31
0.0
  0
LINE
  5
1276
100
AcDbEntity
  8
10000_FRONT
370
    25
390
0
  6
CONTINUOUS
 62
     7
100
AcDbLine
 10
338.45601
 20
752.155829
 30
0.0
 11
338.533759
 21
752.002748
 31
0.0
  0
LINE
  5
1277
100
AcDbEntity
  8
10000_FRONT
370
    25
390
0
  6
CONTINUOUS
 62
     7
100
AcDbLine
 10
338.533759
 20
752.002748
 30
0.0
 11
338.604224
 21
751.845922
 31
0.0
  0
LINE
  5
1278
100
AcDbEntity
  8
10000_FRONT
370
    25
390
0
  6
CONTINUOUS
 62
     7
100
AcDbLine
 10
338.604224
 20
751.845922
 30
0.0
 11
338.667067
 21
751.685878
 31
0.0
  0
LINE
  5
1279
100
AcDbEntity
  8
10000_FRONT
370
    25
390
0
  6
CONTINUOUS
 62
     7
100
AcDbLine
 10
338.667067
 20
751.685878
 30
0.0
 11
338.722135
 21
751.523193
 31
0.0
  0
LINE
  5
127A
100
AcDbEntity
  8
10000_FRONT
370
    25
390
0
  6
CONTINUOUS
 62
     7
100
AcDbLine
 10
338.722135
 20
751.523193
 30
0.0
 11
338.769306
 21
751.358538
 31
0.0
  0
LINE
  5
127B
100
AcDbEntity
  8
10000_FRONT
370
    25
390
0
  6
CONTINUOUS
 62
     7
100
AcDbLine
 10
338.769306
 20
751.358538
 30
0.0
 11
338.808456
 21
751.192586
 31
0.0
  0
LINE
  5
127C
100
AcDbEntity
  8
10000_FRONT
370
    25
390
0
  6
CONTINUOUS
 62
     7
100
AcDbLine
 10
338.808456
 20
751.192586
 30
0.0
 11
338.83948
 21
751.026015
 31
0.0
  0
LINE
  5
127D
100
AcDbEntity
  8
10000_FRONT
370
    25
390
0
  6
CONTINUOUS
 62
     7
100
AcDbLine
 10
338.83948
 20
751.026015
 30
0.0
 11
338.862451
 21
750.859535
 31
0.0
  0
LINE
  5
127E
100
AcDbEntity
  8
10000_FRONT
370
    25
390
0
  6
CONTINUOUS
 62
     7
100
AcDbLine
 10
338.862451
 20
750.859535
 30
0.0
 11
338.877556
 21
750.69388
 31
0.0
  0
LINE
  5
127F
100
AcDbEntity
  8
10000_FRONT
370
    25
390
0
  6
CONTINUOUS
 62
     7
100
AcDbLine
 10
338.877556
 20
750.69388
 30
0.0
 11
338.884985
 21
750.529784
 31
0.0
  0
LINE
  5
1280
100
AcDbEntity
  8
10000_FRONT
370
    25
390
0
  6
CONTINUOUS
 62
     7
100
AcDbLine
 10
338.884985
 20
750.529784
 30
0.0
 11
338.884919
 21
750.367295
 31
0.0
  0
LINE
  5
1281
100
AcDbEntity
  8
10000_FRONT
370
    25
390
0
  6
CONTINUOUS
 62
     7
100
AcDbLine
 10
338.884919
 20
750.367295
 30
0.0
 11
338.877356
 21
750.203187
 31
0.0
  0
LINE
  5
1282
100
AcDbEntity
  8
10000_FRONT
370
    25
390
0
  6
CONTINUOUS
 62
     7
100
AcDbLine
 10
338.877356
 20
750.203187
 30
0.0
 11
338.862117
 21
750.037554
 31
0.0
  0
LINE
  5
1283
100
AcDbEntity
  8
10000_FRONT
370
    25
390
0
  6
CONTINUOUS
 62
     7
100
AcDbLine
 10
338.862117
 20
750.037554
 30
0.0
 11
338.839016
 21
749.871127
 31
0.0
  0
LINE
  5
1284
100
AcDbEntity
  8
10000_FRONT
370
    25
390
0
  6
CONTINUOUS
 62
     7
100
AcDbLine
 10
338.839016
 20
749.871127
 30
0.0
 11
338.807869
 21
749.704639
 31
0.0
  0
LINE
  5
1285
100
AcDbEntity
  8
10000_FRONT
370
    25
390
0
  6
CONTINUOUS
 62
     7
100
AcDbLine
 10
338.807869
 20
749.704639
 30
0.0
 11
338.768608
 21
749.538795
 31
0.0
  0
LINE
  5
1286
100
AcDbEntity
  8
10000_FRONT
370
    25
390
0
  6
CONTINUOUS
 62
     7
100
AcDbLine
 10
338.768608
 20
749.538795
 30
0.0
 11
338.721341
 21
749.374269
 31
0.0
  0
LINE
  5
1287
100
AcDbEntity
  8
10000_FRONT
370
    25
390
0
  6
CONTINUOUS
 62
     7
100
AcDbLine
 10
338.721341
 20
749.374269
 30
0.0
 11
338.666192
 21
749.21173
 31
0.0
  0
LINE
  5
1288
100
AcDbEntity
  8
10000_FRONT
370
    25
390
0
  6
CONTINUOUS
 62
     7
100
AcDbLine
 10
338.666192
 20
749.21173
 30
0.0
 11
338.603284
 21
749.051848
 31
0.0
  0
LINE
  5
1289
100
AcDbEntity
  8
10000_FRONT
370
    25
390
0
  6
CONTINUOUS
 62
     7
100
AcDbLine
 10
338.603284
 20
749.051848
 30
0.0
 11
338.532774
 21
748.895192
 31
0.0
  0
LINE
  5
128A
100
AcDbEntity
  8
10000_FRONT
370
    25
390
0
  6
CONTINUOUS
 62
     7
100
AcDbLine
 10
338.532774
 20
748.895192
 30
0.0
 11
338.454998
 21
748.74229
 31
0.0
  0
LINE
  5
128B
100
AcDbEntity
  8
10000_FRONT
370
    25
390
0
  6
CONTINUOUS
 62
     7
100
AcDbLine
 10
338.454998
 20
748.74229
 30
0.0
 11
338.370345
 21
748.593703
 31
0.0
  0
LINE
  5
128C
100
AcDbEntity
  8
10000_FRONT
370
    25
390
0
  6
CONTINUOUS
 62
     7
100
AcDbLine
 10
338.370345
 20
748.593703
 30
0.0
 11
338.279199
 21
748.449989
 31
0.0
  0
LINE
  5
128D
100
AcDbEntity
  8
10000_FRONT
370
    25
390
0
  6
CONTINUOUS
 62
     7
100
AcDbLine
 10
338.279199
 20
748.449989
 30
0.0
 11
338.181982
 21
748.311688
 31
0.0
  0
LINE
  5
128E
100
AcDbEntity
  8
10000_FRONT
370
    25
390
0
  6
CONTINUOUS
 62
     7
100
AcDbLine
 10
338.181982
 20
748.311688
 30
0.0
 11
338.079286
 21
748.179221
 31
0.0
  0
LINE
  5
128F
100
AcDbEntity
  8
10000_FRONT
370
    25
390
0
  6
CONTINUOUS
 62
     7
100
AcDbLine
 10
338.079286
 20
748.179221
 30
0.0
 11
337.971758
 21
748.052974
 31
0.0
  0
LINE
  5
1290
100
AcDbEntity
  8
10000_FRONT
370
    25
390
0
  6
CONTINUOUS
 62
     7
100
AcDbLine
 10
337.971758
 20
748.052974
 30
0.0
 11
337.86005
 21
747.93333
 31
0.0
  0
LINE
  5
1291
100
AcDbEntity
  8
10000_FRONT
370
    25
390
0
  6
CONTINUOUS
 62
     7
100
AcDbLine
 10
337.86005
 20
747.93333
 30
0.0
 11
337.743758
 21
747.819661
 31
0.0
  0
LINE
  5
1292
100
AcDbEntity
  8
10000_FRONT
370
    25
390
0
  6
CONTINUOUS
 62
     7
100
AcDbLine
 10
337.743758
 20
747.819661
 30
0.0
 11
337.620771
 21
747.709953
 31
0.0
  0
LINE
  5
1293
100
AcDbEntity
  8
10000_FRONT
370
    25
390
0
  6
CONTINUOUS
 62
     7
100
AcDbLine
 10
337.620771
 20
747.709953
 30
0.0
 11
337.491352
 21
747.604737
 31
0.0
  0
LINE
  5
1294
100
AcDbEntity
  8
10000_FRONT
370
    25
390
0
  6
CONTINUOUS
 62
     7
100
AcDbLine
 10
337.491352
 20
747.604737
 30
0.0
 11
337.355884
 21
747.504661
 31
0.0
  0
LINE
  5
1295
100
AcDbEntity
  8
10000_FRONT
370
    25
390
0
  6
CONTINUOUS
 62
     7
100
AcDbLine
 10
337.355884
 20
747.504661
 30
0.0
 11
337.21476
 21
747.410373
 31
0.0
  0
LINE
  5
1296
100
AcDbEntity
  8
10000_FRONT
370
    25
390
0
  6
CONTINUOUS
 62
     7
100
AcDbLine
 10
337.21476
 20
747.410373
 30
0.0
 11
337.068463
 21
747.322376
 31
0.0
  0
LINE
  5
1297
100
AcDbEntity
  8
10000_FRONT
370
    25
390
0
  6
CONTINUOUS
 62
     7
100
AcDbLine
 10
337.068463
 20
747.322376
 30
0.0
 11
336.917554
 21
747.241066
 31
0.0
  0
LINE
  5
1298
100
AcDbEntity
  8
10000_FRONT
370
    25
390
0
  6
CONTINUOUS
 62
     7
100
AcDbLine
 10
336.917554
 20
747.241066
 30
0.0
 11
336.762597
 21
747.16683
 31
0.0
  0
LINE
  5
1299
100
AcDbEntity
  8
10000_FRONT
370
    25
390
0
  6
CONTINUOUS
 62
     7
100
AcDbLine
 10
336.762597
 20
747.16683
 30
0.0
 11
336.604144
 21
747.100054
 31
0.0
  0
LINE
  5
129A
100
AcDbEntity
  8
10000_FRONT
370
    25
390
0
  6
CONTINUOUS
 62
     7
100
AcDbLine
 10
336.604144
 20
747.100054
 30
0.0
 11
336.442716
 21
747.040982
 31
0.0
  0
LINE
  5
129B
100
AcDbEntity
  8
10000_FRONT
370
    25
390
0
  6
CONTINUOUS
 62
     7
100
AcDbLine
 10
336.442716
 20
747.040982
 30
0.0
 11
336.278957
 21
746.989742
 31
0.0
  0
LINE
  5
129C
100
AcDbEntity
  8
10000_FRONT
370
    25
390
0
  6
CONTINUOUS
 62
     7
100
AcDbLine
 10
336.278957
 20
746.989742
 30
0.0
 11
336.11354
 21
746.946457
 31
0.0
  0
LINE
  5
129D
100
AcDbEntity
  8
10000_FRONT
370
    25
390
0
  6
CONTINUOUS
 62
     7
100
AcDbLine
 10
336.11354
 20
746.946457
 30
0.0
 11
335.947138
 21
746.911253
 31
0.0
  0
LINE
  5
129E
100
AcDbEntity
  8
10000_FRONT
370
    25
390
0
  6
CONTINUOUS
 62
     7
100
AcDbLine
 10
335.947138
 20
746.911253
 30
0.0
 11
335.78044
 21
746.884175
 31
0.0
  0
LINE
  5
129F
100
AcDbEntity
  8
10000_FRONT
370
    25
390
0
  6
CONTINUOUS
 62
     7
100
AcDbLine
 10
335.78044
 20
746.884175
 30
0.0
 11
335.614174
 21
746.865064
 31
0.0
  0
LINE
  5
12A0
100
AcDbEntity
  8
10000_FRONT
370
    25
390
0
  6
CONTINUOUS
 62
     7
100
AcDbLine
 10
335.614174
 20
746.865064
 30
0.0
 11
335.449077
 21
746.853735
 31
0.0
  0
LINE
  5
12A1
100
AcDbEntity
  8
10000_FRONT
370
    25
390
0
  6
CONTINUOUS
 62
     7
100
AcDbLine
 10
335.449077
 20
746.853735
 30
0.0
 11
335.285881
 21
746.85
 31
0.0
  0
LINE
  5
12A2
100
AcDbEntity
  8
10000_FRONT
370
    25
390
0
  6
CONTINUOUS
 62
     7
100
AcDbLine
 10
335.285881
 20
765.05
 30
0.0
 11
335.449106
 21
765.046264
 31
0.0
  0
LINE
  5
12A3
100
AcDbEntity
  8
10000_FRONT
370
    25
390
0
  6
CONTINUOUS
 62
     7
100
AcDbLine
 10
335.449106
 20
765.046264
 30
0.0
 11
335.61423
 21
765.03493
 31
0.0
  0
LINE
  5
12A4
100
AcDbEntity
  8
10000_FRONT
370
    25
390
0
  6
CONTINUOUS
 62
     7
100
AcDbLine
 10
335.61423
 20
765.03493
 30
0.0
 11
335.780518
 21
765.015814
 31
0.0
  0
LINE
  5
12A5
100
AcDbEntity
  8
10000_FRONT
370
    25
390
0
  6
CONTINUOUS
 62
     7
100
AcDbLine
 10
335.780518
 20
765.015814
 30
0.0
 11
335.947236
 21
764.988728
 31
0.0
  0
LINE
  5
12A6
100
AcDbEntity
  8
10000_FRONT
370
    25
390
0
  6
CONTINUOUS
 62
     7
100
AcDbLine
 10
335.947236
 20
764.988728
 30
0.0
 11
336.113654
 21
764.953516
 31
0.0
  0
LINE
  5
12A7
100
AcDbEntity
  8
10000_FRONT
370
    25
390
0
  6
CONTINUOUS
 62
     7
100
AcDbLine
 10
336.113654
 20
764.953516
 30
0.0
 11
336.279084
 21
764.910222
 31
0.0
  0
LINE
  5
12A8
100
AcDbEntity
  8
10000_FRONT
370
    25
390
0
  6
CONTINUOUS
 62
     7
100
AcDbLine
 10
336.279084
 20
764.910222
 30
0.0
 11
336.442854
 21
764.858971
 31
0.0
  0
LINE
  5
12A9
100
AcDbEntity
  8
10000_FRONT
370
    25
390
0
  6
CONTINUOUS
 62
     7
100
AcDbLine
 10
336.442854
 20
764.858971
 30
0.0
 11
336.604289
 21
764.799889
 31
0.0
  0
LINE
  5
12AA
100
AcDbEntity
  8
10000_FRONT
370
    25
390
0
  6
CONTINUOUS
 62
     7
100
AcDbLine
 10
336.604289
 20
764.799889
 30
0.0
 11
336.762745
 21
764.733103
 31
0.0
  0
LINE
  5
12AB
100
AcDbEntity
  8
10000_FRONT
370
    25
390
0
  6
CONTINUOUS
 62
     7
100
AcDbLine
 10
336.762745
 20
764.733103
 30
0.0
 11
336.917706
 21
764.658857
 31
0.0
  0
LINE
  5
12AC
100
AcDbEntity
  8
10000_FRONT
370
    25
390
0
  6
CONTINUOUS
 62
     7
100
AcDbLine
 10
336.917706
 20
764.658857
 30
0.0
 11
337.068615
 21
764.577537
 31
0.0
  0
LINE
  5
12AD
100
AcDbEntity
  8
10000_FRONT
370
    25
390
0
  6
CONTINUOUS
 62
     7
100
AcDbLine
 10
337.068615
 20
764.577537
 30
0.0
 11
337.21491
 21
764.489532
 31
0.0
  0
LINE
  5
12AE
100
AcDbEntity
  8
10000_FRONT
370
    25
390
0
  6
CONTINUOUS
 62
     7
100
AcDbLine
 10
337.21491
 20
764.489532
 30
0.0
 11
337.356031
 21
764.395236
 31
0.0
  0
LINE
  5
12AF
100
AcDbEntity
  8
10000_FRONT
370
    25
390
0
  6
CONTINUOUS
 62
     7
100
AcDbLine
 10
337.356031
 20
764.395236
 30
0.0
 11
337.491495
 21
764.295153
 31
0.0
  0
LINE
  5
12B0
100
AcDbEntity
  8
10000_FRONT
370
    25
390
0
  6
CONTINUOUS
 62
     7
100
AcDbLine
 10
337.491495
 20
764.295153
 30
0.0
 11
337.620909
 21
764.189928
 31
0.0
  0
LINE
  5
12B1
100
AcDbEntity
  8
10000_FRONT
370
    25
390
0
  6
CONTINUOUS
 62
     7
100
AcDbLine
 10
337.620909
 20
764.189928
 30
0.0
 11
337.74389
 21
764.080215
 31
0.0
  0
LINE
  5
12B2
100
AcDbEntity
  8
10000_FRONT
370
    25
390
0
  6
CONTINUOUS
 62
     7
100
AcDbLine
 10
337.74389
 20
764.080215
 30
0.0
 11
337.860172
 21
763.966546
 31
0.0
  0
LINE
  5
12B3
100
AcDbEntity
  8
10000_FRONT
370
    25
390
0
  6
CONTINUOUS
 62
     7
100
AcDbLine
 10
337.860172
 20
763.966546
 30
0.0
 11
337.971856
 21
763.846918
 31
0.0
  0
LINE
  5
12B4
100
AcDbEntity
  8
10000_FRONT
370
    25
390
0
  6
CONTINUOUS
 62
     7
100
AcDbLine
 10
337.971856
 20
763.846918
 30
0.0
 11
338.07936
 21
763.720689
 31
0.0
  0
LINE
  5
12B5
100
AcDbEntity
  8
10000_FRONT
370
    25
390
0
  6
CONTINUOUS
 62
     7
100
AcDbLine
 10
338.07936
 20
763.720689
 30
0.0
 11
338.182034
 21
763.588242
 31
0.0
  0
LINE
  5
12B6
100
AcDbEntity
  8
10000_FRONT
370
    25
390
0
  6
CONTINUOUS
 62
     7
100
AcDbLine
 10
338.182034
 20
763.588242
 30
0.0
 11
338.279232
 21
763.449962
 31
0.0
  0
LINE
  5
12B7
100
AcDbEntity
  8
10000_FRONT
370
    25
390
0
  6
CONTINUOUS
 62
     7
100
AcDbLine
 10
338.279232
 20
763.449962
 30
0.0
 11
338.37036
 21
763.306272
 31
0.0
  0
LINE
  5
12B8
100
AcDbEntity
  8
10000_FRONT
370
    25
390
0
  6
CONTINUOUS
 62
     7
100
AcDbLine
 10
338.37036
 20
763.306272
 30
0.0
 11
338.454999
 21
763.157709
 31
0.0
  0
LINE
  5
12B9
100
AcDbEntity
  8
10000_FRONT
370
    25
390
0
  6
CONTINUOUS
 62
     7
100
AcDbLine
 10
338.454999
 20
763.157709
 30
0.0
 11
338.532761
 21
763.004832
 31
0.0
  0
LINE
  5
12BA
100
AcDbEntity
  8
10000_FRONT
370
    25
390
0
  6
CONTINUOUS
 62
     7
100
AcDbLine
 10
338.532761
 20
763.004832
 30
0.0
 11
338.603262
 21
762.848204
 31
0.0
  0
LINE
  5
12BB
100
AcDbEntity
  8
10000_FRONT
370
    25
390
0
  6
CONTINUOUS
 62
     7
100
AcDbLine
 10
338.603262
 20
762.848204
 30
0.0
 11
338.666163
 21
762.688349
 31
0.0
  0
LINE
  5
12BC
100
AcDbEntity
  8
10000_FRONT
370
    25
390
0
  6
CONTINUOUS
 62
     7
100
AcDbLine
 10
338.666163
 20
762.688349
 30
0.0
 11
338.721307
 21
762.52584
 31
0.0
  0
LINE
  5
12BD
100
AcDbEntity
  8
10000_FRONT
370
    25
390
0
  6
CONTINUOUS
 62
     7
100
AcDbLine
 10
338.721307
 20
762.52584
 30
0.0
 11
338.768572
 21
762.361342
 31
0.0
  0
LINE
  5
12BE
100
AcDbEntity
  8
10000_FRONT
370
    25
390
0
  6
CONTINUOUS
 62
     7
100
AcDbLine
 10
338.768572
 20
762.361342
 30
0.0
 11
338.807834
 21
762.195527
 31
0.0
  0
LINE
  5
12BF
100
AcDbEntity
  8
10000_FRONT
370
    25
390
0
  6
CONTINUOUS
 62
     7
100
AcDbLine
 10
338.807834
 20
762.195527
 30
0.0
 11
338.838985
 21
762.029067
 31
0.0
  0
LINE
  5
12C0
100
AcDbEntity
  8
10000_FRONT
370
    25
390
0
  6
CONTINUOUS
 62
     7
100
AcDbLine
 10
338.838985
 20
762.029067
 30
0.0
 11
338.862092
 21
761.862669
 31
0.0
  0
LINE
  5
12C1
100
AcDbEntity
  8
10000_FRONT
370
    25
390
0
  6
CONTINUOUS
 62
     7
100
AcDbLine
 10
338.862092
 20
761.862669
 30
0.0
 11
338.877339
 21
761.697065
 31
0.0
  0
LINE
  5
12C2
100
AcDbEntity
  8
10000_FRONT
370
    25
390
0
  6
CONTINUOUS
 62
     7
100
AcDbLine
 10
338.877339
 20
761.697065
 30
0.0
 11
338.884913
 21
761.532983
 31
0.0
  0
LINE
  5
12C3
100
AcDbEntity
  8
10000_FRONT
370
    25
390
0
  6
CONTINUOUS
 62
     7
100
AcDbLine
 10
338.884913
 20
761.532983
 30
0.0
 11
338.884993
 21
761.370525
 31
0.0
  0
LINE
  5
12C4
100
AcDbEntity
  8
10000_FRONT
370
    25
390
0
  6
CONTINUOUS
 62
     7
100
AcDbLine
 10
338.884993
 20
761.370525
 30
0.0
 11
338.87758
 21
761.20646
 31
0.0
  0
LINE
  5
12C5
100
AcDbEntity
  8
10000_FRONT
370
    25
390
0
  6
CONTINUOUS
 62
     7
100
AcDbLine
 10
338.87758
 20
761.20646
 30
0.0
 11
338.862493
 21
761.040832
 31
0.0
  0
LINE
  5
12C6
100
AcDbEntity
  8
10000_FRONT
370
    25
390
0
  6
CONTINUOUS
 62
     7
100
AcDbLine
 10
338.862493
 20
761.040832
 30
0.0
 11
338.839543
 21
760.874374
 31
0.0
  0
LINE
  5
12C7
100
AcDbEntity
  8
10000_FRONT
370
    25
390
0
  6
CONTINUOUS
 62
     7
100
AcDbLine
 10
338.839543
 20
760.874374
 30
0.0
 11
338.808542
 21
760.707821
 31
0.0
  0
LINE
  5
12C8
100
AcDbEntity
  8
10000_FRONT
370
    25
390
0
  6
CONTINUOUS
 62
     7
100
AcDbLine
 10
338.808542
 20
760.707821
 30
0.0
 11
338.769414
 21
760.541882
 31
0.0
  0
LINE
  5
12C9
100
AcDbEntity
  8
10000_FRONT
370
    25
390
0
  6
CONTINUOUS
 62
     7
100
AcDbLine
 10
338.769414
 20
760.541882
 30
0.0
 11
338.722269
 21
760.377236
 31
0.0
  0
LINE
  5
12CA
100
AcDbEntity
  8
10000_FRONT
370
    25
390
0
  6
CONTINUOUS
 62
     7
100
AcDbLine
 10
338.722269
 20
760.377236
 30
0.0
 11
338.667224
 21
760.214554
 31
0.0
  0
LINE
  5
12CB
100
AcDbEntity
  8
10000_FRONT
370
    25
390
0
  6
CONTINUOUS
 62
     7
100
AcDbLine
 10
338.667224
 20
760.214554
 30
0.0
 11
338.604405
 21
760.05451
 31
0.0
  0
LINE
  5
12CC
100
AcDbEntity
  8
10000_FRONT
370
    25
390
0
  6
CONTINUOUS
 62
     7
100
AcDbLine
 10
338.604405
 20
760.05451
 30
0.0
 11
338.533963
 21
759.897678
 31
0.0
  0
LINE
  5
12CD
100
AcDbEntity
  8
10000_FRONT
370
    25
390
0
  6
CONTINUOUS
 62
     7
100
AcDbLine
 10
338.533963
 20
759.897678
 30
0.0
 11
338.456235
 21
759.744589
 31
0.0
  0
LINE
  5
12CE
100
AcDbEntity
  8
10000_FRONT
370
    25
390
0
  6
CONTINUOUS
 62
     7
100
AcDbLine
 10
338.456235
 20
759.744589
 30
0.0
 11
338.371609
 21
759.595806
 31
0.0
  0
LINE
  5
12CF
100
AcDbEntity
  8
10000_FRONT
370
    25
390
0
  6
CONTINUOUS
 62
     7
100
AcDbLine
 10
338.371609
 20
759.595806
 30
0.0
 11
338.280471
 21
759.451894
 31
0.0
  0
LINE
  5
12D0
100
AcDbEntity
  8
10000_FRONT
370
    25
390
0
  6
CONTINUOUS
 62
     7
100
AcDbLine
 10
338.280471
 20
759.451894
 30
0.0
 11
338.183242
 21
759.313396
 31
0.0
  0
LINE
  5
12D1
100
AcDbEntity
  8
10000_FRONT
370
    25
390
0
  6
CONTINUOUS
 62
     7
100
AcDbLine
 10
338.183242
 20
759.313396
 30
0.0
 11
338.080515
 21
759.180735
 31
0.0
  0
LINE
  5
12D2
100
AcDbEntity
  8
10000_FRONT
370
    25
390
0
  6
CONTINUOUS
 62
     7
100
AcDbLine
 10
338.080515
 20
759.180735
 30
0.0
 11
337.972943
 21
759.054301
 31
0.0
  0
LINE
  5
12D3
100
AcDbEntity
  8
10000_FRONT
370
    25
390
0
  6
CONTINUOUS
 62
     7
100
AcDbLine
 10
337.972943
 20
759.054301
 30
0.0
 11
337.861174
 21
758.934481
 31
0.0
  0
LINE
  5
12D4
100
AcDbEntity
  8
10000_FRONT
370
    25
390
0
  6
CONTINUOUS
 62
     7
100
AcDbLine
 10
337.861174
 20
758.934481
 30
0.0
 11
337.744822
 21
758.820656
 31
0.0
  0
LINE
  5
12D5
100
AcDbEntity
  8
10000_FRONT
370
    25
390
0
  6
CONTINUOUS
 62
     7
100
AcDbLine
 10
337.744822
 20
758.820656
 30
0.0
 11
337.621771
 21
758.710806
 31
0.0
  0
LINE
  5
12D6
100
AcDbEntity
  8
10000_FRONT
370
    25
390
0
  6
CONTINUOUS
 62
     7
100
AcDbLine
 10
337.621771
 20
758.710806
 30
0.0
 11
337.492281
 21
758.605457
 31
0.0
  0
LINE
  5
12D7
100
AcDbEntity
  8
10000_FRONT
370
    25
390
0
  6
CONTINUOUS
 62
     7
100
AcDbLine
 10
337.492281
 20
758.605457
 30
0.0
 11
337.356739
 21
758.505262
 31
0.0
  0
LINE
  5
12D8
100
AcDbEntity
  8
10000_FRONT
370
    25
390
0
  6
CONTINUOUS
 62
     7
100
AcDbLine
 10
337.356739
 20
758.505262
 30
0.0
 11
337.215537
 21
758.410866
 31
0.0
  0
LINE
  5
12D9
100
AcDbEntity
  8
10000_FRONT
370
    25
390
0
  6
CONTINUOUS
 62
     7
100
AcDbLine
 10
337.215537
 20
758.410866
 30
0.0
 11
337.06916
 21
758.322774
 31
0.0
  0
LINE
  5
12DA
100
AcDbEntity
  8
10000_FRONT
370
    25
390
0
  6
CONTINUOUS
 62
     7
100
AcDbLine
 10
337.06916
 20
758.322774
 30
0.0
 11
336.918171
 21
758.241379
 31
0.0
  0
LINE
  5
12DB
100
AcDbEntity
  8
10000_FRONT
370
    25
390
0
  6
CONTINUOUS
 62
     7
100
AcDbLine
 10
336.918171
 20
758.241379
 30
0.0
 11
336.763132
 21
758.167072
 31
0.0
  0
LINE
  5
12DC
100
AcDbEntity
  8
10000_FRONT
370
    25
390
0
  6
CONTINUOUS
 62
     7
100
AcDbLine
 10
336.763132
 20
758.167072
 30
0.0
 11
336.604601
 21
758.100234
 31
0.0
  0
LINE
  5
12DD
100
AcDbEntity
  8
10000_FRONT
370
    25
390
0
  6
CONTINUOUS
 62
     7
100
AcDbLine
 10
336.604601
 20
758.100234
 30
0.0
 11
336.443098
 21
758.041112
 31
0.0
  0
LINE
  5
12DE
100
AcDbEntity
  8
10000_FRONT
370
    25
390
0
  6
CONTINUOUS
 62
     7
100
AcDbLine
 10
336.443098
 20
758.041112
 30
0.0
 11
336.279267
 21
757.989831
 31
0.0
  0
LINE
  5
12DF
100
AcDbEntity
  8
10000_FRONT
370
    25
390
0
  6
CONTINUOUS
 62
     7
100
AcDbLine
 10
336.279267
 20
757.989831
 30
0.0
 11
336.113783
 21
757.946515
 31
0.0
  0
LINE
  5
12E0
100
AcDbEntity
  8
10000_FRONT
370
    25
390
0
  6
CONTINUOUS
 62
     7
100
AcDbLine
 10
336.113783
 20
757.946515
 30
0.0
 11
335.94732
 21
757.911287
 31
0.0
  0
LINE
  5
12E1
100
AcDbEntity
  8
10000_FRONT
370
    25
390
0
  6
CONTINUOUS
 62
     7
100
AcDbLine
 10
335.94732
 20
757.911287
 30
0.0
 11
335.780566
 21
757.884192
 31
0.0
  0
LINE
  5
12E2
100
AcDbEntity
  8
10000_FRONT
370
    25
390
0
  6
CONTINUOUS
 62
     7
100
AcDbLine
 10
335.780566
 20
757.884192
 30
0.0
 11
335.614252
 21
757.865071
 31
0.0
  0
LINE
  5
12E3
100
AcDbEntity
  8
10000_FRONT
370
    25
390
0
  6
CONTINUOUS
 62
     7
100
AcDbLine
 10
335.614252
 20
757.865071
 30
0.0
 11
335.449112
 21
757.853736
 31
0.0
  0
LINE
  5
12E4
100
AcDbEntity
  8
10000_FRONT
370
    25
390
0
  6
CONTINUOUS
 62
     7
100
AcDbLine
 10
335.449112
 20
757.853736
 30
0.0
 11
335.285881
 21
757.85
 31
0.0
  0
LINE
  5
12E5
100
AcDbEntity
  8
10000_FRONT
370
    25
390
0
  6
CONTINUOUS
 62
     7
100
AcDbLine
 10
335.285881
 20
757.85
 30
0.0
 11
335.12265
 21
757.853736
 31
0.0
  0
LINE
  5
12E6
100
AcDbEntity
  8
10000_FRONT
370
    25
390
0
  6
CONTINUOUS
 62
     7
100
AcDbLine
 10
335.12265
 20
757.853736
 30
0.0
 11
334.95751
 21
757.865071
 31
0.0
  0
LINE
  5
12E7
100
AcDbEntity
  8
10000_FRONT
370
    25
390
0
  6
CONTINUOUS
 62
     7
100
AcDbLine
 10
334.95751
 20
757.865071
 30
0.0
 11
334.791194
 21
757.884193
 31
0.0
  0
LINE
  5
12E8
100
AcDbEntity
  8
10000_FRONT
370
    25
390
0
  6
CONTINUOUS
 62
     7
100
AcDbLine
 10
334.791194
 20
757.884193
 30
0.0
 11
334.624439
 21
757.911288
 31
0.0
  0
LINE
  5
12E9
100
AcDbEntity
  8
10000_FRONT
370
    25
390
0
  6
CONTINUOUS
 62
     7
100
AcDbLine
 10
334.624439
 20
757.911288
 30
0.0
 11
334.457973
 21
757.946516
 31
0.0
  0
LINE
  5
12EA
100
AcDbEntity
  8
10000_FRONT
370
    25
390
0
  6
CONTINUOUS
 62
     7
100
AcDbLine
 10
334.457973
 20
757.946516
 30
0.0
 11
334.292488
 21
757.989833
 31
0.0
  0
LINE
  5
12EB
100
AcDbEntity
  8
10000_FRONT
370
    25
390
0
  6
CONTINUOUS
 62
     7
100
AcDbLine
 10
334.292488
 20
757.989833
 30
0.0
 11
334.128655
 21
758.041115
 31
0.0
  0
LINE
  5
12EC
100
AcDbEntity
  8
10000_FRONT
370
    25
390
0
  6
CONTINUOUS
 62
     7
100
AcDbLine
 10
334.128655
 20
758.041115
 30
0.0
 11
333.96715
 21
758.100238
 31
0.0
  0
LINE
  5
12ED
100
AcDbEntity
  8
10000_FRONT
370
    25
390
0
  6
CONTINUOUS
 62
     7
100
AcDbLine
 10
333.96715
 20
758.100238
 30
0.0
 11
333.808619
 21
758.167077
 31
0.0
  0
LINE
  5
12EE
100
AcDbEntity
  8
10000_FRONT
370
    25
390
0
  6
CONTINUOUS
 62
     7
100
AcDbLine
 10
333.808619
 20
758.167077
 30
0.0
 11
333.653579
 21
758.241386
 31
0.0
  0
LINE
  5
12EF
100
AcDbEntity
  8
10000_FRONT
370
    25
390
0
  6
CONTINUOUS
 62
     7
100
AcDbLine
 10
333.653579
 20
758.241386
 30
0.0
 11
333.502589
 21
758.322781
 31
0.0
  0
LINE
  5
12F0
100
AcDbEntity
  8
10000_FRONT
370
    25
390
0
  6
CONTINUOUS
 62
     7
100
AcDbLine
 10
333.502589
 20
758.322781
 30
0.0
 11
333.356213
 21
758.410873
 31
0.0
  0
LINE
  5
12F1
100
AcDbEntity
  8
10000_FRONT
370
    25
390
0
  6
CONTINUOUS
 62
     7
100
AcDbLine
 10
333.356213
 20
758.410873
 30
0.0
 11
333.215012
 21
758.50527
 31
0.0
  0
LINE
  5
12F2
100
AcDbEntity
  8
10000_FRONT
370
    25
390
0
  6
CONTINUOUS
 62
     7
100
AcDbLine
 10
333.215012
 20
758.50527
 30
0.0
 11
333.079471
 21
758.605465
 31
0.0
  0
LINE
  5
12F3
100
AcDbEntity
  8
10000_FRONT
370
    25
390
0
  6
CONTINUOUS
 62
     7
100
AcDbLine
 10
333.079471
 20
758.605465
 30
0.0
 11
332.949984
 21
758.710812
 31
0.0
  0
LINE
  5
12F4
100
AcDbEntity
  8
10000_FRONT
370
    25
390
0
  6
CONTINUOUS
 62
     7
100
AcDbLine
 10
332.949984
 20
758.710812
 30
0.0
 11
332.826936
 21
758.820659
 31
0.0
  0
LINE
  5
12F5
100
AcDbEntity
  8
10000_FRONT
370
    25
390
0
  6
CONTINUOUS
 62
     7
100
AcDbLine
 10
332.826936
 20
758.820659
 30
0.0
 11
332.710586
 21
758.934483
 31
0.0
  0
LINE
  5
12F6
100
AcDbEntity
  8
10000_FRONT
370
    25
390
0
  6
CONTINUOUS
 62
     7
100
AcDbLine
 10
332.710586
 20
758.934483
 30
0.0
 11
332.598814
 21
759.054307
 31
0.0
  0
LINE
  5
12F7
100
AcDbEntity
  8
10000_FRONT
370
    25
390
0
  6
CONTINUOUS
 62
     7
100
AcDbLine
 10
332.598814
 20
759.054307
 30
0.0
 11
332.491239
 21
759.180744
 31
0.0
  0
LINE
  5
12F8
100
AcDbEntity
  8
10000_FRONT
370
    25
390
0
  6
CONTINUOUS
 62
     7
100
AcDbLine
 10
332.491239
 20
759.180744
 30
0.0
 11
332.388512
 21
759.313406
 31
0.0
  0
LINE
  5
12F9
100
AcDbEntity
  8
10000_FRONT
370
    25
390
0
  6
CONTINUOUS
 62
     7
100
AcDbLine
 10
332.388512
 20
759.313406
 30
0.0
 11
332.291283
 21
759.451906
 31
0.0
  0
LINE
  5
12FA
100
AcDbEntity
  8
10000_FRONT
370
    25
390
0
  6
CONTINUOUS
 62
     7
100
AcDbLine
 10
332.291283
 20
759.451906
 30
0.0
 11
332.200146
 21
759.595819
 31
0.0
  0
LINE
  5
12FB
100
AcDbEntity
  8
10000_FRONT
370
    25
390
0
  6
CONTINUOUS
 62
     7
100
AcDbLine
 10
332.200146
 20
759.595819
 30
0.0
 11
332.11552
 21
759.744601
 31
0.0
  0
LINE
  5
12FC
100
AcDbEntity
  8
10000_FRONT
370
    25
390
0
  6
CONTINUOUS
 62
     7
100
AcDbLine
 10
332.11552
 20
759.744601
 30
0.0
 11
332.037793
 21
759.89769
 31
0.0
  0
LINE
  5
12FD
100
AcDbEntity
  8
10000_FRONT
370
    25
390
0
  6
CONTINUOUS
 62
     7
100
AcDbLine
 10
332.037793
 20
759.89769
 30
0.0
 11
331.967352
 21
760.05452
 31
0.0
  0
LINE
  5
12FE
100
AcDbEntity
  8
10000_FRONT
370
    25
390
0
  6
CONTINUOUS
 62
     7
100
AcDbLine
 10
331.967352
 20
760.05452
 30
0.0
 11
331.904534
 21
760.214564
 31
0.0
  0
LINE
  5
12FF
100
AcDbEntity
  8
10000_FRONT
370
    25
390
0
  6
CONTINUOUS
 62
     7
100
AcDbLine
 10
331.904534
 20
760.214564
 30
0.0
 11
331.849491
 21
760.377244
 31
0.0
  0
LINE
  5
1300
100
AcDbEntity
  8
10000_FRONT
370
    25
390
0
  6
CONTINUOUS
 62
     7
100
AcDbLine
 10
331.849491
 20
760.377244
 30
0.0
 11
331.802345
 21
760.541889
 31
0.0
  0
LINE
  5
1301
100
AcDbEntity
  8
10000_FRONT
370
    25
390
0
  6
CONTINUOUS
 62
     7
100
AcDbLine
 10
331.802345
 20
760.541889
 30
0.0
 11
331.763219
 21
760.707825
 31
0.0
  0
LINE
  5
1302
100
AcDbEntity
  8
10000_FRONT
370
    25
390
0
  6
CONTINUOUS
 62
     7
100
AcDbLine
 10
331.763219
 20
760.707825
 30
0.0
 11
331.732218
 21
760.874377
 31
0.0
  0
LINE
  5
1303
100
AcDbEntity
  8
10000_FRONT
370
    25
390
0
  6
CONTINUOUS
 62
     7
100
AcDbLine
 10
331.732218
 20
760.874377
 30
0.0
 11
331.709269
 21
761.040833
 31
0.0
  0
LINE
  5
1304
100
AcDbEntity
  8
10000_FRONT
370
    25
390
0
  6
CONTINUOUS
 62
     7
100
AcDbLine
 10
331.709269
 20
761.040833
 30
0.0
 11
331.694182
 21
761.20646
 31
0.0
  0
LINE
  5
1305
100
AcDbEntity
  8
10000_FRONT
370
    25
390
0
  6
CONTINUOUS
 62
     7
100
AcDbLine
 10
331.694182
 20
761.20646
 30
0.0
 11
331.686769
 21
761.370525
 31
0.0
  0
LINE
  5
1306
100
AcDbEntity
  8
10000_FRONT
370
    25
390
0
  6
CONTINUOUS
 62
     7
100
AcDbLine
 10
331.686769
 20
761.370525
 30
0.0
 11
331.686849
 21
761.532983
 31
0.0
  0
LINE
  5
1307
100
AcDbEntity
  8
10000_FRONT
370
    25
390
0
  6
CONTINUOUS
 62
     7
100
AcDbLine
 10
331.686849
 20
761.532983
 30
0.0
 11
331.694423
 21
761.697062
 31
0.0
  0
LINE
  5
1308
100
AcDbEntity
  8
10000_FRONT
370
    25
390
0
  6
CONTINUOUS
 62
     7
100
AcDbLine
 10
331.694423
 20
761.697062
 30
0.0
 11
331.70967
 21
761.862662
 31
0.0
  0
LINE
  5
1309
100
AcDbEntity
  8
10000_FRONT
370
    25
390
0
  6
CONTINUOUS
 62
     7
100
AcDbLine
 10
331.70967
 20
761.862662
 30
0.0
 11
331.732775
 21
762.029054
 31
0.0
  0
LINE
  5
130A
100
AcDbEntity
  8
10000_FRONT
370
    25
390
0
  6
CONTINUOUS
 62
     7
100
AcDbLine
 10
331.732775
 20
762.029054
 30
0.0
 11
331.763924
 21
762.195508
 31
0.0
  0
LINE
  5
130B
100
AcDbEntity
  8
10000_FRONT
370
    25
390
0
  6
CONTINUOUS
 62
     7
100
AcDbLine
 10
331.763924
 20
762.195508
 30
0.0
 11
331.803183
 21
762.361316
 31
0.0
  0
LINE
  5
130C
100
AcDbEntity
  8
10000_FRONT
370
    25
390
0
  6
CONTINUOUS
 62
     7
100
AcDbLine
 10
331.803183
 20
762.361316
 30
0.0
 11
331.850444
 21
762.525806
 31
0.0
  0
LINE
  5
130D
100
AcDbEntity
  8
10000_FRONT
370
    25
390
0
  6
CONTINUOUS
 62
     7
100
AcDbLine
 10
331.850444
 20
762.525806
 30
0.0
 11
331.905585
 21
762.68831
 31
0.0
  0
LINE
  5
130E
100
AcDbEntity
  8
10000_FRONT
370
    25
390
0
  6
CONTINUOUS
 62
     7
100
AcDbLine
 10
331.905585
 20
762.68831
 30
0.0
 11
331.968481
 21
762.84816
 31
0.0
  0
LINE
  5
130F
100
AcDbEntity
  8
10000_FRONT
370
    25
390
0
  6
CONTINUOUS
 62
     7
100
AcDbLine
 10
331.968481
 20
762.84816
 30
0.0
 11
332.038977
 21
763.004785
 31
0.0
  0
LINE
  5
1310
100
AcDbEntity
  8
10000_FRONT
370
    25
390
0
  6
CONTINUOUS
 62
     7
100
AcDbLine
 10
332.038977
 20
763.004785
 30
0.0
 11
332.116736
 21
763.157659
 31
0.0
  0
LINE
  5
1311
100
AcDbEntity
  8
10000_FRONT
370
    25
390
0
  6
CONTINUOUS
 62
     7
100
AcDbLine
 10
332.116736
 20
763.157659
 30
0.0
 11
332.201372
 21
763.306222
 31
0.0
  0
LINE
  5
1312
100
AcDbEntity
  8
10000_FRONT
370
    25
390
0
  6
CONTINUOUS
 62
     7
100
AcDbLine
 10
332.201372
 20
763.306222
 30
0.0
 11
332.292499
 21
763.449915
 31
0.0
  0
LINE
  5
1313
100
AcDbEntity
  8
10000_FRONT
370
    25
390
0
  6
CONTINUOUS
 62
     7
100
AcDbLine
 10
332.292499
 20
763.449915
 30
0.0
 11
332.389697
 21
763.5882
 31
0.0
  0
LINE
  5
1314
100
AcDbEntity
  8
10000_FRONT
370
    25
390
0
  6
CONTINUOUS
 62
     7
100
AcDbLine
 10
332.389697
 20
763.5882
 30
0.0
 11
332.492375
 21
763.720655
 31
0.0
  0
LINE
  5
1315
100
AcDbEntity
  8
10000_FRONT
370
    25
390
0
  6
CONTINUOUS
 62
     7
100
AcDbLine
 10
332.492375
 20
763.720655
 30
0.0
 11
332.599886
 21
763.846895
 31
0.0
  0
LINE
  5
1316
100
AcDbEntity
  8
10000_FRONT
370
    25
390
0
  6
CONTINUOUS
 62
     7
100
AcDbLine
 10
332.599886
 20
763.846895
 30
0.0
 11
332.711583
 21
763.966538
 31
0.0
  0
LINE
  5
1317
100
AcDbEntity
  8
10000_FRONT
370
    25
390
0
  6
CONTINUOUS
 62
     7
100
AcDbLine
 10
332.711583
 20
763.966538
 30
0.0
 11
332.827856
 21
764.080201
 31
0.0
  0
LINE
  5
1318
100
AcDbEntity
  8
10000_FRONT
370
    25
390
0
  6
CONTINUOUS
 62
     7
100
AcDbLine
 10
332.827856
 20
764.080201
 30
0.0
 11
332.950824
 21
764.189904
 31
0.0
  0
LINE
  5
1319
100
AcDbEntity
  8
10000_FRONT
370
    25
390
0
  6
CONTINUOUS
 62
     7
100
AcDbLine
 10
332.950824
 20
764.189904
 30
0.0
 11
333.080229
 21
764.295123
 31
0.0
  0
LINE
  5
131A
100
AcDbEntity
  8
10000_FRONT
370
    25
390
0
  6
CONTINUOUS
 62
     7
100
AcDbLine
 10
333.080229
 20
764.295123
 30
0.0
 11
333.215685
 21
764.395204
 31
0.0
  0
LINE
  5
131B
100
AcDbEntity
  8
10000_FRONT
370
    25
390
0
  6
CONTINUOUS
 62
     7
100
AcDbLine
 10
333.215685
 20
764.395204
 30
0.0
 11
333.356803
 21
764.489501
 31
0.0
  0
LINE
  5
131C
100
AcDbEntity
  8
10000_FRONT
370
    25
390
0
  6
CONTINUOUS
 62
     7
100
AcDbLine
 10
333.356803
 20
764.489501
 30
0.0
 11
333.503097
 21
764.577508
 31
0.0
  0
LINE
  5
131D
100
AcDbEntity
  8
10000_FRONT
370
    25
390
0
  6
CONTINUOUS
 62
     7
100
AcDbLine
 10
333.503097
 20
764.577508
 30
0.0
 11
333.654007
 21
764.658832
 31
0.0
  0
LINE
  5
131E
100
AcDbEntity
  8
10000_FRONT
370
    25
390
0
  6
CONTINUOUS
 62
     7
100
AcDbLine
 10
333.654007
 20
764.658832
 30
0.0
 11
333.808971
 21
764.733082
 31
0.0
  0
LINE
  5
131F
100
AcDbEntity
  8
10000_FRONT
370
    25
390
0
  6
CONTINUOUS
 62
     7
100
AcDbLine
 10
333.808971
 20
764.733082
 30
0.0
 11
333.967432
 21
764.799873
 31
0.0
  0
LINE
  5
1320
100
AcDbEntity
  8
10000_FRONT
370
    25
390
0
  6
CONTINUOUS
 62
     7
100
AcDbLine
 10
333.967432
 20
764.799873
 30
0.0
 11
334.128872
 21
764.858959
 31
0.0
  0
LINE
  5
1321
100
AcDbEntity
  8
10000_FRONT
370
    25
390
0
  6
CONTINUOUS
 62
     7
100
AcDbLine
 10
334.128872
 20
764.858959
 30
0.0
 11
334.292648
 21
764.910213
 31
0.0
  0
LINE
  5
1322
100
AcDbEntity
  8
10000_FRONT
370
    25
390
0
  6
CONTINUOUS
 62
     7
100
AcDbLine
 10
334.292648
 20
764.910213
 30
0.0
 11
334.458086
 21
764.95351
 31
0.0
  0
LINE
  5
1323
100
AcDbEntity
  8
10000_FRONT
370
    25
390
0
  6
CONTINUOUS
 62
     7
100
AcDbLine
 10
334.458086
 20
764.95351
 30
0.0
 11
334.62451
 21
764.988725
 31
0.0
  0
LINE
  5
1324
100
AcDbEntity
  8
10000_FRONT
370
    25
390
0
  6
CONTINUOUS
 62
     7
100
AcDbLine
 10
334.62451
 20
764.988725
 30
0.0
 11
334.791235
 21
765.015813
 31
0.0
  0
LINE
  5
1325
100
AcDbEntity
  8
10000_FRONT
370
    25
390
0
  6
CONTINUOUS
 62
     7
100
AcDbLine
 10
334.791235
 20
765.015813
 30
0.0
 11
334.957528
 21
765.03493
 31
0.0
  0
LINE
  5
1326
100
AcDbEntity
  8
10000_FRONT
370
    25
390
0
  6
CONTINUOUS
 62
     7
100
AcDbLine
 10
334.957528
 20
765.03493
 30
0.0
 11
335.122654
 21
765.046264
 31
0.0
  0
LINE
  5
1327
100
AcDbEntity
  8
10000_FRONT
370
    25
390
0
  6
CONTINUOUS
 62
     7
100
AcDbLine
 10
335.122654
 20
765.046264
 30
0.0
 11
335.285881
 21
765.05
 31
0.0
  0
LINE
  5
1328
100
AcDbEntity
  8
10000_FRONT
370
    25
390
0
  6
CONTINUOUS
 62
     7
100
AcDbLine
 10
335.285881
 20
746.85
 30
0.0
 11
335.122685
 21
746.853735
 31
0.0
  0
LINE
  5
1329
100
AcDbEntity
  8
10000_FRONT
370
    25
390
0
  6
CONTINUOUS
 62
     7
100
AcDbLine
 10
335.122685
 20
746.853735
 30
0.0
 11
334.957588
 21
746.865064
 31
0.0
  0
LINE
  5
132A
100
AcDbEntity
  8
10000_FRONT
370
    25
390
0
  6
CONTINUOUS
 62
     7
100
AcDbLine
 10
334.957588
 20
746.865064
 30
0.0
 11
334.791322
 21
746.884175
 31
0.0
  0
LINE
  5
132B
100
AcDbEntity
  8
10000_FRONT
370
    25
390
0
  6
CONTINUOUS
 62
     7
100
AcDbLine
 10
334.791322
 20
746.884175
 30
0.0
 11
334.624624
 21
746.911253
 31
0.0
  0
LINE
  5
132C
100
AcDbEntity
  8
10000_FRONT
370
    25
390
0
  6
CONTINUOUS
 62
     7
100
AcDbLine
 10
334.624624
 20
746.911253
 30
0.0
 11
334.458222
 21
746.946457
 31
0.0
  0
LINE
  5
132D
100
AcDbEntity
  8
10000_FRONT
370
    25
390
0
  6
CONTINUOUS
 62
     7
100
AcDbLine
 10
334.458222
 20
746.946457
 30
0.0
 11
334.292805
 21
746.989742
 31
0.0
  0
LINE
  5
132E
100
AcDbEntity
  8
10000_FRONT
370
    25
390
0
  6
CONTINUOUS
 62
     7
100
AcDbLine
 10
334.292805
 20
746.989742
 30
0.0
 11
334.129046
 21
747.040982
 31
0.0
  0
LINE
  5
132F
100
AcDbEntity
  8
10000_FRONT
370
    25
390
0
  6
CONTINUOUS
 62
     7
100
AcDbLine
 10
334.129046
 20
747.040982
 30
0.0
 11
333.967618
 21
747.100054
 31
0.0
  0
LINE
  5
1330
100
AcDbEntity
  8
10000_FRONT
370
    25
390
0
  6
CONTINUOUS
 62
     7
100
AcDbLine
 10
333.967618
 20
747.100054
 30
0.0
 11
333.809166
 21
747.16683
 31
0.0
  0
LINE
  5
1331
100
AcDbEntity
  8
10000_FRONT
370
    25
390
0
  6
CONTINUOUS
 62
     7
100
AcDbLine
 10
333.809166
 20
747.16683
 30
0.0
 11
333.654208
 21
747.241066
 31
0.0
  0
LINE
  5
1332
100
AcDbEntity
  8
10000_FRONT
370
    25
390
0
  6
CONTINUOUS
 62
     7
100
AcDbLine
 10
333.654208
 20
747.241066
 30
0.0
 11
333.503299
 21
747.322376
 31
0.0
  0
LINE
  5
1333
100
AcDbEntity
  8
10000_FRONT
370
    25
390
0
  6
CONTINUOUS
 62
     7
100
AcDbLine
 10
333.503299
 20
747.322376
 30
0.0
 11
333.357002
 21
747.410373
 31
0.0
  0
LINE
  5
1334
100
AcDbEntity
  8
10000_FRONT
370
    25
390
0
  6
CONTINUOUS
 62
     7
100
AcDbLine
 10
333.357002
 20
747.410373
 30
0.0
 11
333.215878
 21
747.504661
 31
0.0
  0
LINE
  5
1335
100
AcDbEntity
  8
10000_FRONT
370
    25
390
0
  6
CONTINUOUS
 62
     7
100
AcDbLine
 10
333.215878
 20
747.504661
 30
0.0
 11
333.080411
 21
747.604737
 31
0.0
  0
LINE
  5
1336
100
AcDbEntity
  8
10000_FRONT
370
    25
390
0
  6
CONTINUOUS
 62
     7
100
AcDbLine
 10
333.080411
 20
747.604737
 30
0.0
 11
332.950991
 21
747.709953
 31
0.0
  0
LINE
  5
1337
100
AcDbEntity
  8
10000_FRONT
370
    25
390
0
  6
CONTINUOUS
 62
     7
100
AcDbLine
 10
332.950991
 20
747.709953
 30
0.0
 11
332.828004
 21
747.819661
 31
0.0
  0
LINE
  5
1338
100
AcDbEntity
  8
10000_FRONT
370
    25
390
0
  6
CONTINUOUS
 62
     7
100
AcDbLine
 10
332.828004
 20
747.819661
 30
0.0
 11
332.711712
 21
747.93333
 31
0.0
  0
LINE
  5
1339
100
AcDbEntity
  8
10000_FRONT
370
    25
390
0
  6
CONTINUOUS
 62
     7
100
AcDbLine
 10
332.711712
 20
747.93333
 30
0.0
 11
332.600003
 21
748.052974
 31
0.0
  0
LINE
  5
133A
100
AcDbEntity
  8
10000_FRONT
370
    25
390
0
  6
CONTINUOUS
 62
     7
100
AcDbLine
 10
332.600003
 20
748.052974
 30
0.0
 11
332.492476
 21
748.179221
 31
0.0
  0
LINE
  5
133B
100
AcDbEntity
  8
10000_FRONT
370
    25
390
0
  6
CONTINUOUS
 62
     7
100
AcDbLine
 10
332.492476
 20
748.179221
 30
0.0
 11
332.38978
 21
748.311688
 31
0.0
  0
LINE
  5
133C
100
AcDbEntity
  8
10000_FRONT
370
    25
390
0
  6
CONTINUOUS
 62
     7
100
AcDbLine
 10
332.38978
 20
748.311688
 30
0.0
 11
332.292563
 21
748.449989
 31
0.0
  0
LINE
  5
133D
100
AcDbEntity
  8
10000_FRONT
370
    25
390
0
  6
CONTINUOUS
 62
     7
100
AcDbLine
 10
332.292563
 20
748.449989
 30
0.0
 11
332.201418
 21
748.593703
 31
0.0
  0
LINE
  5
133E
100
AcDbEntity
  8
10000_FRONT
370
    25
390
0
  6
CONTINUOUS
 62
     7
100
AcDbLine
 10
332.201418
 20
748.593703
 30
0.0
 11
332.116764
 21
748.74229
 31
0.0
  0
LINE
  5
133F
100
AcDbEntity
  8
10000_FRONT
370
    25
390
0
  6
CONTINUOUS
 62
     7
100
AcDbLine
 10
332.116764
 20
748.74229
 30
0.0
 11
332.038989
 21
748.895192
 31
0.0
  0
LINE
  5
1340
100
AcDbEntity
  8
10000_FRONT
370
    25
390
0
  6
CONTINUOUS
 62
     7
100
AcDbLine
 10
332.038989
 20
748.895192
 30
0.0
 11
331.968478
 21
749.051848
 31
0.0
  0
LINE
  5
1341
100
AcDbEntity
  8
10000_FRONT
370
    25
390
0
  6
CONTINUOUS
 62
     7
100
AcDbLine
 10
331.968478
 20
749.051848
 30
0.0
 11
331.90557
 21
749.21173
 31
0.0
  0
LINE
  5
1342
100
AcDbEntity
  8
10000_FRONT
370
    25
390
0
  6
CONTINUOUS
 62
     7
100
AcDbLine
 10
331.90557
 20
749.21173
 30
0.0
 11
331.850421
 21
749.374269
 31
0.0
  0
LINE
  5
1343
100
AcDbEntity
  8
10000_FRONT
370
    25
390
0
  6
CONTINUOUS
 62
     7
100
AcDbLine
 10
331.850421
 20
749.374269
 30
0.0
 11
331.803154
 21
749.538795
 31
0.0
  0
LINE
  5
1344
100
AcDbEntity
  8
10000_FRONT
370
    25
390
0
  6
CONTINUOUS
 62
     7
100
AcDbLine
 10
331.803154
 20
749.538795
 30
0.0
 11
331.763893
 21
749.704639
 31
0.0
  0
LINE
  5
1345
100
AcDbEntity
  8
10000_FRONT
370
    25
390
0
  6
CONTINUOUS
 62
     7
100
AcDbLine
 10
331.763893
 20
749.704639
 30
0.0
 11
331.732746
 21
749.871127
 31
0.0
  0
LINE
  5
1346
100
AcDbEntity
  8
10000_FRONT
370
    25
390
0
  6
CONTINUOUS
 62
     7
100
AcDbLine
 10
331.732746
 20
749.871127
 30
0.0
 11
331.709645
 21
750.037554
 31
0.0
  0
LINE
  5
1347
100
AcDbEntity
  8
10000_FRONT
370
    25
390
0
  6
CONTINUOUS
 62
     7
100
AcDbLine
 10
331.709645
 20
750.037554
 30
0.0
 11
331.694406
 21
750.203187
 31
0.0
  0
LINE
  5
1348
100
AcDbEntity
  8
10000_FRONT
370
    25
390
0
  6
CONTINUOUS
 62
     7
100
AcDbLine
 10
331.694406
 20
750.203187
 30
0.0
 11
331.686843
 21
750.367295
 31
0.0
  0
LINE
  5
1349
100
AcDbEntity
  8
10000_FRONT
370
    25
390
0
  6
CONTINUOUS
 62
     7
100
AcDbLine
 10
331.686843
 20
750.367295
 30
0.0
 11
331.686776
 21
750.529784
 31
0.0
  0
LINE
  5
134A
100
AcDbEntity
  8
10000_FRONT
370
    25
390
0
  6
CONTINUOUS
 62
     7
100
AcDbLine
 10
331.686776
 20
750.529784
 30
0.0
 11
331.694205
 21
750.69388
 31
0.0
  0
LINE
  5
134B
100
AcDbEntity
  8
10000_FRONT
370
    25
390
0
  6
CONTINUOUS
 62
     7
100
AcDbLine
 10
331.694205
 20
750.69388
 30
0.0
 11
331.709311
 21
750.859535
 31
0.0
  0
LINE
  5
134C
100
AcDbEntity
  8
10000_FRONT
370
    25
390
0
  6
CONTINUOUS
 62
     7
100
AcDbLine
 10
331.709311
 20
750.859535
 30
0.0
 11
331.732282
 21
751.026015
 31
0.0
  0
LINE
  5
134D
100
AcDbEntity
  8
10000_FRONT
370
    25
390
0
  6
CONTINUOUS
 62
     7
100
AcDbLine
 10
331.732282
 20
751.026015
 30
0.0
 11
331.763306
 21
751.192586
 31
0.0
  0
LINE
  5
134E
100
AcDbEntity
  8
10000_FRONT
370
    25
390
0
  6
CONTINUOUS
 62
     7
100
AcDbLine
 10
331.763306
 20
751.192586
 30
0.0
 11
331.802456
 21
751.358538
 31
0.0
  0
LINE
  5
134F
100
AcDbEntity
  8
10000_FRONT
370
    25
390
0
  6
CONTINUOUS
 62
     7
100
AcDbLine
 10
331.802456
 20
751.358538
 30
0.0
 11
331.849627
 21
751.523193
 31
0.0
  0
LINE
  5
1350
100
AcDbEntity
  8
10000_FRONT
370
    25
390
0
  6
CONTINUOUS
 62
     7
100
AcDbLine
 10
331.849627
 20
751.523193
 30
0.0
 11
331.904695
 21
751.685878
 31
0.0
  0
LINE
  5
1351
100
AcDbEntity
  8
10000_FRONT
370
    25
390
0
  6
CONTINUOUS
 62
     7
100
AcDbLine
 10
331.904695
 20
751.685878
 30
0.0
 11
331.967538
 21
751.845922
 31
0.0
  0
LINE
  5
1352
100
AcDbEntity
  8
10000_FRONT
370
    25
390
0
  6
CONTINUOUS
 62
     7
100
AcDbLine
 10
331.967538
 20
751.845922
 30
0.0
 11
332.038003
 21
752.002748
 31
0.0
  0
LINE
  5
1353
100
AcDbEntity
  8
10000_FRONT
370
    25
390
0
  6
CONTINUOUS
 62
     7
100
AcDbLine
 10
332.038003
 20
752.002748
 30
0.0
 11
332.115752
 21
752.155829
 31
0.0
  0
LINE
  5
1354
100
AcDbEntity
  8
10000_FRONT
370
    25
390
0
  6
CONTINUOUS
 62
     7
100
AcDbLine
 10
332.115752
 20
752.155829
 30
0.0
 11
332.200397
 21
752.304599
 31
0.0
  0
LINE
  5
1355
100
AcDbEntity
  8
10000_FRONT
370
    25
390
0
  6
CONTINUOUS
 62
     7
100
AcDbLine
 10
332.200397
 20
752.304599
 30
0.0
 11
332.291551
 21
752.448496
 31
0.0
  0
LINE
  5
1356
100
AcDbEntity
  8
10000_FRONT
370
    25
390
0
  6
CONTINUOUS
 62
     7
100
AcDbLine
 10
332.291551
 20
752.448496
 30
0.0
 11
332.388794
 21
752.586976
 31
0.0
  0
LINE
  5
1357
100
AcDbEntity
  8
10000_FRONT
370
    25
390
0
  6
CONTINUOUS
 62
     7
100
AcDbLine
 10
332.388794
 20
752.586976
 30
0.0
 11
332.491531
 21
752.719615
 31
0.0
  0
LINE
  5
1358
100
AcDbEntity
  8
10000_FRONT
370
    25
390
0
  6
CONTINUOUS
 62
     7
100
AcDbLine
 10
332.491531
 20
752.719615
 30
0.0
 11
332.599111
 21
752.846026
 31
0.0
  0
LINE
  5
1359
100
AcDbEntity
  8
10000_FRONT
370
    25
390
0
  6
CONTINUOUS
 62
     7
100
AcDbLine
 10
332.599111
 20
752.846026
 30
0.0
 11
332.710882
 21
752.965821
 31
0.0
  0
LINE
  5
135A
100
AcDbEntity
  8
10000_FRONT
370
    25
390
0
  6
CONTINUOUS
 62
     7
100
AcDbLine
 10
332.710882
 20
752.965821
 30
0.0
 11
332.827238
 21
753.079623
 31
0.0
  0
LINE
  5
135B
100
AcDbEntity
  8
10000_FRONT
370
    25
390
0
  6
CONTINUOUS
 62
     7
100
AcDbLine
 10
332.827238
 20
753.079623
 30
0.0
 11
332.950292
 21
753.18945
 31
0.0
  0
LINE
  5
135C
100
AcDbEntity
  8
10000_FRONT
370
    25
390
0
  6
CONTINUOUS
 62
     7
100
AcDbLine
 10
332.950292
 20
753.18945
 30
0.0
 11
333.07978
 21
753.294775
 31
0.0
  0
LINE
  5
135D
100
AcDbEntity
  8
10000_FRONT
370
    25
390
0
  6
CONTINUOUS
 62
     7
100
AcDbLine
 10
333.07978
 20
753.294775
 30
0.0
 11
333.215317
 21
753.394945
 31
0.0
  0
LINE
  5
135E
100
AcDbEntity
  8
10000_FRONT
370
    25
390
0
  6
CONTINUOUS
 62
     7
100
AcDbLine
 10
333.215317
 20
753.394945
 30
0.0
 11
333.356511
 21
753.489316
 31
0.0
  0
LINE
  5
135F
100
AcDbEntity
  8
10000_FRONT
370
    25
390
0
  6
CONTINUOUS
 62
     7
100
AcDbLine
 10
333.356511
 20
753.489316
 30
0.0
 11
333.502877
 21
753.577383
 31
0.0
  0
LINE
  5
1360
100
AcDbEntity
  8
10000_FRONT
370
    25
390
0
  6
CONTINUOUS
 62
     7
100
AcDbLine
 10
333.502877
 20
753.577383
 30
0.0
 11
333.653852
 21
753.658753
 31
0.0
  0
LINE
  5
1361
100
AcDbEntity
  8
10000_FRONT
370
    25
390
0
  6
CONTINUOUS
 62
     7
100
AcDbLine
 10
333.653852
 20
753.658753
 30
0.0
 11
333.808873
 21
753.733038
 31
0.0
  0
LINE
  5
1362
100
AcDbEntity
  8
10000_FRONT
370
    25
390
0
  6
CONTINUOUS
 62
     7
100
AcDbLine
 10
333.808873
 20
753.733038
 30
0.0
 11
333.967384
 21
753.799854
 31
0.0
  0
LINE
  5
1363
100
AcDbEntity
  8
10000_FRONT
370
    25
390
0
  6
CONTINUOUS
 62
     7
100
AcDbLine
 10
333.967384
 20
753.799854
 30
0.0
 11
334.128865
 21
753.858957
 31
0.0
  0
LINE
  5
1364
100
AcDbEntity
  8
10000_FRONT
370
    25
390
0
  6
CONTINUOUS
 62
     7
100
AcDbLine
 10
334.128865
 20
753.858957
 30
0.0
 11
334.292671
 21
753.91022
 31
0.0
  0
LINE
  5
1365
100
AcDbEntity
  8
10000_FRONT
370
    25
390
0
  6
CONTINUOUS
 62
     7
100
AcDbLine
 10
334.292671
 20
753.91022
 30
0.0
 11
334.458129
 21
753.953521
 31
0.0
  0
LINE
  5
1366
100
AcDbEntity
  8
10000_FRONT
370
    25
390
0
  6
CONTINUOUS
 62
     7
100
AcDbLine
 10
334.458129
 20
753.953521
 30
0.0
 11
334.624565
 21
753.988735
 31
0.0
  0
LINE
  5
1367
100
AcDbEntity
  8
10000_FRONT
370
    25
390
0
  6
CONTINUOUS
 62
     7
100
AcDbLine
 10
334.624565
 20
753.988735
 30
0.0
 11
334.791288
 21
754.015821
 31
0.0
  0
LINE
  5
1368
100
AcDbEntity
  8
10000_FRONT
370
    25
390
0
  6
CONTINUOUS
 62
     7
100
AcDbLine
 10
334.791288
 20
754.015821
 30
0.0
 11
334.957573
 21
754.034935
 31
0.0
  0
LINE
  5
1369
100
AcDbEntity
  8
10000_FRONT
370
    25
390
0
  6
CONTINUOUS
 62
     7
100
AcDbLine
 10
334.957573
 20
754.034935
 30
0.0
 11
335.122681
 21
754.046265
 31
0.0
  0
LINE
  5
136A
100
AcDbEntity
  8
10000_FRONT
370
    25
390
0
  6
CONTINUOUS
 62
     7
100
AcDbLine
 10
335.122681
 20
754.046265
 30
0.0
 11
335.285881
 21
754.05
 31
0.0
  0
LINE
  5
136B
100
AcDbEntity
  8
10000_FRONT
370
    25
390
0
  6
CONTINUOUS
 62
     7
100
AcDbLine
 10
330.785881
 20
809.95
 30
0.0
 11
330.885902
 21
809.95
 31
0.0
  0
LINE
  5
136C
100
AcDbEntity
  8
10000_FRONT
370
    25
390
0
  6
CONTINUOUS
 62
     7
100
AcDbLine
 10
353.385902
 20
809.95
 30
0.0
 11
353.485881
 21
809.95
 31
0.0
  0
LINE
  5
136D
100
AcDbEntity
  8
10000_FRONT
370
    25
390
0
  6
CONTINUOUS
 62
     7
100
AcDbLine
 10
353.485881
 20
800.350002
 30
0.0
 11
330.785881
 21
800.350002
 31
0.0
  0
LINE
  5
136E
100
AcDbEntity
  8
10000_FRONT
370
    25
390
0
  6
CONTINUOUS
 62
     7
100
AcDbLine
 10
330.785881
 20
800.350002
 30
0.0
 11
330.785881
 21
813.850002
 31
0.0
  0
LINE
  5
136F
100
AcDbEntity
  8
10000_FRONT
370
    25
390
0
  6
CONTINUOUS
 62
     7
100
AcDbLine
 10
330.785881
 20
813.850002
 30
0.0
 11
330.785881
 21
814.45
 31
0.0
  0
LINE
  5
1370
100
AcDbEntity
  8
10000_FRONT
370
    25
390
0
  6
CONTINUOUS
 62
     7
100
AcDbLine
 10
298.285881
 20
809.95
 30
0.0
 11
298.385902
 21
809.95
 31
0.0
  0
LINE
  5
1371
100
AcDbEntity
  8
10000_FRONT
370
    25
390
0
  6
CONTINUOUS
 62
     7
100
AcDbLine
 10
320.885902
 20
809.95
 30
0.0
 11
320.985881
 21
809.95
 31
0.0
  0
LINE
  5
1372
100
AcDbEntity
  8
10000_FRONT
370
    25
390
0
  6
CONTINUOUS
 62
     7
100
AcDbLine
 10
320.985881
 20
800.350002
 30
0.0
 11
298.285881
 21
800.350002
 31
0.0
  0
LINE
  5
1373
100
AcDbEntity
  8
10000_FRONT
370
    25
390
0
  6
CONTINUOUS
 62
     7
100
AcDbLine
 10
298.285881
 20
800.350002
 30
0.0
 11
298.285881
 21
813.850002
 31
0.0
  0
LINE
  5
1374
100
AcDbEntity
  8
10000_FRONT
370
    25
390
0
  6
CONTINUOUS
 62
     7
100
AcDbLine
 10
298.285881
 20
813.850002
 30
0.0
 11
298.285881
 21
814.45
 31
0.0
  0
LINE
  5
1375
100
AcDbEntity
  8
10000_FRONT
370
    25
390
0
  6
CONTINUOUS
 62
     7
100
AcDbLine
 10
353.485881
 20
813.850002
 30
0.0
 11
353.485881
 21
800.350002
 31
0.0
  0
LINE
  5
1376
100
AcDbEntity
  8
10000_FRONT
370
    25
390
0
  6
CONTINUOUS
 62
     7
100
AcDbLine
 10
353.485881
 20
814.45
 30
0.0
 11
353.485881
 21
813.850002
 31
0.0
  0
LINE
  5
1377
100
AcDbEntity
  8
10000_FRONT
370
    25
390
0
  6
CONTINUOUS
 62
     7
100
AcDbLine
 10
353.485881
 20
814.45
 30
0.0
 11
353.188764
 21
814.45
 31
0.0
  0
LINE
  5
1378
100
AcDbEntity
  8
10000_FRONT
370
    25
390
0
  6
CONTINUOUS
 62
     7
100
AcDbLine
 10
351.535902
 20
814.45
 30
0.0
 11
347.135902
 21
814.45
 31
0.0
  0
LINE
  5
1379
100
AcDbEntity
  8
10000_FRONT
370
    25
390
0
  6
CONTINUOUS
 62
     7
100
AcDbLine
 10
344.335903
 20
814.45
 30
0.0
 11
339.935902
 21
814.45
 31
0.0
  0
LINE
  5
137A
100
AcDbEntity
  8
10000_FRONT
370
    25
390
0
  6
CONTINUOUS
 62
     7
100
AcDbLine
 10
337.135902
 20
814.45
 30
0.0
 11
332.735902
 21
814.45
 31
0.0
  0
LINE
  5
137B
100
AcDbEntity
  8
10000_FRONT
370
    25
390
0
  6
CONTINUOUS
 62
     7
100
AcDbLine
 10
331.08304
 20
814.45
 30
0.0
 11
330.785881
 21
814.45
 31
0.0
  0
LINE
  5
137C
100
AcDbEntity
  8
10000_FRONT
370
    25
390
0
  6
CONTINUOUS
 62
     7
100
AcDbLine
 10
360.885881
 20
813.850002
 30
0.0
 11
353.485881
 21
813.850002
 31
0.0
  0
LINE
  5
137D
100
AcDbEntity
  8
10000_FRONT
370
    25
390
0
  6
CONTINUOUS
 62
     7
100
AcDbLine
 10
330.785881
 20
813.850002
 30
0.0
 11
320.985881
 21
813.850002
 31
0.0
  0
LINE
  5
137E
100
AcDbEntity
  8
10000_FRONT
370
    25
390
0
  6
CONTINUOUS
 62
     7
100
AcDbLine
 10
320.985881
 20
813.850002
 30
0.0
 11
320.985881
 21
800.350002
 31
0.0
  0
LINE
  5
137F
100
AcDbEntity
  8
10000_FRONT
370
    25
390
0
  6
CONTINUOUS
 62
     7
100
AcDbLine
 10
298.285881
 20
813.850002
 30
0.0
 11
290.885881
 21
813.850002
 31
0.0
  0
LINE
  5
1380
100
AcDbEntity
  8
10000_FRONT
370
    25
390
0
  6
CONTINUOUS
 62
     7
100
AcDbLine
 10
360.885881
 20
792.95
 30
0.0
 11
290.885881
 21
792.95
 31
0.0
  0
LINE
  5
1381
100
AcDbEntity
  8
10000_FRONT
370
    25
390
0
  6
CONTINUOUS
 62
     7
100
AcDbLine
 10
360.885881
 20
792.95
 30
0.0
 11
360.885881
 21
813.850002
 31
0.0
  0
LINE
  5
1382
100
AcDbEntity
  8
10000_FRONT
370
    25
390
0
  6
CONTINUOUS
 62
     7
100
AcDbLine
 10
330.785881
 20
814.45
 30
0.0
 11
320.985881
 21
814.45
 31
0.0
  0
LINE
  5
1383
100
AcDbEntity
  8
10000_FRONT
370
    25
390
0
  6
CONTINUOUS
 62
     7
100
AcDbLine
 10
360.885881
 20
814.45
 30
0.0
 11
353.485881
 21
814.45
 31
0.0
  0
LINE
  5
1384
100
AcDbEntity
  8
10000_FRONT
370
    25
390
0
  6
CONTINUOUS
 62
     7
100
AcDbLine
 10
320.985881
 20
814.45
 30
0.0
 11
320.985881
 21
813.850002
 31
0.0
  0
LINE
  5
1385
100
AcDbEntity
  8
10000_FRONT
370
    25
390
0
  6
CONTINUOUS
 62
     7
100
AcDbLine
 10
320.985881
 20
814.45
 30
0.0
 11
320.688764
 21
814.45
 31
0.0
  0
LINE
  5
1386
100
AcDbEntity
  8
10000_FRONT
370
    25
390
0
  6
CONTINUOUS
 62
     7
100
AcDbLine
 10
319.035902
 20
814.45
 30
0.0
 11
314.635902
 21
814.45
 31
0.0
  0
LINE
  5
1387
100
AcDbEntity
  8
10000_FRONT
370
    25
390
0
  6
CONTINUOUS
 62
     7
100
AcDbLine
 10
311.835902
 20
814.45
 30
0.0
 11
307.435901
 21
814.45
 31
0.0
  0
LINE
  5
1388
100
AcDbEntity
  8
10000_FRONT
370
    25
390
0
  6
CONTINUOUS
 62
     7
100
AcDbLine
 10
304.635902
 20
814.45
 30
0.0
 11
300.235902
 21
814.45
 31
0.0
  0
LINE
  5
1389
100
AcDbEntity
  8
10000_FRONT
370
    25
390
0
  6
CONTINUOUS
 62
     7
100
AcDbLine
 10
298.58304
 20
814.45
 30
0.0
 11
298.285881
 21
814.45
 31
0.0
  0
LINE
  5
138A
100
AcDbEntity
  8
10000_FRONT
370
    25
390
0
  6
CONTINUOUS
 62
     7
100
AcDbLine
 10
360.885881
 20
813.850002
 30
0.0
 11
360.885881
 21
814.45
 31
0.0
  0
LINE
  5
138B
100
AcDbEntity
  8
10000_FRONT
370
    25
390
0
  6
CONTINUOUS
 62
     7
100
AcDbLine
 10
298.285881
 20
814.45
 30
0.0
 11
290.885881
 21
814.45
 31
0.0
  0
LINE
  5
138C
100
AcDbEntity
  8
10000_FRONT
370
    25
390
0
  6
CONTINUOUS
 62
     7
100
AcDbLine
 10
360.885881
 20
818.95
 30
0.0
 11
290.885881
 21
818.95
 31
0.0
  0
LINE
  5
138D
100
AcDbEntity
  8
10000_FRONT
370
    25
390
0
  6
CONTINUOUS
 62
     7
100
AcDbLine
 10
360.885881
 20
817.95
 30
0.0
 11
360.885881
 21
818.95
 31
0.0
  0
LINE
  5
138E
100
AcDbEntity
  8
10000_FRONT
370
    25
390
0
  6
CONTINUOUS
 62
     7
100
AcDbLine
 10
360.885881
 20
817.95
 30
0.0
 11
290.885881
 21
817.95
 31
0.0
  0
LINE
  5
138F
100
AcDbEntity
  8
10000_FRONT
370
    25
390
0
  6
CONTINUOUS
 62
     7
100
AcDbLine
 10
360.885881
 20
814.45
 30
0.0
 11
360.885881
 21
817.95
 31
0.0
  0
LINE
  5
1390
100
AcDbEntity
  8
10000_FRONT
370
    25
390
0
  6
CONTINUOUS
 62
     7
100
AcDbLine
 10
360.885881
 20
792.749999
 30
0.0
 11
290.885881
 21
792.749999
 31
0.0
  0
LINE
  5
1391
100
AcDbEntity
  8
10000_FRONT
370
    25
390
0
  6
CONTINUOUS
 62
     7
100
AcDbLine
 10
360.885881
 20
792.749999
 30
0.0
 11
360.885881
 21
792.95
 31
0.0
  0
LINE
  5
1392
100
AcDbEntity
  8
10000_FRONT
370
    25
390
0
  6
CONTINUOUS
 62
     7
100
AcDbLine
 10
360.885881
 20
792.45
 30
0.0
 11
360.885881
 21
792.749999
 31
0.0
  0
LINE
  5
1393
100
AcDbEntity
  8
10000_FRONT
370
    25
390
0
  6
CONTINUOUS
 62
     7
100
AcDbLine
 10
360.885881
 20
792.45
 30
0.0
 11
290.885881
 21
792.45
 31
0.0
  0
LINE
  5
1394
100
AcDbEntity
  8
10000_FRONT
370
    25
390
0
  6
CONTINUOUS
 62
     7
100
AcDbLine
 10
360.885881
 20
792.249999
 30
0.0
 11
290.885881
 21
792.249999
 31
0.0
  0
LINE
  5
1395
100
AcDbEntity
  8
10000_FRONT
370
    25
390
0
  6
CONTINUOUS
 62
     7
100
AcDbLine
 10
360.885881
 20
792.249999
 30
0.0
 11
360.885881
 21
792.45
 31
0.0
  0
LINE
  5
1396
100
AcDbEntity
  8
10000_FRONT
370
    25
390
0
  6
CONTINUOUS
 62
     7
100
AcDbLine
 10
360.885881
 20
777.95
 30
0.0
 11
290.885881
 21
777.95
 31
0.0
  0
LINE
  5
1397
100
AcDbEntity
  8
10000_FRONT
370
    25
390
0
  6
CONTINUOUS
 62
     7
100
AcDbLine
 10
360.885881
 20
777.95
 30
0.0
 11
360.885881
 21
792.249999
 31
0.0
  0
LINE
  5
1398
100
AcDbEntity
  8
10000_FRONT
370
    25
390
0
  6
CONTINUOUS
 62
     7
100
AcDbLine
 10
360.885881
 20
732.95
 30
0.0
 11
290.885881
 21
732.95
 31
0.0
  0
LINE
  5
1399
100
AcDbEntity
  8
10000_FRONT
370
    25
390
0
  6
CONTINUOUS
 62
     7
100
AcDbLine
 10
360.885881
 20
732.95
 30
0.0
 11
360.885881
 21
777.95
 31
0.0
  0
LINE
  5
139A
100
AcDbEntity
  8
10000_FRONT
370
    25
390
0
  6
CONTINUOUS
 62
     7
100
AcDbLine
 10
360.885881
 20
705.049998
 30
0.0
 11
290.885881
 21
705.049998
 31
0.0
  0
LINE
  5
139B
100
AcDbEntity
  8
10000_FRONT
370
    25
390
0
  6
CONTINUOUS
 62
     7
100
AcDbLine
 10
360.885881
 20
705.049998
 30
0.0
 11
360.885881
 21
732.95
 31
0.0
  0
LINE
  5
139C
100
AcDbEntity
  8
10000_FRONT
370
    25
390
0
  6
CONTINUOUS
 62
     7
100
AcDbLine
 10
360.885881
 20
704.45
 30
0.0
 11
290.885881
 21
704.45
 31
0.0
  0
LINE
  5
139D
100
AcDbEntity
  8
10000_FRONT
370
    25
390
0
  6
CONTINUOUS
 62
     7
100
AcDbLine
 10
360.885881
 20
704.45
 30
0.0
 11
360.885881
 21
705.049998
 31
0.0
  0
LINE
  5
139E
100
AcDbEntity
  8
10000_FRONT
370
    25
390
0
  6
CONTINUOUS
 62
     7
100
AcDbLine
 10
360.885881
 20
700.949691
 30
0.0
 11
290.885881
 21
700.949691
 31
0.0
  0
LINE
  5
139F
100
AcDbEntity
  8
10000_FRONT
370
    25
390
0
  6
CONTINUOUS
 62
     7
100
AcDbLine
 10
360.885881
 20
700.949691
 30
0.0
 11
360.885881
 21
704.449908
 31
0.0
  0
LINE
  5
13A0
100
AcDbEntity
  8
10000_FRONT
370
    25
390
0
  6
CONTINUOUS
 62
     7
100
AcDbLine
 10
360.885881
 20
699.95
 30
0.0
 11
360.885881
 21
700.95
 31
0.0
  0
LINE
  5
13A1
100
AcDbEntity
  8
10000_FRONT
370
    25
390
0
  6
CONTINUOUS
 62
     7
100
AcDbLine
 10
360.885881
 20
844.45
 30
0.0
 11
360.885881
 21
836.050075
 31
0.0
  0
LINE
  5
13A2
100
AcDbEntity
  8
10000_FRONT
370
    25
390
0
  6
CONTINUOUS
 62
     7
100
AcDbLine
 10
360.885881
 20
682.850017
 30
0.0
 11
360.885881
 21
681.45
 31
0.0
  0
LINE
  5
13A3
100
AcDbEntity
  8
10000_FRONT
370
    25
390
0
  6
CONTINUOUS
 62
     7
100
AcDbLine
 10
360.885881
 20
681.450023
 30
0.0
 11
360.885881
 21
674.45
 31
0.0
  0
ARC
  5
13A4
100
AcDbEntity
  8
10000_FRONT
370
    25
390
0
  6
CONTINUOUS
 62
     7
100
AcDbCircle
 10
295.885881
 20
679.05
 30
0.0
 40
2.5
100
AcDbArc
 50
180.000035
 51
0.0
  0
ARC
  5
13A5
100
AcDbEntity
  8
10000_FRONT
370
    25
390
0
  6
CONTINUOUS
 62
     7
100
AcDbCircle
 10
355.885881
 20
839.85
 30
0.0
 40
2.5
100
AcDbArc
 50
180.0
 51
184.586882
  0
ARC
  5
13A6
100
AcDbEntity
  8
10000_FRONT
370
    25
390
0
  6
CONTINUOUS
 62
     7
100
AcDbCircle
 10
355.885881
 20
839.85
 30
0.0
 40
2.5
100
AcDbArc
 50
334.16168
 51
0.0
  0
ARC
  5
13A7
100
AcDbEntity
  8
10000_FRONT
370
    25
390
0
  6
CONTINUOUS
 62
     7
100
AcDbCircle
 10
326.635881
 20
676.15
 30
0.0
 40
2.5
100
AcDbArc
 50
359.99993
 51
90.0
  0
LINE
  5
13A8
100
AcDbEntity
  8
10000_FRONT
370
    25
390
0
  6
CONTINUOUS
 62
     7
100
AcDbLine
 10
329.135881
 20
674.45
 30
0.0
 11
329.135881
 21
675.049998
 31
0.0
  0
LINE
  5
13A9
100
AcDbEntity
  8
10000_FRONT
370
    25
390
0
  6
CONTINUOUS
 62
     7
100
AcDbLine
 10
329.135881
 20
676.149997
 30
0.0
 11
329.135881
 21
675.049998
 31
0.0
  0
ARC
  5
13AA
100
AcDbEntity
  8
10000_FRONT
370
    25
390
0
  6
CONTINUOUS
 62
     7
100
AcDbCircle
 10
325.135881
 20
676.15
 30
0.0
 40
2.5
100
AcDbArc
 50
90.0
 51
180.00007
  0
LINE
  5
13AB
100
AcDbEntity
  8
10000_FRONT
370
    25
390
0
  6
CONTINUOUS
 62
     7
100
AcDbLine
 10
325.135881
 20
678.649997
 30
0.0
 11
326.635881
 21
678.649997
 31
0.0
  0
LINE
  5
13AC
100
AcDbEntity
  8
10000_FRONT
370
    25
390
0
  6
CONTINUOUS
 62
     7
100
AcDbLine
 10
322.635881
 20
675.049998
 30
0.0
 11
322.635881
 21
676.149997
 31
0.0
  0
LINE
  5
13AD
100
AcDbEntity
  8
10000_FRONT
370
    25
390
0
  6
CONTINUOUS
 62
     7
100
AcDbLine
 10
322.635881
 20
674.45
 30
0.0
 11
322.635881
 21
675.049998
 31
0.0
  0
LINE
  5
13AE
100
AcDbEntity
  8
10000_FRONT
370
    25
390
0
  6
CONTINUOUS
 62
     7
100
AcDbLine
 10
322.635881
 20
674.45
 30
0.0
 11
290.885881
 21
674.45
 31
0.0
  0
LINE
  5
13AF
100
AcDbEntity
  8
10000_FRONT
370
    25
390
0
  6
CONTINUOUS
 62
     7
100
AcDbLine
 10
322.635881
 20
675.049998
 30
0.0
 11
290.885881
 21
675.049998
 31
0.0
  0
LINE
  5
13B0
100
AcDbEntity
  8
10000_FRONT
370
    25
390
0
  6
CONTINUOUS
 62
     7
100
AcDbLine
 10
290.885881
 20
674.45
 30
0.0
 11
290.885881
 21
675.049998
 31
0.0
  0
LINE
  5
13B1
100
AcDbEntity
  8
10000_FRONT
370
    25
390
0
  6
CONTINUOUS
 62
     7
100
AcDbLine
 10
345.885881
 20
675.049998
 30
0.0
 11
329.135881
 21
675.049998
 31
0.0
  0
LINE
  5
13B2
100
AcDbEntity
  8
10000_FRONT
370
    25
390
0
  6
CONTINUOUS
 62
     7
100
AcDbLine
 10
345.885881
 20
674.45
 30
0.0
 11
329.135881
 21
674.45
 31
0.0
  0
LINE
  5
13B3
100
AcDbEntity
  8
10000_FRONT
370
    25
390
0
  6
CONTINUOUS
 62
     7
100
AcDbLine
 10
360.885881
 20
674.45
 30
0.0
 11
345.885881
 21
674.45
 31
0.0
  0
LINE
  5
13B4
100
AcDbEntity
  8
10000_FRONT
370
    25
390
0
  6
CONTINUOUS
 62
     7
100
AcDbLine
 10
345.885881
 20
674.45
 30
0.0
 11
345.885881
 21
679.250041
 31
0.0
  0
LINE
  5
13B5
100
AcDbEntity
  8
10000_FRONT
370
    25
390
0
  6
CONTINUOUS
 62
     7
100
AcDbLine
 10
290.885881
 20
681.450038
 30
0.0
 11
290.885881
 21
675.049998
 31
0.0
  0
ARC
  5
13B6
100
AcDbEntity
  8
10000_FRONT
370
    25
390
0
  6
CONTINUOUS
 62
     7
100
AcDbCircle
 10
295.885881
 20
679.05
 30
0.0
 40
2.5
100
AcDbArc
 50
154.154486
 51
180.0
  0
ARC
  5
13B7
100
AcDbEntity
  8
10000_FRONT
370
    25
390
0
  6
CONTINUOUS
 62
     7
100
AcDbCircle
 10
295.885881
 20
679.05
 30
0.0
 40
2.5
100
AcDbArc
 50
0.0
 51
4.589862
  0
LINE
  5
13B8
100
AcDbEntity
  8
10000_FRONT
370
    25
390
0
  6
CONTINUOUS
 62
     7
100
AcDbLine
 10
349.885881
 20
839.650073
 30
0.0
 11
349.885881
 21
843.850002
 31
0.0
  0
LINE
  5
13B9
100
AcDbEntity
  8
10000_FRONT
370
    25
390
0
  6
CONTINUOUS
 62
     7
100
AcDbLine
 10
349.885881
 20
843.850002
 30
0.0
 11
349.885881
 21
844.45
 31
0.0
  0
LINE
  5
13BA
100
AcDbEntity
  8
10000_FRONT
370
    25
390
0
  6
CONTINUOUS
 62
     7
100
AcDbLine
 10
349.885881
 20
844.45
 30
0.0
 11
360.885881
 21
844.45
 31
0.0
  0
ARC
  5
13BB
100
AcDbEntity
  8
10000_FRONT
370
    25
390
0
  6
CONTINUOUS
 62
     7
100
AcDbCircle
 10
355.885881
 20
839.85
 30
0.0
 40
2.5
100
AcDbArc
 50
0.0
 51
179.999965
  0
LINE
  5
13BC
100
AcDbEntity
  8
10000_FRONT
370
    25
390
0
  6
CONTINUOUS
 62
     7
100
AcDbLine
 10
290.885881
 20
832.95
 30
0.0
 11
290.885881
 21
832.45
 31
0.0
  0
LINE
  5
13BD
100
AcDbEntity
  8
10000_FRONT
370
    25
390
0
  6
CONTINUOUS
 62
     7
100
AcDbLine
 10
349.885881
 20
843.850002
 30
0.0
 11
290.885881
 21
843.850002
 31
0.0
  0
LINE
  5
13BE
100
AcDbEntity
  8
10000_FRONT
370
    25
390
0
  6
CONTINUOUS
 62
     7
100
AcDbLine
 10
290.885881
 20
843.850002
 30
0.0
 11
290.885881
 21
832.95
 31
0.0
  0
LINE
  5
13BF
100
AcDbEntity
  8
10000_FRONT
370
    25
390
0
  6
CONTINUOUS
 62
     7
100
AcDbLine
 10
349.885881
 20
844.45
 30
0.0
 11
290.885881
 21
844.45
 31
0.0
  0
LINE
  5
13C0
100
AcDbEntity
  8
10000_FRONT
370
    25
390
0
  6
CONTINUOUS
 62
     7
100
AcDbLine
 10
290.885881
 20
843.850002
 30
0.0
 11
290.885881
 21
844.45
 31
0.0
  0
LINE
  5
13C1
100
AcDbEntity
  8
10000_FRONT
370
    25
390
0
  6
CONTINUOUS
 62
     7
100
AcDbLine
 10
290.885881
 20
832.45
 30
0.0
 11
290.885881
 21
818.95
 31
0.0
  0
LINE
  5
13C2
100
AcDbEntity
  8
10000_FRONT
370
    25
390
0
  6
CONTINUOUS
 62
     7
100
AcDbLine
 10
290.885881
 20
818.95
 30
0.0
 11
290.885881
 21
699.95
 31
0.0
  0
LINE
  5
13C3
100
AcDbEntity
  8
10000_FRONT
370
    25
390
0
  6
CONTINUOUS
 62
     7
100
AcDbLine
 10
290.885881
 20
699.95
 30
0.0
 11
290.885881
 21
681.45
 31
0.0
  0
LINE
  5
13C4
100
AcDbEntity
  8
10000_FRONT
370
    25
390
0
  6
CONTINUOUS
 62
     7
100
AcDbLine
 10
360.885881
 20
681.45
 30
0.0
 11
358.135912
 21
681.45
 31
0.0
  0
LINE
  5
13C5
100
AcDbEntity
  8
10000_FRONT
370
    25
390
0
  6
CONTINUOUS
 62
     7
100
AcDbLine
 10
341.585911
 20
681.45
 30
0.0
 11
332.685911
 21
681.45
 31
0.0
  0
LINE
  5
13C6
100
AcDbEntity
  8
10000_FRONT
370
    25
390
0
  6
CONTINUOUS
 62
     7
100
AcDbLine
 10
319.085911
 20
681.45
 30
0.0
 11
310.185911
 21
681.45
 31
0.0
  0
LINE
  5
13C7
100
AcDbEntity
  8
10000_FRONT
370
    25
390
0
  6
CONTINUOUS
 62
     7
100
AcDbLine
 10
293.635912
 20
681.45
 30
0.0
 11
290.885881
 21
681.45
 31
0.0
  0
LINE
  5
13C8
100
AcDbEntity
  8
10100_FRONT_DIM
370
    13
390
0
  6
CONTINUOUS
 62
     7
100
AcDbLine
 10
290.885871
 20
674.45
 30
0.0
 11
279.885871
 21
674.45
 31
0.0
  0
TEXT
  5
13C9
100
AcDbEntity
  8
10100_FRONT_DIM
370
    13
390
0
  6
CONTINUOUS
 62
     7
100
AcDbText
 10
279.885871
 20
757.283333
 30
0.0
 40
2.0
  1
170
 50
90.0
 51
360.0
 72
     1
 11
279.885871
 21
759.45
 31
0.0
100
AcDbText
  0
LINE
  5
13CA
100
AcDbEntity
  8
10100_FRONT_DIM
370
    13
390
0
  6
CONTINUOUS
 62
     7
100
AcDbLine
 10
280.885871
 20
674.45
 30
0.0
 11
280.885871
 21
844.45
 31
0.0
  0
LINE
  5
13CB
100
AcDbEntity
  8
10100_FRONT_DIM
370
    13
390
0
  6
CONTINUOUS
 62
     7
100
AcDbLine
 10
279.885871
 20
844.45
 30
0.0
 11
290.885871
 21
844.45
 31
0.0
  0
LINE
  5
13CC
100
AcDbEntity
  8
10100_FRONT_DIM
370
    13
390
0
  6
CONTINUOUS
 62
     7
100
AcDbLine
 10
290.885881
 20
844.45001
 30
0.0
 11
290.885881
 21
855.45001
 31
0.0
  0
TEXT
  5
13CD
100
AcDbEntity
  8
10100_FRONT_DIM
370
    13
390
0
  6
CONTINUOUS
 62
     7
100
AcDbText
 10
324.385881
 20
855.45001
 30
0.0
 40
2.0
  1
70
 72
     1
 11
325.885881
 21
855.45001
 31
0.0
100
AcDbText
  0
LINE
  5
13CE
100
AcDbEntity
  8
10100_FRONT_DIM
370
    13
390
0
  6
CONTINUOUS
 62
     7
100
AcDbLine
 10
290.885881
 20
854.45001
 30
0.0
 11
360.885881
 21
854.45001
 31
0.0
  0
LINE
  5
13CF
100
AcDbEntity
  8
10100_FRONT_DIM
370
    13
390
0
  6
CONTINUOUS
 62
     7
100
AcDbLine
 10
360.885881
 20
855.45001
 30
0.0
 11
360.885881
 21
844.45001
 31
0.0
  0
SOLID
  5
13D0
100
AcDbEntity
  8
10100_FRONT_DIM
370
    13
390
0
  6
CONTINUOUS
 62
     7
100
AcDbTrace
 10
279.885871
 20
679.45
 30
0.0
 11
280.885871
 21
674.45
 31
0.0
 12
281.885871
 22
679.45
 32
0.0
 13
280.885871
 23
674.45
 33
0.0
  0
SOLID
  5
13D1
100
AcDbEntity
  8
10100_FRONT_DIM
370
    13
390
0
  6
CONTINUOUS
 62
     7
100
AcDbTrace
 10
281.885871
 20
839.45
 30
0.0
 11
280.885871
 21
844.45
 31
0.0
 12
279.885871
 22
839.45
 32
0.0
 13
280.885871
 23
844.45
 33
0.0
  0
SOLID
  5
13D2
100
AcDbEntity
  8
10100_FRONT_DIM
370
    13
390
0
  6
CONTINUOUS
 62
     7
100
AcDbTrace
 10
295.885881
 20
855.45001
 30
0.0
 11
290.885881
 21
854.45001
 31
0.0
 12
295.885881
 22
853.45001
 32
0.0
 13
290.885881
 23
854.45001
 33
0.0
  0
SOLID
  5
13D3
100
AcDbEntity
  8
10100_FRONT_DIM
370
    13
390
0
  6
CONTINUOUS
 62
     7
100
AcDbTrace
 10
355.885881
 20
853.45001
 30
0.0
 11
360.885881
 21
854.45001
 31
0.0
 12
355.885881
 22
855.45001
 32
0.0
 13
360.885881
 23
854.45001
 33
0.0
  0
LINE
  5
13D4
100
AcDbEntity
  8
11000_LEFT
370
    25
390
0
  6
CONTINUOUS
 62
     7
100
AcDbLine
 10
528.52131
 20
679.249988
 30
0.0
 11
528.520723
 21
679.250484
 31
0.0
  0
LINE
  5
13D5
100
AcDbEntity
  8
11000_LEFT
370
    25
390
0
  6
CONTINUOUS
 62
     7
100
AcDbLine
 10
528.520723
 20
679.250484
 30
0.0
 11
528.519029
 21
679.251971
 31
0.0
  0
LINE
  5
13D6
100
AcDbEntity
  8
11000_LEFT
370
    25
390
0
  6
CONTINUOUS
 62
     7
100
AcDbLine
 10
528.519029
 20
679.251971
 30
0.0
 11
528.51629
 21
679.254436
 31
0.0
  0
LINE
  5
13D7
100
AcDbEntity
  8
11000_LEFT
370
    25
390
0
  6
CONTINUOUS
 62
     7
100
AcDbLine
 10
528.51629
 20
679.254436
 30
0.0
 11
528.512575
 21
679.257877
 31
0.0
  0
LINE
  5
13D8
100
AcDbEntity
  8
11000_LEFT
370
    25
390
0
  6
CONTINUOUS
 62
     7
100
AcDbLine
 10
528.512575
 20
679.257877
 30
0.0
 11
528.507974
 21
679.262279
 31
0.0
  0
LINE
  5
13D9
100
AcDbEntity
  8
11000_LEFT
370
    25
390
0
  6
CONTINUOUS
 62
     7
100
AcDbLine
 10
528.507974
 20
679.262279
 30
0.0
 11
528.502542
 21
679.267642
 31
0.0
  0
LINE
  5
13DA
100
AcDbEntity
  8
11000_LEFT
370
    25
390
0
  6
CONTINUOUS
 62
     7
100
AcDbLine
 10
528.502542
 20
679.267642
 30
0.0
 11
528.496416
 21
679.273944
 31
0.0
  0
LINE
  5
13DB
100
AcDbEntity
  8
11000_LEFT
370
    25
390
0
  6
CONTINUOUS
 62
     7
100
AcDbLine
 10
528.496416
 20
679.273944
 30
0.0
 11
528.489778
 21
679.281116
 31
0.0
  0
LINE
  5
13DC
100
AcDbEntity
  8
11000_LEFT
370
    25
390
0
  6
CONTINUOUS
 62
     7
100
AcDbLine
 10
528.489778
 20
679.281116
 30
0.0
 11
528.482759
 21
679.289073
 31
0.0
  0
LINE
  5
13DD
100
AcDbEntity
  8
11000_LEFT
370
    25
390
0
  6
CONTINUOUS
 62
     7
100
AcDbLine
 10
528.482759
 20
679.289073
 30
0.0
 11
528.475511
 21
679.297733
 31
0.0
  0
LINE
  5
13DE
100
AcDbEntity
  8
11000_LEFT
370
    25
390
0
  6
CONTINUOUS
 62
     7
100
AcDbLine
 10
528.475511
 20
679.297733
 30
0.0
 11
528.468172
 21
679.307002
 31
0.0
  0
LINE
  5
13DF
100
AcDbEntity
  8
11000_LEFT
370
    25
390
0
  6
CONTINUOUS
 62
     7
100
AcDbLine
 10
528.468172
 20
679.307002
 30
0.0
 11
528.460886
 21
679.316806
 31
0.0
  0
LINE
  5
13E0
100
AcDbEntity
  8
11000_LEFT
370
    25
390
0
  6
CONTINUOUS
 62
     7
100
AcDbLine
 10
528.460886
 20
679.316806
 30
0.0
 11
528.453661
 21
679.327228
 31
0.0
  0
LINE
  5
13E1
100
AcDbEntity
  8
11000_LEFT
370
    25
390
0
  6
CONTINUOUS
 62
     7
100
AcDbLine
 10
528.453661
 20
679.327228
 30
0.0
 11
528.446329
 21
679.338596
 31
0.0
  0
LINE
  5
13E2
100
AcDbEntity
  8
11000_LEFT
370
    25
390
0
  6
CONTINUOUS
 62
     7
100
AcDbLine
 10
528.446329
 20
679.338596
 30
0.0
 11
528.438997
 21
679.350871
 31
0.0
  0
LINE
  5
13E3
100
AcDbEntity
  8
11000_LEFT
370
    25
390
0
  6
CONTINUOUS
 62
     7
100
AcDbLine
 10
528.438997
 20
679.350871
 30
0.0
 11
528.431772
 21
679.364017
 31
0.0
  0
LINE
  5
13E4
100
AcDbEntity
  8
11000_LEFT
370
    25
390
0
  6
CONTINUOUS
 62
     7
100
AcDbLine
 10
528.431772
 20
679.364017
 30
0.0
 11
528.424768
 21
679.377994
 31
0.0
  0
LINE
  5
13E5
100
AcDbEntity
  8
11000_LEFT
370
    25
390
0
  6
CONTINUOUS
 62
     7
100
AcDbLine
 10
528.424768
 20
679.377994
 30
0.0
 11
528.418077
 21
679.392757
 31
0.0
  0
LINE
  5
13E6
100
AcDbEntity
  8
11000_LEFT
370
    25
390
0
  6
CONTINUOUS
 62
     7
100
AcDbLine
 10
528.418077
 20
679.392757
 30
0.0
 11
528.411829
 21
679.408282
 31
0.0
  0
LINE
  5
13E7
100
AcDbEntity
  8
11000_LEFT
370
    25
390
0
  6
CONTINUOUS
 62
     7
100
AcDbLine
 10
528.411829
 20
679.408282
 30
0.0
 11
528.406114
 21
679.424487
 31
0.0
  0
LINE
  5
13E8
100
AcDbEntity
  8
11000_LEFT
370
    25
390
0
  6
CONTINUOUS
 62
     7
100
AcDbLine
 10
528.406114
 20
679.424487
 30
0.0
 11
528.401002
 21
679.441272
 31
0.0
  0
LINE
  5
13E9
100
AcDbEntity
  8
11000_LEFT
370
    25
390
0
  6
CONTINUOUS
 62
     7
100
AcDbLine
 10
528.401002
 20
679.441272
 30
0.0
 11
528.396539
 21
679.458537
 31
0.0
  0
LINE
  5
13EA
100
AcDbEntity
  8
11000_LEFT
370
    25
390
0
  6
CONTINUOUS
 62
     7
100
AcDbLine
 10
528.396539
 20
679.458537
 30
0.0
 11
528.392801
 21
679.476169
 31
0.0
  0
LINE
  5
13EB
100
AcDbEntity
  8
11000_LEFT
370
    25
390
0
  6
CONTINUOUS
 62
     7
100
AcDbLine
 10
528.392801
 20
679.476169
 30
0.0
 11
528.389825
 21
679.494067
 31
0.0
  0
LINE
  5
13EC
100
AcDbEntity
  8
11000_LEFT
370
    25
390
0
  6
CONTINUOUS
 62
     7
100
AcDbLine
 10
528.389825
 20
679.494067
 30
0.0
 11
528.387682
 21
679.512134
 31
0.0
  0
LINE
  5
13ED
100
AcDbEntity
  8
11000_LEFT
370
    25
390
0
  6
CONTINUOUS
 62
     7
100
AcDbLine
 10
528.387682
 20
679.512134
 30
0.0
 11
528.386377
 21
679.53075
 31
0.0
  0
LINE
  5
13EE
100
AcDbEntity
  8
11000_LEFT
370
    25
390
0
  6
CONTINUOUS
 62
     7
100
AcDbLine
 10
528.386377
 20
679.53075
 30
0.0
 11
528.385881
 21
679.549991
 31
0.0
  0
LINE
  5
13EF
100
AcDbEntity
  8
11000_LEFT
370
    25
390
0
  6
CONTINUOUS
 62
     7
100
AcDbLine
 10
528.52131
 20
679.249988
 30
0.0
 11
545.450456
 21
679.249988
 31
0.0
  0
LINE
  5
13F0
100
AcDbEntity
  8
11000_LEFT
370
    25
390
0
  6
CONTINUOUS
 62
     7
100
AcDbLine
 10
528.385881
 20
682.849994
 30
0.0
 11
503.385881
 21
682.849994
 31
0.0
  0
LINE
  5
13F1
100
AcDbEntity
  8
11000_LEFT
370
    25
390
0
  6
CONTINUOUS
 62
     7
100
AcDbLine
 10
528.385881
 20
682.849986
 30
0.0
 11
545.984064
 21
682.849986
 31
0.0
  0
LINE
  5
13F2
100
AcDbEntity
  8
11000_LEFT
370
    25
390
0
  6
CONTINUOUS
 62
     7
100
AcDbLine
 10
528.385881
 20
682.449992
 30
0.0
 11
528.385881
 21
682.849986
 31
0.0
  0
LINE
  5
13F3
100
AcDbEntity
  8
11000_LEFT
370
    25
390
0
  6
CONTINUOUS
 62
     7
100
AcDbLine
 10
528.385881
 20
682.449992
 30
0.0
 11
545.585878
 21
682.449992
 31
0.0
  0
LINE
  5
13F4
100
AcDbEntity
  8
11000_LEFT
370
    25
390
0
  6
CONTINUOUS
 62
     7
100
AcDbLine
 10
545.984064
 20
682.849986
 30
0.0
 11
545.972055
 21
682.849757
 31
0.0
  0
LINE
  5
13F5
100
AcDbEntity
  8
11000_LEFT
370
    25
390
0
  6
CONTINUOUS
 62
     7
100
AcDbLine
 10
545.972055
 20
682.849757
 30
0.0
 11
545.958086
 21
682.849025
 31
0.0
  0
LINE
  5
13F6
100
AcDbEntity
  8
11000_LEFT
370
    25
390
0
  6
CONTINUOUS
 62
     7
100
AcDbLine
 10
545.958086
 20
682.849025
 30
0.0
 11
545.942857
 21
682.847667
 31
0.0
  0
LINE
  5
13F7
100
AcDbEntity
  8
11000_LEFT
370
    25
390
0
  6
CONTINUOUS
 62
     7
100
AcDbLine
 10
545.942857
 20
682.847667
 30
0.0
 11
545.926622
 21
682.845576
 31
0.0
  0
LINE
  5
13F8
100
AcDbEntity
  8
11000_LEFT
370
    25
390
0
  6
CONTINUOUS
 62
     7
100
AcDbLine
 10
545.926622
 20
682.845576
 30
0.0
 11
545.909608
 21
682.842632
 31
0.0
  0
LINE
  5
13F9
100
AcDbEntity
  8
11000_LEFT
370
    25
390
0
  6
CONTINUOUS
 62
     7
100
AcDbLine
 10
545.909608
 20
682.842632
 30
0.0
 11
545.891664
 21
682.838702
 31
0.0
  0
LINE
  5
13FA
100
AcDbEntity
  8
11000_LEFT
370
    25
390
0
  6
CONTINUOUS
 62
     7
100
AcDbLine
 10
545.891664
 20
682.838702
 30
0.0
 11
545.873155
 21
682.833766
 31
0.0
  0
LINE
  5
13FB
100
AcDbEntity
  8
11000_LEFT
370
    25
390
0
  6
CONTINUOUS
 62
     7
100
AcDbLine
 10
545.873155
 20
682.833766
 30
0.0
 11
545.854425
 21
682.827777
 31
0.0
  0
LINE
  5
13FC
100
AcDbEntity
  8
11000_LEFT
370
    25
390
0
  6
CONTINUOUS
 62
     7
100
AcDbLine
 10
545.854425
 20
682.827777
 30
0.0
 11
545.835466
 21
682.820598
 31
0.0
  0
LINE
  5
13FD
100
AcDbEntity
  8
11000_LEFT
370
    25
390
0
  6
CONTINUOUS
 62
     7
100
AcDbLine
 10
545.835466
 20
682.820598
 30
0.0
 11
545.816171
 21
682.812091
 31
0.0
  0
LINE
  5
13FE
100
AcDbEntity
  8
11000_LEFT
370
    25
390
0
  6
CONTINUOUS
 62
     7
100
AcDbLine
 10
545.816171
 20
682.812091
 30
0.0
 11
545.796709
 21
682.802257
 31
0.0
  0
LINE
  5
13FF
100
AcDbEntity
  8
11000_LEFT
370
    25
390
0
  6
CONTINUOUS
 62
     7
100
AcDbLine
 10
545.796709
 20
682.802257
 30
0.0
 11
545.777261
 21
682.79108
 31
0.0
  0
LINE
  5
1400
100
AcDbEntity
  8
11000_LEFT
370
    25
390
0
  6
CONTINUOUS
 62
     7
100
AcDbLine
 10
545.777261
 20
682.79108
 30
0.0
 11
545.757982
 21
682.778537
 31
0.0
  0
LINE
  5
1401
100
AcDbEntity
  8
11000_LEFT
370
    25
390
0
  6
CONTINUOUS
 62
     7
100
AcDbLine
 10
545.757982
 20
682.778537
 30
0.0
 11
545.739046
 21
682.764636
 31
0.0
  0
LINE
  5
1402
100
AcDbEntity
  8
11000_LEFT
370
    25
390
0
  6
CONTINUOUS
 62
     7
100
AcDbLine
 10
545.739046
 20
682.764636
 30
0.0
 11
545.720621
 21
682.749347
 31
0.0
  0
LINE
  5
1403
100
AcDbEntity
  8
11000_LEFT
370
    25
390
0
  6
CONTINUOUS
 62
     7
100
AcDbLine
 10
545.720621
 20
682.749347
 30
0.0
 11
545.702875
 21
682.732677
 31
0.0
  0
LINE
  5
1404
100
AcDbEntity
  8
11000_LEFT
370
    25
390
0
  6
CONTINUOUS
 62
     7
100
AcDbLine
 10
545.702875
 20
682.732677
 30
0.0
 11
545.685686
 21
682.714297
 31
0.0
  0
LINE
  5
1405
100
AcDbEntity
  8
11000_LEFT
370
    25
390
0
  6
CONTINUOUS
 62
     7
100
AcDbLine
 10
545.685686
 20
682.714297
 30
0.0
 11
545.669046
 21
682.694019
 31
0.0
  0
LINE
  5
1406
100
AcDbEntity
  8
11000_LEFT
370
    25
390
0
  6
CONTINUOUS
 62
     7
100
AcDbLine
 10
545.669046
 20
682.694019
 30
0.0
 11
545.653238
 21
682.671977
 31
0.0
  0
LINE
  5
1407
100
AcDbEntity
  8
11000_LEFT
370
    25
390
0
  6
CONTINUOUS
 62
     7
100
AcDbLine
 10
545.653238
 20
682.671977
 30
0.0
 11
545.638551
 21
682.648273
 31
0.0
  0
LINE
  5
1408
100
AcDbEntity
  8
11000_LEFT
370
    25
390
0
  6
CONTINUOUS
 62
     7
100
AcDbLine
 10
545.638551
 20
682.648273
 30
0.0
 11
545.625253
 21
682.623027
 31
0.0
  0
LINE
  5
1409
100
AcDbEntity
  8
11000_LEFT
370
    25
390
0
  6
CONTINUOUS
 62
     7
100
AcDbLine
 10
545.625253
 20
682.623027
 30
0.0
 11
545.613626
 21
682.59637
 31
0.0
  0
LINE
  5
140A
100
AcDbEntity
  8
11000_LEFT
370
    25
390
0
  6
CONTINUOUS
 62
     7
100
AcDbLine
 10
545.613626
 20
682.59637
 30
0.0
 11
545.603845
 21
682.568492
 31
0.0
  0
LINE
  5
140B
100
AcDbEntity
  8
11000_LEFT
370
    25
390
0
  6
CONTINUOUS
 62
     7
100
AcDbLine
 10
545.603845
 20
682.568492
 30
0.0
 11
545.596056
 21
682.539645
 31
0.0
  0
LINE
  5
140C
100
AcDbEntity
  8
11000_LEFT
370
    25
390
0
  6
CONTINUOUS
 62
     7
100
AcDbLine
 10
545.596056
 20
682.539645
 30
0.0
 11
545.590425
 21
682.510089
 31
0.0
  0
LINE
  5
140D
100
AcDbEntity
  8
11000_LEFT
370
    25
390
0
  6
CONTINUOUS
 62
     7
100
AcDbLine
 10
545.590425
 20
682.510089
 30
0.0
 11
545.587022
 21
682.480098
 31
0.0
  0
LINE
  5
140E
100
AcDbEntity
  8
11000_LEFT
370
    25
390
0
  6
CONTINUOUS
 62
     7
100
AcDbLine
 10
545.587022
 20
682.480098
 30
0.0
 11
545.585878
 21
682.449992
 31
0.0
  0
LINE
  5
140F
100
AcDbEntity
  8
11000_LEFT
370
    25
390
0
  6
CONTINUOUS
 62
     7
100
AcDbLine
 10
528.385881
 20
679.649989
 30
0.0
 11
528.385881
 21
682.449992
 31
0.0
  0
LINE
  5
1410
100
AcDbEntity
  8
11000_LEFT
370
    25
390
0
  6
CONTINUOUS
 62
     7
100
AcDbLine
 10
528.385881
 20
679.649989
 30
0.0
 11
545.585878
 21
679.649989
 31
0.0
  0
LINE
  5
1411
100
AcDbEntity
  8
11000_LEFT
370
    25
390
0
  6
CONTINUOUS
 62
     7
100
AcDbLine
 10
545.585878
 20
682.449992
 30
0.0
 11
545.585878
 21
679.649989
 31
0.0
  0
LINE
  5
1412
100
AcDbEntity
  8
11000_LEFT
370
    25
390
0
  6
CONTINUOUS
 62
     7
100
AcDbLine
 10
528.385881
 20
679.549991
 30
0.0
 11
528.385881
 21
679.649989
 31
0.0
  0
LINE
  5
1413
100
AcDbEntity
  8
11000_LEFT
370
    25
390
0
  6
CONTINUOUS
 62
     7
100
AcDbLine
 10
545.585878
 20
679.549991
 30
0.0
 11
545.58539
 21
679.530757
 31
0.0
  0
LINE
  5
1414
100
AcDbEntity
  8
11000_LEFT
370
    25
390
0
  6
CONTINUOUS
 62
     7
100
AcDbLine
 10
545.58539
 20
679.530757
 30
0.0
 11
545.584085
 21
679.512134
 31
0.0
  0
LINE
  5
1415
100
AcDbEntity
  8
11000_LEFT
370
    25
390
0
  6
CONTINUOUS
 62
     7
100
AcDbLine
 10
545.584085
 20
679.512134
 30
0.0
 11
545.581941
 21
679.494067
 31
0.0
  0
LINE
  5
1416
100
AcDbEntity
  8
11000_LEFT
370
    25
390
0
  6
CONTINUOUS
 62
     7
100
AcDbLine
 10
545.581941
 20
679.494067
 30
0.0
 11
545.578966
 21
679.476169
 31
0.0
  0
LINE
  5
1417
100
AcDbEntity
  8
11000_LEFT
370
    25
390
0
  6
CONTINUOUS
 62
     7
100
AcDbLine
 10
545.578966
 20
679.476169
 30
0.0
 11
545.57522
 21
679.458537
 31
0.0
  0
LINE
  5
1418
100
AcDbEntity
  8
11000_LEFT
370
    25
390
0
  6
CONTINUOUS
 62
     7
100
AcDbLine
 10
545.57522
 20
679.458537
 30
0.0
 11
545.570764
 21
679.441272
 31
0.0
  0
LINE
  5
1419
100
AcDbEntity
  8
11000_LEFT
370
    25
390
0
  6
CONTINUOUS
 62
     7
100
AcDbLine
 10
545.570764
 20
679.441272
 30
0.0
 11
545.565645
 21
679.424487
 31
0.0
  0
LINE
  5
141A
100
AcDbEntity
  8
11000_LEFT
370
    25
390
0
  6
CONTINUOUS
 62
     7
100
AcDbLine
 10
545.565645
 20
679.424487
 30
0.0
 11
545.55993
 21
679.408282
 31
0.0
  0
LINE
  5
141B
100
AcDbEntity
  8
11000_LEFT
370
    25
390
0
  6
CONTINUOUS
 62
     7
100
AcDbLine
 10
545.55993
 20
679.408282
 30
0.0
 11
545.553682
 21
679.392764
 31
0.0
  0
LINE
  5
141C
100
AcDbEntity
  8
11000_LEFT
370
    25
390
0
  6
CONTINUOUS
 62
     7
100
AcDbLine
 10
545.553682
 20
679.392764
 30
0.0
 11
545.546999
 21
679.377994
 31
0.0
  0
LINE
  5
141D
100
AcDbEntity
  8
11000_LEFT
370
    25
390
0
  6
CONTINUOUS
 62
     7
100
AcDbLine
 10
545.546999
 20
679.377994
 30
0.0
 11
545.539987
 21
679.364017
 31
0.0
  0
LINE
  5
141E
100
AcDbEntity
  8
11000_LEFT
370
    25
390
0
  6
CONTINUOUS
 62
     7
100
AcDbLine
 10
545.539987
 20
679.364017
 30
0.0
 11
545.532762
 21
679.350871
 31
0.0
  0
LINE
  5
141F
100
AcDbEntity
  8
11000_LEFT
370
    25
390
0
  6
CONTINUOUS
 62
     7
100
AcDbLine
 10
545.532762
 20
679.350871
 30
0.0
 11
545.52543
 21
679.338596
 31
0.0
  0
LINE
  5
1420
100
AcDbEntity
  8
11000_LEFT
370
    25
390
0
  6
CONTINUOUS
 62
     7
100
AcDbLine
 10
545.52543
 20
679.338596
 30
0.0
 11
545.518106
 21
679.327228
 31
0.0
  0
LINE
  5
1421
100
AcDbEntity
  8
11000_LEFT
370
    25
390
0
  6
CONTINUOUS
 62
     7
100
AcDbLine
 10
545.518106
 20
679.327228
 30
0.0
 11
545.510881
 21
679.316806
 31
0.0
  0
LINE
  5
1422
100
AcDbEntity
  8
11000_LEFT
370
    25
390
0
  6
CONTINUOUS
 62
     7
100
AcDbLine
 10
545.510881
 20
679.316806
 30
0.0
 11
545.503587
 21
679.307002
 31
0.0
  0
LINE
  5
1423
100
AcDbEntity
  8
11000_LEFT
370
    25
390
0
  6
CONTINUOUS
 62
     7
100
AcDbLine
 10
545.503587
 20
679.307002
 30
0.0
 11
545.496255
 21
679.297733
 31
0.0
  0
LINE
  5
1424
100
AcDbEntity
  8
11000_LEFT
370
    25
390
0
  6
CONTINUOUS
 62
     7
100
AcDbLine
 10
545.496255
 20
679.297733
 30
0.0
 11
545.489023
 21
679.289027
 31
0.0
  0
LINE
  5
1425
100
AcDbEntity
  8
11000_LEFT
370
    25
390
0
  6
CONTINUOUS
 62
     7
100
AcDbLine
 10
545.489023
 20
679.289027
 30
0.0
 11
545.481988
 21
679.281116
 31
0.0
  0
LINE
  5
1426
100
AcDbEntity
  8
11000_LEFT
370
    25
390
0
  6
CONTINUOUS
 62
     7
100
AcDbLine
 10
545.481988
 20
679.281116
 30
0.0
 11
545.475343
 21
679.273944
 31
0.0
  0
LINE
  5
1427
100
AcDbEntity
  8
11000_LEFT
370
    25
390
0
  6
CONTINUOUS
 62
     7
100
AcDbLine
 10
545.475343
 20
679.273944
 30
0.0
 11
545.469217
 21
679.267642
 31
0.0
  0
LINE
  5
1428
100
AcDbEntity
  8
11000_LEFT
370
    25
390
0
  6
CONTINUOUS
 62
     7
100
AcDbLine
 10
545.469217
 20
679.267642
 30
0.0
 11
545.463792
 21
679.262279
 31
0.0
  0
LINE
  5
1429
100
AcDbEntity
  8
11000_LEFT
370
    25
390
0
  6
CONTINUOUS
 62
     7
100
AcDbLine
 10
545.463792
 20
679.262279
 30
0.0
 11
545.459184
 21
679.257877
 31
0.0
  0
LINE
  5
142A
100
AcDbEntity
  8
11000_LEFT
370
    25
390
0
  6
CONTINUOUS
 62
     7
100
AcDbLine
 10
545.459184
 20
679.257877
 30
0.0
 11
545.455476
 21
679.254436
 31
0.0
  0
LINE
  5
142B
100
AcDbEntity
  8
11000_LEFT
370
    25
390
0
  6
CONTINUOUS
 62
     7
100
AcDbLine
 10
545.455476
 20
679.254436
 30
0.0
 11
545.452737
 21
679.251971
 31
0.0
  0
LINE
  5
142C
100
AcDbEntity
  8
11000_LEFT
370
    25
390
0
  6
CONTINUOUS
 62
     7
100
AcDbLine
 10
545.452737
 20
679.251971
 30
0.0
 11
545.451036
 21
679.250484
 31
0.0
  0
LINE
  5
142D
100
AcDbEntity
  8
11000_LEFT
370
    25
390
0
  6
CONTINUOUS
 62
     7
100
AcDbLine
 10
545.451036
 20
679.250484
 30
0.0
 11
545.450456
 21
679.249988
 31
0.0
  0
LINE
  5
142E
100
AcDbEntity
  8
11000_LEFT
370
    25
390
0
  6
CONTINUOUS
 62
     7
100
AcDbLine
 10
545.585878
 20
679.549991
 30
0.0
 11
545.585878
 21
679.649989
 31
0.0
  0
ARC
  5
142F
100
AcDbEntity
  8
11000_LEFT
370
    25
390
0
  6
CONTINUOUS
 62
     7
100
AcDbCircle
 10
545.98588
 20
682.449994
 30
0.0
 40
0.4
100
AcDbArc
 50
90.000101
 51
90.260198
  0
LINE
  5
1430
100
AcDbEntity
  8
11000_LEFT
370
    25
390
0
  6
CONTINUOUS
 62
     7
100
AcDbLine
 10
575.494737
 20
682.850002
 30
0.0
 11
545.985879
 21
682.849994
 31
0.0
  0
ARC
  5
1431
100
AcDbEntity
  8
11000_LEFT
370
    25
390
0
  6
CONTINUOUS
 62
     7
100
AcDbCircle
 10
575.464846
 20
683.684577
 30
0.0
 40
0.835113
100
AcDbArc
 50
272.051263
 51
349.646913
  0
LINE
  5
1432
100
AcDbEntity
  8
11000_LEFT
370
    25
390
0
  6
CONTINUOUS
 62
     7
100
AcDbLine
 10
578.242998
 20
699.065555
 30
0.0
 11
576.286363
 21
683.534496
 31
0.0
  0
ARC
  5
1433
100
AcDbEntity
  8
11000_LEFT
370
    25
390
0
  6
CONTINUOUS
 62
     7
100
AcDbCircle
 10
577.447462
 20
699.15
 30
0.0
 40
0.8
100
AcDbArc
 50
353.94081
 51
78.939492
  0
LINE
  5
1434
100
AcDbEntity
  8
11000_LEFT
370
    25
390
0
  6
CONTINUOUS
 62
     7
100
AcDbLine
 10
577.357988
 20
699.95
 30
0.0
 11
577.600938
 21
699.935142
 31
0.0
  0
LINE
  5
1435
100
AcDbEntity
  8
11000_LEFT
370
    25
390
0
  6
CONTINUOUS
 62
     7
100
AcDbLine
 10
503.385881
 20
699.95
 30
0.0
 11
577.357988
 21
699.95
 31
0.0
  0
LINE
  5
1436
100
AcDbEntity
  8
11000_LEFT
370
    25
390
0
  6
CONTINUOUS
 62
     7
100
AcDbLine
 10
503.385881
 20
682.849994
 30
0.0
 11
503.385881
 21
699.95
 31
0.0
  0
ARC
  5
1437
100
AcDbEntity
  8
11000_LEFT
370
    25
390
0
  6
CONTINUOUS
 62
     7
100
AcDbCircle
 10
545.98588
 20
836.450006
 30
0.0
 40
0.4
100
AcDbArc
 50
269.739802
 51
269.999899
  0
LINE
  5
1438
100
AcDbEntity
  8
11000_LEFT
370
    25
390
0
  6
CONTINUOUS
 62
     7
100
AcDbLine
 10
545.984064
 20
836.050014
 30
0.0
 11
528.385881
 21
836.050014
 31
0.0
  0
LINE
  5
1439
100
AcDbEntity
  8
11000_LEFT
370
    25
390
0
  6
CONTINUOUS
 62
     7
100
AcDbLine
 10
503.385881
 20
836.050006
 30
0.0
 11
528.385881
 21
836.050006
 31
0.0
  0
LINE
  5
143A
100
AcDbEntity
  8
11000_LEFT
370
    25
390
0
  6
CONTINUOUS
 62
     7
100
AcDbLine
 10
503.385881
 20
818.95
 30
0.0
 11
503.385881
 21
836.050006
 31
0.0
  0
LINE
  5
143B
100
AcDbEntity
  8
11000_LEFT
370
    25
390
0
  6
CONTINUOUS
 62
     7
100
AcDbLine
 10
577.357988
 20
818.95
 30
0.0
 11
503.385881
 21
818.95
 31
0.0
  0
LINE
  5
143C
100
AcDbEntity
  8
11000_LEFT
370
    25
390
0
  6
CONTINUOUS
 62
     7
100
AcDbLine
 10
577.600938
 20
818.964858
 30
0.0
 11
577.357988
 21
818.95
 31
0.0
  0
ARC
  5
143D
100
AcDbEntity
  8
11000_LEFT
370
    25
390
0
  6
CONTINUOUS
 62
     7
100
AcDbCircle
 10
577.447462
 20
819.75
 30
0.0
 40
0.8
100
AcDbArc
 50
281.060508
 51
6.05919
  0
LINE
  5
143E
100
AcDbEntity
  8
11000_LEFT
370
    25
390
0
  6
CONTINUOUS
 62
     7
100
AcDbLine
 10
576.286363
 20
835.365504
 30
0.0
 11
578.242998
 21
819.834445
 31
0.0
  0
ARC
  5
143F
100
AcDbEntity
  8
11000_LEFT
370
    25
390
0
  6
CONTINUOUS
 62
     7
100
AcDbCircle
 10
575.464846
 20
835.215423
 30
0.0
 40
0.835113
100
AcDbArc
 50
10.353087
 51
87.948737
  0
LINE
  5
1440
100
AcDbEntity
  8
11000_LEFT
370
    25
390
0
  6
CONTINUOUS
 62
     7
100
AcDbLine
 10
545.985879
 20
836.050006
 30
0.0
 11
575.494737
 21
836.049998
 31
0.0
  0
LINE
  5
1441
100
AcDbEntity
  8
11000_LEFT
370
    25
390
0
  6
CONTINUOUS
 62
     7
100
AcDbLine
 10
528.385881
 20
836.050014
 30
0.0
 11
528.385881
 21
836.450008
 31
0.0
  0
LINE
  5
1442
100
AcDbEntity
  8
11000_LEFT
370
    25
390
0
  6
CONTINUOUS
 62
     7
100
AcDbLine
 10
528.385881
 20
836.450008
 30
0.0
 11
528.385881
 21
839.250011
 31
0.0
  0
LINE
  5
1443
100
AcDbEntity
  8
11000_LEFT
370
    25
390
0
  6
CONTINUOUS
 62
     7
100
AcDbLine
 10
528.385881
 20
839.250011
 30
0.0
 11
528.385881
 21
839.350009
 31
0.0
  0
LINE
  5
1444
100
AcDbEntity
  8
11000_LEFT
370
    25
390
0
  6
CONTINUOUS
 62
     7
100
AcDbLine
 10
528.52131
 20
839.650012
 30
0.0
 11
545.450456
 21
839.650012
 31
0.0
  0
LINE
  5
1445
100
AcDbEntity
  8
11000_LEFT
370
    25
390
0
  6
CONTINUOUS
 62
     7
100
AcDbLine
 10
528.385881
 20
839.350009
 30
0.0
 11
528.386377
 21
839.36925
 31
0.0
  0
LINE
  5
1446
100
AcDbEntity
  8
11000_LEFT
370
    25
390
0
  6
CONTINUOUS
 62
     7
100
AcDbLine
 10
528.386377
 20
839.36925
 30
0.0
 11
528.387682
 21
839.387866
 31
0.0
  0
LINE
  5
1447
100
AcDbEntity
  8
11000_LEFT
370
    25
390
0
  6
CONTINUOUS
 62
     7
100
AcDbLine
 10
528.387682
 20
839.387866
 30
0.0
 11
528.389825
 21
839.405933
 31
0.0
  0
LINE
  5
1448
100
AcDbEntity
  8
11000_LEFT
370
    25
390
0
  6
CONTINUOUS
 62
     7
100
AcDbLine
 10
528.389825
 20
839.405933
 30
0.0
 11
528.392801
 21
839.423831
 31
0.0
  0
LINE
  5
1449
100
AcDbEntity
  8
11000_LEFT
370
    25
390
0
  6
CONTINUOUS
 62
     7
100
AcDbLine
 10
528.392801
 20
839.423831
 30
0.0
 11
528.396539
 21
839.441463
 31
0.0
  0
LINE
  5
144A
100
AcDbEntity
  8
11000_LEFT
370
    25
390
0
  6
CONTINUOUS
 62
     7
100
AcDbLine
 10
528.396539
 20
839.441463
 30
0.0
 11
528.401002
 21
839.458728
 31
0.0
  0
LINE
  5
144B
100
AcDbEntity
  8
11000_LEFT
370
    25
390
0
  6
CONTINUOUS
 62
     7
100
AcDbLine
 10
528.401002
 20
839.458728
 30
0.0
 11
528.406114
 21
839.475513
 31
0.0
  0
LINE
  5
144C
100
AcDbEntity
  8
11000_LEFT
370
    25
390
0
  6
CONTINUOUS
 62
     7
100
AcDbLine
 10
528.406114
 20
839.475513
 30
0.0
 11
528.411829
 21
839.491718
 31
0.0
  0
LINE
  5
144D
100
AcDbEntity
  8
11000_LEFT
370
    25
390
0
  6
CONTINUOUS
 62
     7
100
AcDbLine
 10
528.411829
 20
839.491718
 30
0.0
 11
528.418077
 21
839.507243
 31
0.0
  0
LINE
  5
144E
100
AcDbEntity
  8
11000_LEFT
370
    25
390
0
  6
CONTINUOUS
 62
     7
100
AcDbLine
 10
528.418077
 20
839.507243
 30
0.0
 11
528.424768
 21
839.522006
 31
0.0
  0
LINE
  5
144F
100
AcDbEntity
  8
11000_LEFT
370
    25
390
0
  6
CONTINUOUS
 62
     7
100
AcDbLine
 10
528.424768
 20
839.522006
 30
0.0
 11
528.431772
 21
839.535983
 31
0.0
  0
LINE
  5
1450
100
AcDbEntity
  8
11000_LEFT
370
    25
390
0
  6
CONTINUOUS
 62
     7
100
AcDbLine
 10
528.431772
 20
839.535983
 30
0.0
 11
528.438997
 21
839.549129
 31
0.0
  0
LINE
  5
1451
100
AcDbEntity
  8
11000_LEFT
370
    25
390
0
  6
CONTINUOUS
 62
     7
100
AcDbLine
 10
528.438997
 20
839.549129
 30
0.0
 11
528.446329
 21
839.561404
 31
0.0
  0
LINE
  5
1452
100
AcDbEntity
  8
11000_LEFT
370
    25
390
0
  6
CONTINUOUS
 62
     7
100
AcDbLine
 10
528.446329
 20
839.561404
 30
0.0
 11
528.453661
 21
839.572772
 31
0.0
  0
LINE
  5
1453
100
AcDbEntity
  8
11000_LEFT
370
    25
390
0
  6
CONTINUOUS
 62
     7
100
AcDbLine
 10
528.453661
 20
839.572772
 30
0.0
 11
528.460886
 21
839.583194
 31
0.0
  0
LINE
  5
1454
100
AcDbEntity
  8
11000_LEFT
370
    25
390
0
  6
CONTINUOUS
 62
     7
100
AcDbLine
 10
528.460886
 20
839.583194
 30
0.0
 11
528.468172
 21
839.592998
 31
0.0
  0
LINE
  5
1455
100
AcDbEntity
  8
11000_LEFT
370
    25
390
0
  6
CONTINUOUS
 62
     7
100
AcDbLine
 10
528.468172
 20
839.592998
 30
0.0
 11
528.475511
 21
839.602267
 31
0.0
  0
LINE
  5
1456
100
AcDbEntity
  8
11000_LEFT
370
    25
390
0
  6
CONTINUOUS
 62
     7
100
AcDbLine
 10
528.475511
 20
839.602267
 30
0.0
 11
528.482736
 21
839.610973
 31
0.0
  0
LINE
  5
1457
100
AcDbEntity
  8
11000_LEFT
370
    25
390
0
  6
CONTINUOUS
 62
     7
100
AcDbLine
 10
528.482736
 20
839.610973
 30
0.0
 11
528.489778
 21
839.618884
 31
0.0
  0
LINE
  5
1458
100
AcDbEntity
  8
11000_LEFT
370
    25
390
0
  6
CONTINUOUS
 62
     7
100
AcDbLine
 10
528.489778
 20
839.618884
 30
0.0
 11
528.496416
 21
839.626056
 31
0.0
  0
LINE
  5
1459
100
AcDbEntity
  8
11000_LEFT
370
    25
390
0
  6
CONTINUOUS
 62
     7
100
AcDbLine
 10
528.496416
 20
839.626056
 30
0.0
 11
528.502542
 21
839.632358
 31
0.0
  0
LINE
  5
145A
100
AcDbEntity
  8
11000_LEFT
370
    25
390
0
  6
CONTINUOUS
 62
     7
100
AcDbLine
 10
528.502542
 20
839.632358
 30
0.0
 11
528.507974
 21
839.637721
 31
0.0
  0
LINE
  5
145B
100
AcDbEntity
  8
11000_LEFT
370
    25
390
0
  6
CONTINUOUS
 62
     7
100
AcDbLine
 10
528.507974
 20
839.637721
 30
0.0
 11
528.512575
 21
839.642123
 31
0.0
  0
LINE
  5
145C
100
AcDbEntity
  8
11000_LEFT
370
    25
390
0
  6
CONTINUOUS
 62
     7
100
AcDbLine
 10
528.512575
 20
839.642123
 30
0.0
 11
528.51629
 21
839.645564
 31
0.0
  0
LINE
  5
145D
100
AcDbEntity
  8
11000_LEFT
370
    25
390
0
  6
CONTINUOUS
 62
     7
100
AcDbLine
 10
528.51629
 20
839.645564
 30
0.0
 11
528.519029
 21
839.648029
 31
0.0
  0
LINE
  5
145E
100
AcDbEntity
  8
11000_LEFT
370
    25
390
0
  6
CONTINUOUS
 62
     7
100
AcDbLine
 10
528.519029
 20
839.648029
 30
0.0
 11
528.520723
 21
839.649516
 31
0.0
  0
LINE
  5
145F
100
AcDbEntity
  8
11000_LEFT
370
    25
390
0
  6
CONTINUOUS
 62
     7
100
AcDbLine
 10
528.520723
 20
839.649516
 30
0.0
 11
528.52131
 21
839.650012
 31
0.0
  0
LINE
  5
1460
100
AcDbEntity
  8
11000_LEFT
370
    25
390
0
  6
CONTINUOUS
 62
     7
100
AcDbLine
 10
528.385881
 20
839.250011
 30
0.0
 11
545.585878
 21
839.250011
 31
0.0
  0
LINE
  5
1461
100
AcDbEntity
  8
11000_LEFT
370
    25
390
0
  6
CONTINUOUS
 62
     7
100
AcDbLine
 10
545.585878
 20
839.250011
 30
0.0
 11
545.585878
 21
839.350009
 31
0.0
  0
LINE
  5
1462
100
AcDbEntity
  8
11000_LEFT
370
    25
390
0
  6
CONTINUOUS
 62
     7
100
AcDbLine
 10
545.450456
 20
839.650012
 30
0.0
 11
545.451036
 21
839.649516
 31
0.0
  0
LINE
  5
1463
100
AcDbEntity
  8
11000_LEFT
370
    25
390
0
  6
CONTINUOUS
 62
     7
100
AcDbLine
 10
545.451036
 20
839.649516
 30
0.0
 11
545.452737
 21
839.648029
 31
0.0
  0
LINE
  5
1464
100
AcDbEntity
  8
11000_LEFT
370
    25
390
0
  6
CONTINUOUS
 62
     7
100
AcDbLine
 10
545.452737
 20
839.648029
 30
0.0
 11
545.455476
 21
839.645564
 31
0.0
  0
LINE
  5
1465
100
AcDbEntity
  8
11000_LEFT
370
    25
390
0
  6
CONTINUOUS
 62
     7
100
AcDbLine
 10
545.455476
 20
839.645564
 30
0.0
 11
545.459184
 21
839.642123
 31
0.0
  0
LINE
  5
1466
100
AcDbEntity
  8
11000_LEFT
370
    25
390
0
  6
CONTINUOUS
 62
     7
100
AcDbLine
 10
545.459184
 20
839.642123
 30
0.0
 11
545.463792
 21
839.637721
 31
0.0
  0
LINE
  5
1467
100
AcDbEntity
  8
11000_LEFT
370
    25
390
0
  6
CONTINUOUS
 62
     7
100
AcDbLine
 10
545.463792
 20
839.637721
 30
0.0
 11
545.469217
 21
839.632358
 31
0.0
  0
LINE
  5
1468
100
AcDbEntity
  8
11000_LEFT
370
    25
390
0
  6
CONTINUOUS
 62
     7
100
AcDbLine
 10
545.469217
 20
839.632358
 30
0.0
 11
545.475343
 21
839.626056
 31
0.0
  0
LINE
  5
1469
100
AcDbEntity
  8
11000_LEFT
370
    25
390
0
  6
CONTINUOUS
 62
     7
100
AcDbLine
 10
545.475343
 20
839.626056
 30
0.0
 11
545.481988
 21
839.618884
 31
0.0
  0
LINE
  5
146A
100
AcDbEntity
  8
11000_LEFT
370
    25
390
0
  6
CONTINUOUS
 62
     7
100
AcDbLine
 10
545.481988
 20
839.618884
 30
0.0
 11
545.489008
 21
839.610927
 31
0.0
  0
LINE
  5
146B
100
AcDbEntity
  8
11000_LEFT
370
    25
390
0
  6
CONTINUOUS
 62
     7
100
AcDbLine
 10
545.489008
 20
839.610927
 30
0.0
 11
545.496255
 21
839.602267
 31
0.0
  0
LINE
  5
146C
100
AcDbEntity
  8
11000_LEFT
370
    25
390
0
  6
CONTINUOUS
 62
     7
100
AcDbLine
 10
545.496255
 20
839.602267
 30
0.0
 11
545.503587
 21
839.592998
 31
0.0
  0
LINE
  5
146D
100
AcDbEntity
  8
11000_LEFT
370
    25
390
0
  6
CONTINUOUS
 62
     7
100
AcDbLine
 10
545.503587
 20
839.592998
 30
0.0
 11
545.510881
 21
839.583194
 31
0.0
  0
LINE
  5
146E
100
AcDbEntity
  8
11000_LEFT
370
    25
390
0
  6
CONTINUOUS
 62
     7
100
AcDbLine
 10
545.510881
 20
839.583194
 30
0.0
 11
545.518106
 21
839.572772
 31
0.0
  0
LINE
  5
146F
100
AcDbEntity
  8
11000_LEFT
370
    25
390
0
  6
CONTINUOUS
 62
     7
100
AcDbLine
 10
545.518106
 20
839.572772
 30
0.0
 11
545.52543
 21
839.561404
 31
0.0
  0
LINE
  5
1470
100
AcDbEntity
  8
11000_LEFT
370
    25
390
0
  6
CONTINUOUS
 62
     7
100
AcDbLine
 10
545.52543
 20
839.561404
 30
0.0
 11
545.532762
 21
839.549129
 31
0.0
  0
LINE
  5
1471
100
AcDbEntity
  8
11000_LEFT
370
    25
390
0
  6
CONTINUOUS
 62
     7
100
AcDbLine
 10
545.532762
 20
839.549129
 30
0.0
 11
545.539987
 21
839.535983
 31
0.0
  0
LINE
  5
1472
100
AcDbEntity
  8
11000_LEFT
370
    25
390
0
  6
CONTINUOUS
 62
     7
100
AcDbLine
 10
545.539987
 20
839.535983
 30
0.0
 11
545.546999
 21
839.522006
 31
0.0
  0
LINE
  5
1473
100
AcDbEntity
  8
11000_LEFT
370
    25
390
0
  6
CONTINUOUS
 62
     7
100
AcDbLine
 10
545.546999
 20
839.522006
 30
0.0
 11
545.553682
 21
839.507236
 31
0.0
  0
LINE
  5
1474
100
AcDbEntity
  8
11000_LEFT
370
    25
390
0
  6
CONTINUOUS
 62
     7
100
AcDbLine
 10
545.553682
 20
839.507236
 30
0.0
 11
545.55993
 21
839.491718
 31
0.0
  0
LINE
  5
1475
100
AcDbEntity
  8
11000_LEFT
370
    25
390
0
  6
CONTINUOUS
 62
     7
100
AcDbLine
 10
545.55993
 20
839.491718
 30
0.0
 11
545.565645
 21
839.475513
 31
0.0
  0
LINE
  5
1476
100
AcDbEntity
  8
11000_LEFT
370
    25
390
0
  6
CONTINUOUS
 62
     7
100
AcDbLine
 10
545.565645
 20
839.475513
 30
0.0
 11
545.570764
 21
839.458728
 31
0.0
  0
LINE
  5
1477
100
AcDbEntity
  8
11000_LEFT
370
    25
390
0
  6
CONTINUOUS
 62
     7
100
AcDbLine
 10
545.570764
 20
839.458728
 30
0.0
 11
545.57522
 21
839.441463
 31
0.0
  0
LINE
  5
1478
100
AcDbEntity
  8
11000_LEFT
370
    25
390
0
  6
CONTINUOUS
 62
     7
100
AcDbLine
 10
545.57522
 20
839.441463
 30
0.0
 11
545.578966
 21
839.423831
 31
0.0
  0
LINE
  5
1479
100
AcDbEntity
  8
11000_LEFT
370
    25
390
0
  6
CONTINUOUS
 62
     7
100
AcDbLine
 10
545.578966
 20
839.423831
 30
0.0
 11
545.581941
 21
839.405933
 31
0.0
  0
LINE
  5
147A
100
AcDbEntity
  8
11000_LEFT
370
    25
390
0
  6
CONTINUOUS
 62
     7
100
AcDbLine
 10
545.581941
 20
839.405933
 30
0.0
 11
545.584085
 21
839.387866
 31
0.0
  0
LINE
  5
147B
100
AcDbEntity
  8
11000_LEFT
370
    25
390
0
  6
CONTINUOUS
 62
     7
100
AcDbLine
 10
545.584085
 20
839.387866
 30
0.0
 11
545.58539
 21
839.369243
 31
0.0
  0
LINE
  5
147C
100
AcDbEntity
  8
11000_LEFT
370
    25
390
0
  6
CONTINUOUS
 62
     7
100
AcDbLine
 10
545.58539
 20
839.369243
 30
0.0
 11
545.585878
 21
839.350009
 31
0.0
  0
LINE
  5
147D
100
AcDbEntity
  8
11000_LEFT
370
    25
390
0
  6
CONTINUOUS
 62
     7
100
AcDbLine
 10
528.385881
 20
836.450008
 30
0.0
 11
545.585878
 21
836.450008
 31
0.0
  0
LINE
  5
147E
100
AcDbEntity
  8
11000_LEFT
370
    25
390
0
  6
CONTINUOUS
 62
     7
100
AcDbLine
 10
545.585878
 20
839.250011
 30
0.0
 11
545.585878
 21
836.450008
 31
0.0
  0
LINE
  5
147F
100
AcDbEntity
  8
11000_LEFT
370
    25
390
0
  6
CONTINUOUS
 62
     7
100
AcDbLine
 10
545.585878
 20
836.450008
 30
0.0
 11
545.587022
 21
836.419902
 31
0.0
  0
LINE
  5
1480
100
AcDbEntity
  8
11000_LEFT
370
    25
390
0
  6
CONTINUOUS
 62
     7
100
AcDbLine
 10
545.587022
 20
836.419902
 30
0.0
 11
545.590425
 21
836.389911
 31
0.0
  0
LINE
  5
1481
100
AcDbEntity
  8
11000_LEFT
370
    25
390
0
  6
CONTINUOUS
 62
     7
100
AcDbLine
 10
545.590425
 20
836.389911
 30
0.0
 11
545.596056
 21
836.360355
 31
0.0
  0
LINE
  5
1482
100
AcDbEntity
  8
11000_LEFT
370
    25
390
0
  6
CONTINUOUS
 62
     7
100
AcDbLine
 10
545.596056
 20
836.360355
 30
0.0
 11
545.603845
 21
836.331508
 31
0.0
  0
LINE
  5
1483
100
AcDbEntity
  8
11000_LEFT
370
    25
390
0
  6
CONTINUOUS
 62
     7
100
AcDbLine
 10
545.603845
 20
836.331508
 30
0.0
 11
545.613626
 21
836.30363
 31
0.0
  0
LINE
  5
1484
100
AcDbEntity
  8
11000_LEFT
370
    25
390
0
  6
CONTINUOUS
 62
     7
100
AcDbLine
 10
545.613626
 20
836.30363
 30
0.0
 11
545.625253
 21
836.276973
 31
0.0
  0
LINE
  5
1485
100
AcDbEntity
  8
11000_LEFT
370
    25
390
0
  6
CONTINUOUS
 62
     7
100
AcDbLine
 10
545.625253
 20
836.276973
 30
0.0
 11
545.638551
 21
836.251727
 31
0.0
  0
LINE
  5
1486
100
AcDbEntity
  8
11000_LEFT
370
    25
390
0
  6
CONTINUOUS
 62
     7
100
AcDbLine
 10
545.638551
 20
836.251727
 30
0.0
 11
545.653238
 21
836.228023
 31
0.0
  0
LINE
  5
1487
100
AcDbEntity
  8
11000_LEFT
370
    25
390
0
  6
CONTINUOUS
 62
     7
100
AcDbLine
 10
545.653238
 20
836.228023
 30
0.0
 11
545.669046
 21
836.205981
 31
0.0
  0
LINE
  5
1488
100
AcDbEntity
  8
11000_LEFT
370
    25
390
0
  6
CONTINUOUS
 62
     7
100
AcDbLine
 10
545.669046
 20
836.205981
 30
0.0
 11
545.685686
 21
836.185703
 31
0.0
  0
LINE
  5
1489
100
AcDbEntity
  8
11000_LEFT
370
    25
390
0
  6
CONTINUOUS
 62
     7
100
AcDbLine
 10
545.685686
 20
836.185703
 30
0.0
 11
545.702875
 21
836.167323
 31
0.0
  0
LINE
  5
148A
100
AcDbEntity
  8
11000_LEFT
370
    25
390
0
  6
CONTINUOUS
 62
     7
100
AcDbLine
 10
545.702875
 20
836.167323
 30
0.0
 11
545.720621
 21
836.150653
 31
0.0
  0
LINE
  5
148B
100
AcDbEntity
  8
11000_LEFT
370
    25
390
0
  6
CONTINUOUS
 62
     7
100
AcDbLine
 10
545.720621
 20
836.150653
 30
0.0
 11
545.739046
 21
836.135364
 31
0.0
  0
LINE
  5
148C
100
AcDbEntity
  8
11000_LEFT
370
    25
390
0
  6
CONTINUOUS
 62
     7
100
AcDbLine
 10
545.739046
 20
836.135364
 30
0.0
 11
545.757982
 21
836.121463
 31
0.0
  0
LINE
  5
148D
100
AcDbEntity
  8
11000_LEFT
370
    25
390
0
  6
CONTINUOUS
 62
     7
100
AcDbLine
 10
545.757982
 20
836.121463
 30
0.0
 11
545.777261
 21
836.10892
 31
0.0
  0
LINE
  5
148E
100
AcDbEntity
  8
11000_LEFT
370
    25
390
0
  6
CONTINUOUS
 62
     7
100
AcDbLine
 10
545.777261
 20
836.10892
 30
0.0
 11
545.796709
 21
836.097743
 31
0.0
  0
LINE
  5
148F
100
AcDbEntity
  8
11000_LEFT
370
    25
390
0
  6
CONTINUOUS
 62
     7
100
AcDbLine
 10
545.796709
 20
836.097743
 30
0.0
 11
545.816171
 21
836.087909
 31
0.0
  0
LINE
  5
1490
100
AcDbEntity
  8
11000_LEFT
370
    25
390
0
  6
CONTINUOUS
 62
     7
100
AcDbLine
 10
545.816171
 20
836.087909
 30
0.0
 11
545.835466
 21
836.079402
 31
0.0
  0
LINE
  5
1491
100
AcDbEntity
  8
11000_LEFT
370
    25
390
0
  6
CONTINUOUS
 62
     7
100
AcDbLine
 10
545.835466
 20
836.079402
 30
0.0
 11
545.854425
 21
836.072223
 31
0.0
  0
LINE
  5
1492
100
AcDbEntity
  8
11000_LEFT
370
    25
390
0
  6
CONTINUOUS
 62
     7
100
AcDbLine
 10
545.854425
 20
836.072223
 30
0.0
 11
545.873155
 21
836.066234
 31
0.0
  0
LINE
  5
1493
100
AcDbEntity
  8
11000_LEFT
370
    25
390
0
  6
CONTINUOUS
 62
     7
100
AcDbLine
 10
545.873155
 20
836.066234
 30
0.0
 11
545.891664
 21
836.061298
 31
0.0
  0
LINE
  5
1494
100
AcDbEntity
  8
11000_LEFT
370
    25
390
0
  6
CONTINUOUS
 62
     7
100
AcDbLine
 10
545.891664
 20
836.061298
 30
0.0
 11
545.909608
 21
836.057368
 31
0.0
  0
LINE
  5
1495
100
AcDbEntity
  8
11000_LEFT
370
    25
390
0
  6
CONTINUOUS
 62
     7
100
AcDbLine
 10
545.909608
 20
836.057368
 30
0.0
 11
545.926622
 21
836.054424
 31
0.0
  0
LINE
  5
1496
100
AcDbEntity
  8
11000_LEFT
370
    25
390
0
  6
CONTINUOUS
 62
     7
100
AcDbLine
 10
545.926622
 20
836.054424
 30
0.0
 11
545.942857
 21
836.052333
 31
0.0
  0
LINE
  5
1497
100
AcDbEntity
  8
11000_LEFT
370
    25
390
0
  6
CONTINUOUS
 62
     7
100
AcDbLine
 10
545.942857
 20
836.052333
 30
0.0
 11
545.958086
 21
836.050975
 31
0.0
  0
LINE
  5
1498
100
AcDbEntity
  8
11000_LEFT
370
    25
390
0
  6
CONTINUOUS
 62
     7
100
AcDbLine
 10
545.958086
 20
836.050975
 30
0.0
 11
545.972055
 21
836.050243
 31
0.0
  0
LINE
  5
1499
100
AcDbEntity
  8
11000_LEFT
370
    25
390
0
  6
CONTINUOUS
 62
     7
100
AcDbLine
 10
545.972055
 20
836.050243
 30
0.0
 11
545.984064
 21
836.050014
 31
0.0
  0
LINE
  5
149A
100
AcDbEntity
  8
11000_LEFT
370
    25
390
0
  6
CONTINUOUS
 62
     7
100
AcDbLine
 10
625.985887
 20
814.249999
 30
0.0
 11
625.985887
 21
814.45
 31
0.0
  0
LINE
  5
149B
100
AcDbEntity
  8
11000_LEFT
370
    25
390
0
  6
CONTINUOUS
 62
     7
100
AcDbLine
 10
625.985887
 20
813.850009
 30
0.0
 11
625.985887
 21
814.249999
 31
0.0
  0
LINE
  5
149C
100
AcDbEntity
  8
11000_LEFT
370
    25
390
0
  6
CONTINUOUS
 62
     7
100
AcDbLine
 10
625.985887
 20
814.45
 30
0.0
 11
625.385881
 21
814.45
 31
0.0
  0
LINE
  5
149D
100
AcDbEntity
  8
11000_LEFT
370
    25
390
0
  6
CONTINUOUS
 62
     7
100
AcDbLine
 10
625.985887
 20
814.249999
 30
0.0
 11
625.585893
 21
814.249999
 31
0.0
  0
LINE
  5
149E
100
AcDbEntity
  8
11000_LEFT
370
    25
390
0
  6
CONTINUOUS
 62
     7
100
AcDbLine
 10
573.171907
 20
818.95
 30
0.0
 11
573.535875
 21
817.95
 31
0.0
  0
LINE
  5
149F
100
AcDbEntity
  8
11000_LEFT
370
    25
390
0
  6
CONTINUOUS
 62
     7
100
AcDbLine
 10
552.185884
 20
818.95
 30
0.0
 11
573.171907
 21
818.95
 31
0.0
  0
LINE
  5
14A0
100
AcDbEntity
  8
11000_LEFT
370
    25
390
0
  6
CONTINUOUS
 62
     7
100
AcDbLine
 10
552.185884
 20
699.95
 30
0.0
 11
552.185884
 21
818.95
 31
0.0
  0
LINE
  5
14A1
100
AcDbEntity
  8
11000_LEFT
370
    25
390
0
  6
CONTINUOUS
 62
     7
100
AcDbLine
 10
573.171907
 20
699.95
 30
0.0
 11
552.185884
 21
699.95
 31
0.0
  0
LINE
  5
14A2
100
AcDbEntity
  8
11000_LEFT
370
    25
390
0
  6
CONTINUOUS
 62
     7
100
AcDbLine
 10
573.535875
 20
700.95
 30
0.0
 11
573.171907
 21
699.95
 31
0.0
  0
LINE
  5
14A3
100
AcDbEntity
  8
11000_LEFT
370
    25
390
0
  6
CONTINUOUS
 62
     7
100
AcDbLine
 10
578.792818
 20
700.949691
 30
0.0
 11
573.535875
 21
700.95
 31
0.0
  0
ARC
  5
14A4
100
AcDbEntity
  8
11000_LEFT
370
    25
390
0
  6
CONTINUOUS
 62
     7
100
AcDbCircle
 10
578.781996
 20
749.002925
 30
0.0
 40
48.053235
100
AcDbArc
 50
270.012903
 51
292.003707
  0
LINE
  5
14A5
100
AcDbEntity
  8
11000_LEFT
370
    25
390
0
  6
CONTINUOUS
 62
     7
100
AcDbLine
 10
625.385881
 20
704.45
 30
0.0
 11
596.785936
 21
704.449908
 31
0.0
  0
LINE
  5
14A6
100
AcDbEntity
  8
11000_LEFT
370
    25
390
0
  6
CONTINUOUS
 62
     7
100
AcDbLine
 10
625.985887
 20
705.049998
 30
0.0
 11
625.385881
 21
704.45
 31
0.0
  0
LINE
  5
14A7
100
AcDbEntity
  8
11000_LEFT
370
    25
390
0
  6
CONTINUOUS
 62
     7
100
AcDbLine
 10
625.985887
 20
732.95
 30
0.0
 11
625.985887
 21
705.049998
 31
0.0
  0
ARC
  5
14A8
100
AcDbEntity
  8
11000_LEFT
370
    25
390
0
  6
CONTINUOUS
 62
     7
100
AcDbCircle
 10
508.114129
 20
755.45
 30
0.0
 40
120.0
100
AcDbArc
 50
349.193078
 51
10.806922
  0
LINE
  5
14A9
100
AcDbEntity
  8
11000_LEFT
370
    25
390
0
  6
CONTINUOUS
 62
     7
100
AcDbLine
 10
625.985887
 20
792.249999
 30
0.0
 11
625.985887
 21
777.95
 31
0.0
  0
LINE
  5
14AA
100
AcDbEntity
  8
11000_LEFT
370
    25
390
0
  6
CONTINUOUS
 62
     7
100
AcDbLine
 10
625.785875
 20
792.45
 30
0.0
 11
625.985887
 21
792.249999
 31
0.0
  0
LINE
  5
14AB
100
AcDbEntity
  8
11000_LEFT
370
    25
390
0
  6
CONTINUOUS
 62
     7
100
AcDbLine
 10
625.385881
 20
792.45
 30
0.0
 11
625.785875
 21
792.45
 31
0.0
  0
LINE
  5
14AC
100
AcDbEntity
  8
11000_LEFT
370
    25
390
0
  6
CONTINUOUS
 62
     7
100
AcDbLine
 10
625.385881
 20
792.749999
 30
0.0
 11
625.385881
 21
792.45
 31
0.0
  0
LINE
  5
14AD
100
AcDbEntity
  8
11000_LEFT
370
    25
390
0
  6
CONTINUOUS
 62
     7
100
AcDbLine
 10
625.785875
 20
792.749999
 30
0.0
 11
625.385881
 21
792.749999
 31
0.0
  0
LINE
  5
14AE
100
AcDbEntity
  8
11000_LEFT
370
    25
390
0
  6
CONTINUOUS
 62
     7
100
AcDbLine
 10
625.985887
 20
792.95
 30
0.0
 11
625.785875
 21
792.749999
 31
0.0
  0
LINE
  5
14AF
100
AcDbEntity
  8
11000_LEFT
370
    25
390
0
  6
CONTINUOUS
 62
     7
100
AcDbLine
 10
625.985887
 20
813.850002
 30
0.0
 11
625.985887
 21
792.95
 31
0.0
  0
LINE
  5
14B0
100
AcDbEntity
  8
11000_LEFT
370
    25
390
0
  6
CONTINUOUS
 62
     7
100
AcDbLine
 10
625.385881
 20
814.45
 30
0.0
 11
625.985887
 21
813.850002
 31
0.0
  0
LINE
  5
14B1
100
AcDbEntity
  8
11000_LEFT
370
    25
390
0
  6
CONTINUOUS
 62
     7
100
AcDbLine
 10
596.785875
 20
814.45
 30
0.0
 11
625.385881
 21
814.45
 31
0.0
  0
ARC
  5
14B2
100
AcDbEntity
  8
11000_LEFT
370
    25
390
0
  6
CONTINUOUS
 62
     7
100
AcDbCircle
 10
578.792827
 20
769.95
 30
0.0
 40
48.0
100
AcDbArc
 50
67.984637
 51
89.999993
  0
LINE
  5
14B3
100
AcDbEntity
  8
11000_LEFT
370
    25
390
0
  6
CONTINUOUS
 62
     7
100
AcDbLine
 10
573.535875
 20
817.95
 30
0.0
 11
578.792833
 21
817.95
 31
0.0
  0
LINE
  5
14B4
100
AcDbEntity
  8
11000_LEFT
370
    25
390
0
  6
CONTINUOUS
 62
     7
100
AcDbLine
 10
441.885881
 20
676.149997
 30
0.0
 11
441.885908
 21
676.149997
 31
0.0
  0
ARC
  5
14B5
100
AcDbEntity
  8
11000_LEFT
370
    25
390
0
  6
CONTINUOUS
 62
     7
100
AcDbCircle
 10
449.285881
 20
675.05
 30
0.0
 40
0.6
100
AcDbArc
 50
270.000009
 51
359.999821
  0
LINE
  5
14B6
100
AcDbEntity
  8
11000_LEFT
370
    25
390
0
  6
CONTINUOUS
 62
     7
100
AcDbLine
 10
449.285881
 20
674.45
 30
0.0
 11
442.485881
 21
674.45
 31
0.0
  0
LINE
  5
14B7
100
AcDbEntity
  8
11000_LEFT
370
    25
390
0
  6
CONTINUOUS
 62
     7
100
AcDbLine
 10
441.885881
 20
674.45
 30
0.0
 11
442.485881
 21
674.45
 31
0.0
  0
LINE
  5
14B8
100
AcDbEntity
  8
11000_LEFT
370
    25
390
0
  6
CONTINUOUS
 62
     7
100
AcDbLine
 10
449.285881
 20
674.45
 30
0.0
 11
473.885881
 21
674.45
 31
0.0
  0
LINE
  5
14B9
100
AcDbEntity
  8
11000_LEFT
370
    25
390
0
  6
CONTINUOUS
 62
     7
100
AcDbLine
 10
441.885881
 20
675.049998
 30
0.0
 11
441.885881
 21
720.249999
 31
0.0
  0
LINE
  5
14BA
100
AcDbEntity
  8
11000_LEFT
370
    25
390
0
  6
CONTINUOUS
 62
     7
100
AcDbLine
 10
441.885881
 20
675.049998
 30
0.0
 11
441.885881
 21
674.45
 31
0.0
  0
ARC
  5
14BB
100
AcDbEntity
  8
11000_LEFT
370
    25
390
0
  6
CONTINUOUS
 62
     7
100
AcDbCircle
 10
442.485881
 20
675.05
 30
0.0
 40
0.6
100
AcDbArc
 50
180.000179
 51
270.000002
  0
LINE
  5
14BC
100
AcDbEntity
  8
11000_LEFT
370
    25
390
0
  6
CONTINUOUS
 62
     7
100
AcDbLine
 10
473.885881
 20
674.45
 30
0.0
 11
473.885881
 21
697.7
 31
0.0
  0
LINE
  5
14BD
100
AcDbEntity
  8
11000_LEFT
370
    25
390
0
  6
CONTINUOUS
 62
     7
100
AcDbLine
 10
449.885881
 20
686.45
 30
0.0
 11
449.885881
 21
675.049998
 31
0.0
  0
LINE
  5
14BE
100
AcDbEntity
  8
11000_LEFT
370
    25
390
0
  6
CONTINUOUS
 62
     7
100
AcDbLine
 10
451.285881
 20
686.45
 30
0.0
 11
449.885881
 21
686.45
 31
0.0
  0
ARC
  5
14BF
100
AcDbEntity
  8
11000_LEFT
370
    25
390
0
  6
CONTINUOUS
 62
     7
100
AcDbCircle
 10
451.285921
 20
687.04996
 30
0.0
 40
0.59996
100
AcDbArc
 50
269.99611
 51
0.003674
  0
LINE
  5
14C0
100
AcDbEntity
  8
11000_LEFT
370
    25
390
0
  6
CONTINUOUS
 62
     7
100
AcDbLine
 10
451.885881
 20
697.2
 30
0.0
 11
451.885881
 21
687.049998
 31
0.0
  0
ARC
  5
14C1
100
AcDbEntity
  8
11000_LEFT
370
    25
390
0
  6
CONTINUOUS
 62
     7
100
AcDbCircle
 10
452.385881
 20
697.2
 30
0.0
 40
0.5
100
AcDbArc
 50
90.0
 51
180.0
  0
LINE
  5
14C2
100
AcDbEntity
  8
11000_LEFT
370
    25
390
0
  6
CONTINUOUS
 62
     7
100
AcDbLine
 10
500.885881
 20
697.7
 30
0.0
 11
452.385881
 21
697.7
 31
0.0
  0
LINE
  5
14C3
100
AcDbEntity
  8
11000_LEFT
370
    25
390
0
  6
CONTINUOUS
 62
     7
100
AcDbLine
 10
452.385881
 20
832.45
 30
0.0
 11
503.385881
 21
832.45
 31
0.0
  0
LINE
  5
14C4
100
AcDbEntity
  8
11000_LEFT
370
    25
390
0
  6
CONTINUOUS
 62
     7
100
AcDbLine
 10
451.885881
 20
832.95
 30
0.0
 11
452.385881
 21
832.45
 31
0.0
  0
LINE
  5
14C5
100
AcDbEntity
  8
11000_LEFT
370
    25
390
0
  6
CONTINUOUS
 62
     7
100
AcDbLine
 10
451.885881
 20
843.850002
 30
0.0
 11
451.885881
 21
832.95
 31
0.0
  0
ARC
  5
14C6
100
AcDbEntity
  8
11000_LEFT
370
    25
390
0
  6
CONTINUOUS
 62
     7
100
AcDbCircle
 10
451.285881
 20
843.85
 30
0.0
 40
0.6
100
AcDbArc
 50
0.000113
 51
90.000036
  0
LINE
  5
14C7
100
AcDbEntity
  8
11000_LEFT
370
    25
390
0
  6
CONTINUOUS
 62
     7
100
AcDbLine
 10
445.785881
 20
744.95
 30
0.0
 11
445.785881
 21
744.150001
 31
0.0
  0
LINE
  5
14C8
100
AcDbEntity
  8
11000_LEFT
370
    25
390
0
  6
CONTINUOUS
 62
     7
100
AcDbLine
 10
445.785881
 20
744.150001
 30
0.0
 11
445.93919
 21
743.280542
 31
0.0
  0
ARC
  5
14C9
100
AcDbEntity
  8
11000_LEFT
370
    25
390
0
  6
CONTINUOUS
 62
     7
100
AcDbCircle
 10
446.333113
 20
743.35
 30
0.0
 40
0.4
100
AcDbArc
 50
189.999919
 51
270.000002
  0
LINE
  5
14CA
100
AcDbEntity
  8
11000_LEFT
370
    25
390
0
  6
CONTINUOUS
 62
     7
100
AcDbLine
 10
446.333113
 20
742.95
 30
0.0
 11
446.885881
 21
742.95
 31
0.0
  0
LINE
  5
14CB
100
AcDbEntity
  8
11000_LEFT
370
    25
390
0
  6
CONTINUOUS
 62
     7
100
AcDbLine
 10
446.885881
 20
742.95
 30
0.0
 11
446.885881
 21
776.95
 31
0.0
  0
LINE
  5
14CC
100
AcDbEntity
  8
11000_LEFT
370
    25
390
0
  6
CONTINUOUS
 62
     7
100
AcDbLine
 10
446.885881
 20
776.95
 30
0.0
 11
445.835881
 21
776.95
 31
0.0
  0
LINE
  5
14CD
100
AcDbEntity
  8
11000_LEFT
370
    25
390
0
  6
CONTINUOUS
 62
     7
100
AcDbLine
 10
445.835881
 20
776.95
 30
0.0
 11
445.581102
 21
776.250001
 31
0.0
  0
LINE
  5
14CE
100
AcDbEntity
  8
11000_LEFT
370
    25
390
0
  6
CONTINUOUS
 62
     7
100
AcDbLine
 10
445.581102
 20
776.250001
 30
0.0
 11
444.152954
 21
775.25
 31
0.0
  0
LINE
  5
14CF
100
AcDbEntity
  8
11000_LEFT
370
    25
390
0
  6
CONTINUOUS
 62
     7
100
AcDbLine
 10
444.152954
 20
775.25
 30
0.0
 11
441.885881
 21
775.25
 31
0.0
  0
LINE
  5
14D0
100
AcDbEntity
  8
11000_LEFT
370
    25
390
0
  6
CONTINUOUS
 62
     7
100
AcDbLine
 10
441.885881
 20
775.25
 30
0.0
 11
441.885881
 21
780.650001
 31
0.0
  0
LINE
  5
14D1
100
AcDbEntity
  8
11000_LEFT
370
    25
390
0
  6
CONTINUOUS
 62
     7
100
AcDbLine
 10
441.885881
 20
780.650001
 30
0.0
 11
444.685881
 21
780.650001
 31
0.0
  0
ARC
  5
14D2
100
AcDbEntity
  8
11000_LEFT
370
    25
390
0
  6
CONTINUOUS
 62
     7
100
AcDbCircle
 10
444.685881
 20
784.65
 30
0.0
 40
4.0
100
AcDbArc
 50
269.999999
 51
0.0
  0
LINE
  5
14D3
100
AcDbEntity
  8
11000_LEFT
370
    25
390
0
  6
CONTINUOUS
 62
     7
100
AcDbLine
 10
448.685881
 20
784.650001
 30
0.0
 11
448.685881
 21
797.049998
 31
0.0
  0
LINE
  5
14D4
100
AcDbEntity
  8
11000_LEFT
370
    25
390
0
  6
CONTINUOUS
 62
     7
100
AcDbLine
 10
448.685881
 20
797.049998
 30
0.0
 11
445.585881
 21
797.049998
 31
0.0
  0
LINE
  5
14D5
100
AcDbEntity
  8
11000_LEFT
370
    25
390
0
  6
CONTINUOUS
 62
     7
100
AcDbLine
 10
445.585881
 20
797.049998
 30
0.0
 11
445.32139
 21
795.549998
 31
0.0
  0
LINE
  5
14D6
100
AcDbEntity
  8
11000_LEFT
370
    25
390
0
  6
CONTINUOUS
 62
     7
100
AcDbLine
 10
445.32139
 20
795.549998
 30
0.0
 11
443.58934
 21
794.549998
 31
0.0
  0
LINE
  5
14D7
100
AcDbEntity
  8
11000_LEFT
370
    25
390
0
  6
CONTINUOUS
 62
     7
100
AcDbLine
 10
443.58934
 20
794.549998
 30
0.0
 11
441.885881
 21
794.549998
 31
0.0
  0
LINE
  5
14D8
100
AcDbEntity
  8
11000_LEFT
370
    25
390
0
  6
CONTINUOUS
 62
     7
100
AcDbLine
 10
441.885881
 20
794.549998
 30
0.0
 11
441.885881
 21
843.850002
 31
0.0
  0
ARC
  5
14D9
100
AcDbEntity
  8
11000_LEFT
370
    25
390
0
  6
CONTINUOUS
 62
     7
100
AcDbCircle
 10
442.485881
 20
843.85
 30
0.0
 40
0.6
100
AcDbArc
 50
89.999998
 51
179.999887
  0
LINE
  5
14DA
100
AcDbEntity
  8
11000_LEFT
370
    25
390
0
  6
CONTINUOUS
 62
     7
100
AcDbLine
 10
442.485881
 20
844.45
 30
0.0
 11
451.285881
 21
844.45
 31
0.0
  0
LINE
  5
14DB
100
AcDbEntity
  8
11000_LEFT
370
    25
390
0
  6
CONTINUOUS
 62
     7
100
AcDbLine
 10
503.385881
 20
832.45
 30
0.0
 11
503.385881
 21
818.95
 31
0.0
  0
LINE
  5
14DC
100
AcDbEntity
  8
11000_LEFT
370
    25
390
0
  6
CONTINUOUS
 62
     7
100
AcDbLine
 10
503.385881
 20
818.95
 30
0.0
 11
552.185884
 21
818.95
 31
0.0
  0
LINE
  5
14DD
100
AcDbEntity
  8
11000_LEFT
370
    25
390
0
  6
CONTINUOUS
 62
     7
100
AcDbLine
 10
552.185884
 20
818.95
 30
0.0
 11
552.185884
 21
699.95
 31
0.0
  0
LINE
  5
14DE
100
AcDbEntity
  8
11000_LEFT
370
    25
390
0
  6
CONTINUOUS
 62
     7
100
AcDbLine
 10
552.185884
 20
699.95
 30
0.0
 11
503.385881
 21
699.95
 31
0.0
  0
LINE
  5
14DF
100
AcDbEntity
  8
11000_LEFT
370
    25
390
0
  6
CONTINUOUS
 62
     7
100
AcDbLine
 10
503.385881
 20
699.95
 30
0.0
 11
503.385881
 21
681.45
 31
0.0
  0
LINE
  5
14E0
100
AcDbEntity
  8
11000_LEFT
370
    25
390
0
  6
CONTINUOUS
 62
     7
100
AcDbLine
 10
503.385881
 20
681.45
 30
0.0
 11
500.885881
 21
681.45
 31
0.0
  0
LINE
  5
14E1
100
AcDbEntity
  8
11000_LEFT
370
    25
390
0
  6
CONTINUOUS
 62
     7
100
AcDbLine
 10
500.885881
 20
681.45
 30
0.0
 11
500.885881
 21
697.7
 31
0.0
  0
LINE
  5
14E2
100
AcDbEntity
  8
11000_LEFT
370
    25
390
0
  6
CONTINUOUS
 62
     7
100
AcDbLine
 10
441.885881
 20
720.249999
 30
0.0
 11
442.185881
 21
720.35345
 31
0.0
  0
LINE
  5
14E3
100
AcDbEntity
  8
11000_LEFT
370
    25
390
0
  6
CONTINUOUS
 62
     7
100
AcDbLine
 10
442.185881
 20
720.35345
 30
0.0
 11
442.185881
 21
721.094444
 31
0.0
  0
ARC
  5
14E4
100
AcDbEntity
  8
11000_LEFT
370
    25
390
0
  6
CONTINUOUS
 62
     7
100
AcDbCircle
 10
442.585881
 20
721.094445
 30
0.0
 40
0.4
100
AcDbArc
 50
137.49918
 51
180.000184
  0
LINE
  5
14E5
100
AcDbEntity
  8
11000_LEFT
370
    25
390
0
  6
CONTINUOUS
 62
     7
100
AcDbLine
 10
442.290975
 20
721.364684
 30
0.0
 11
445.090975
 21
724.420242
 31
0.0
  0
ARC
  5
14E6
100
AcDbEntity
  8
11000_LEFT
370
    25
390
0
  6
CONTINUOUS
 62
     7
100
AcDbCircle
 10
445.385881
 20
724.15
 30
0.0
 40
0.4
100
AcDbArc
 50
90.0
 51
137.498997
  0
LINE
  5
14E7
100
AcDbEntity
  8
11000_LEFT
370
    25
390
0
  6
CONTINUOUS
 62
     7
100
AcDbLine
 10
445.385881
 20
724.549998
 30
0.0
 11
445.785881
 21
724.549998
 31
0.0
  0
LINE
  5
14E8
100
AcDbEntity
  8
11000_LEFT
370
    25
390
0
  6
CONTINUOUS
 62
     7
100
AcDbLine
 10
445.785881
 20
724.549998
 30
0.0
 11
445.785881
 21
724.249999
 31
0.0
  0
LINE
  5
14E9
100
AcDbEntity
  8
11000_LEFT
370
    25
390
0
  6
CONTINUOUS
 62
     7
100
AcDbLine
 10
445.785881
 20
724.249999
 30
0.0
 11
445.921156
 21
723.482822
 31
0.0
  0
ARC
  5
14EA
100
AcDbEntity
  8
11000_LEFT
370
    25
390
0
  6
CONTINUOUS
 62
     7
100
AcDbCircle
 10
446.315486
 20
723.550015
 30
0.0
 40
0.400014
100
AcDbArc
 50
189.670177
 51
269.999294
  0
LINE
  5
14EB
100
AcDbEntity
  8
11000_LEFT
370
    25
390
0
  6
CONTINUOUS
 62
     7
100
AcDbLine
 10
446.315481
 20
723.150001
 30
0.0
 11
448.685881
 21
723.150001
 31
0.0
  0
LINE
  5
14EC
100
AcDbEntity
  8
11000_LEFT
370
    25
390
0
  6
CONTINUOUS
 62
     7
100
AcDbLine
 10
448.685881
 20
723.150001
 30
0.0
 11
448.685881
 21
735.05
 31
0.0
  0
ARC
  5
14ED
100
AcDbEntity
  8
11000_LEFT
370
    25
390
0
  6
CONTINUOUS
 62
     7
100
AcDbCircle
 10
444.685881
 20
735.05
 30
0.0
 40
4.0
100
AcDbArc
 50
0.0
 51
90.000001
  0
LINE
  5
14EE
100
AcDbEntity
  8
11000_LEFT
370
    25
390
0
  6
CONTINUOUS
 62
     7
100
AcDbLine
 10
444.685881
 20
739.05
 30
0.0
 11
441.885881
 21
739.05
 31
0.0
  0
LINE
  5
14EF
100
AcDbEntity
  8
11000_LEFT
370
    25
390
0
  6
CONTINUOUS
 62
     7
100
AcDbLine
 10
441.885881
 20
739.05
 30
0.0
 11
441.885881
 21
740.35
 31
0.0
  0
LINE
  5
14F0
100
AcDbEntity
  8
11000_LEFT
370
    25
390
0
  6
CONTINUOUS
 62
     7
100
AcDbLine
 10
441.885881
 20
740.35
 30
0.0
 11
443.985881
 21
740.95
 31
0.0
  0
LINE
  5
14F1
100
AcDbEntity
  8
11000_LEFT
370
    25
390
0
  6
CONTINUOUS
 62
     7
100
AcDbLine
 10
443.985881
 20
740.95
 30
0.0
 11
442.585881
 21
740.95
 31
0.0
  0
ARC
  5
14F2
100
AcDbEntity
  8
11000_LEFT
370
    25
390
0
  6
CONTINUOUS
 62
     7
100
AcDbCircle
 10
442.621543
 20
741.404996
 30
0.0
 40
0.456391
100
AcDbArc
 50
138.561009
 51
265.518381
  0
LINE
  5
14F3
100
AcDbEntity
  8
11000_LEFT
370
    25
390
0
  6
CONTINUOUS
 62
     7
100
AcDbLine
 10
442.279404
 20
741.707046
 30
0.0
 11
444.879404
 21
744.807045
 31
0.0
  0
ARC
  5
14F4
100
AcDbEntity
  8
11000_LEFT
370
    25
390
0
  6
CONTINUOUS
 62
     7
100
AcDbCircle
 10
445.185881
 20
744.55
 30
0.0
 40
0.4
100
AcDbArc
 50
90.000007
 51
140.013126
  0
LINE
  5
14F5
100
AcDbEntity
  8
11000_LEFT
370
    25
390
0
  6
CONTINUOUS
 62
     7
100
AcDbLine
 10
445.185881
 20
744.95
 30
0.0
 11
445.785881
 21
744.95
 31
0.0
  0
LINE
  5
14F6
100
AcDbEntity
  8
11100_LEFT_DIM
370
    13
390
0
  6
CONTINUOUS
 62
     7
100
AcDbLine
 10
441.885881
 20
674.44999
 30
0.0
 11
441.885881
 21
663.44999
 31
0.0
  0
TEXT
  5
14F7
100
AcDbEntity
  8
11100_LEFT_DIM
370
    13
390
0
  6
CONTINUOUS
 62
     7
100
AcDbText
 10
445.219214
 20
665.44999
 30
0.0
 40
2.0
  1
8
 72
     1
 11
445.885881
 21
665.44999
 31
0.0
100
AcDbText
  0
LINE
  5
14F8
100
AcDbEntity
  8
11100_LEFT_DIM
370
    13
390
0
  6
CONTINUOUS
 62
     7
100
AcDbLine
 10
459.885881
 20
664.44999
 30
0.0
 11
431.885881
 21
664.44999
 31
0.0
  0
LINE
  5
14F9
100
AcDbEntity
  8
11100_LEFT_DIM
370
    13
390
0
  6
CONTINUOUS
 62
     7
100
AcDbLine
 10
449.885881
 20
663.44999
 30
0.0
 11
449.885881
 21
687.04999
 31
0.0
  0
LINE
  5
14FA
100
AcDbEntity
  8
11100_LEFT_DIM
370
    13
390
0
  6
CONTINUOUS
 62
     7
100
AcDbLine
 10
441.885881
 20
674.44999
 30
0.0
 11
441.885881
 21
655.44999
 31
0.0
  0
TEXT
  5
14FB
100
AcDbEntity
  8
11100_LEFT_DIM
370
    13
390
0
  6
CONTINUOUS
 62
     7
100
AcDbText
 10
456.219214
 20
657.44999
 30
0.0
 40
2.0
  1
32
 72
     1
 11
457.885881
 21
657.44999
 31
0.0
100
AcDbText
  0
LINE
  5
14FC
100
AcDbEntity
  8
11100_LEFT_DIM
370
    13
390
0
  6
CONTINUOUS
 62
     7
100
AcDbLine
 10
441.885881
 20
656.44999
 30
0.0
 11
473.885881
 21
656.44999
 31
0.0
  0
LINE
  5
14FD
100
AcDbEntity
  8
11100_LEFT_DIM
370
    13
390
0
  6
CONTINUOUS
 62
     7
100
AcDbLine
 10
473.885881
 20
655.44999
 30
0.0
 11
473.885881
 21
674.44999
 31
0.0
  0
LINE
  5
14FE
100
AcDbEntity
  8
11100_LEFT_DIM
370
    13
390
0
  6
CONTINUOUS
 62
     7
100
AcDbLine
 10
446.885881
 20
844.45001
 30
0.0
 11
446.885881
 21
863.45001
 31
0.0
  0
TEXT
  5
14FF
100
AcDbEntity
  8
11100_LEFT_DIM
370
    13
390
0
  6
CONTINUOUS
 62
     7
100
AcDbText
 10
509.719214
 20
863.45001
 30
0.0
 40
2.0
  1
130
 72
     1
 11
511.885881
 21
863.45001
 31
0.0
100
AcDbText
  0
LINE
  5
1500
100
AcDbEntity
  8
11100_LEFT_DIM
370
    13
390
0
  6
CONTINUOUS
 62
     7
100
AcDbLine
 10
446.885881
 20
862.45001
 30
0.0
 11
576.885881
 21
862.45001
 31
0.0
  0
LINE
  5
1501
100
AcDbEntity
  8
11100_LEFT_DIM
370
    13
390
0
  6
CONTINUOUS
 62
     7
100
AcDbLine
 10
576.885881
 20
863.45001
 30
0.0
 11
576.885881
 21
830.61001
 31
0.0
  0
LINE
  5
1502
100
AcDbEntity
  8
11100_LEFT_DIM
370
    13
390
0
  6
CONTINUOUS
 62
     7
100
AcDbLine
 10
446.885881
 20
844.45001
 30
0.0
 11
446.885881
 21
871.45001
 31
0.0
  0
TEXT
  5
1503
100
AcDbEntity
  8
11100_LEFT_DIM
370
    13
390
0
  6
CONTINUOUS
 62
     7
100
AcDbText
 10
534.152548
 20
871.45001
 30
0.0
 40
2.0
  1
181.2
 72
     1
 11
537.485881
 21
871.45001
 31
0.0
100
AcDbText
  0
LINE
  5
1504
100
AcDbEntity
  8
11100_LEFT_DIM
370
    13
390
0
  6
CONTINUOUS
 62
     7
100
AcDbLine
 10
446.885881
 20
870.45001
 30
0.0
 11
628.085881
 21
870.45001
 31
0.0
  0
LINE
  5
1505
100
AcDbEntity
  8
11100_LEFT_DIM
370
    13
390
0
  6
CONTINUOUS
 62
     7
100
AcDbLine
 10
628.085881
 20
871.45001
 30
0.0
 11
628.085881
 21
759.45001
 31
0.0
  0
LINE
  5
1506
100
AcDbEntity
  8
11100_LEFT_DIM
370
    13
390
0
  6
CONTINUOUS
 62
     7
100
AcDbLine
 10
441.885881
 20
844.45001
 30
0.0
 11
441.885881
 21
855.45001
 31
0.0
  0
TEXT
  5
1507
100
AcDbEntity
  8
11100_LEFT_DIM
370
    13
390
0
  6
CONTINUOUS
 62
     7
100
AcDbText
 10
443.719214
 20
855.45001
 30
0.0
 40
2.0
  1
5
 72
     1
 11
444.385881
 21
855.45001
 31
0.0
100
AcDbText
  0
LINE
  5
1508
100
AcDbEntity
  8
11100_LEFT_DIM
370
    13
390
0
  6
CONTINUOUS
 62
     7
100
AcDbLine
 10
456.885881
 20
854.45001
 30
0.0
 11
431.885881
 21
854.45001
 31
0.0
  0
LINE
  5
1509
100
AcDbEntity
  8
11100_LEFT_DIM
370
    13
390
0
  6
CONTINUOUS
 62
     7
100
AcDbLine
 10
446.885881
 20
855.45001
 30
0.0
 11
446.885881
 21
776.95001
 31
0.0
  0
SOLID
  5
150A
100
AcDbEntity
  8
11100_LEFT_DIM
370
    13
390
0
  6
CONTINUOUS
 62
     7
100
AcDbTrace
 10
436.885881
 20
663.44999
 30
0.0
 11
441.885881
 21
664.44999
 31
0.0
 12
436.885881
 22
665.44999
 32
0.0
 13
441.885881
 23
664.44999
 33
0.0
  0
SOLID
  5
150B
100
AcDbEntity
  8
11100_LEFT_DIM
370
    13
390
0
  6
CONTINUOUS
 62
     7
100
AcDbTrace
 10
454.885881
 20
665.44999
 30
0.0
 11
449.885881
 21
664.44999
 31
0.0
 12
454.885881
 22
663.44999
 32
0.0
 13
449.885881
 23
664.44999
 33
0.0
  0
SOLID
  5
150C
100
AcDbEntity
  8
11100_LEFT_DIM
370
    13
390
0
  6
CONTINUOUS
 62
     7
100
AcDbTrace
 10
446.885881
 20
657.44999
 30
0.0
 11
441.885881
 21
656.44999
 31
0.0
 12
446.885881
 22
655.44999
 32
0.0
 13
441.885881
 23
656.44999
 33
0.0
  0
SOLID
  5
150D
100
AcDbEntity
  8
11100_LEFT_DIM
370
    13
390
0
  6
CONTINUOUS
 62
     7
100
AcDbTrace
 10
468.885881
 20
655.44999
 30
0.0
 11
473.885881
 21
656.44999
 31
0.0
 12
468.885881
 22
657.44999
 32
0.0
 13
473.885881
 23
656.44999
 33
0.0
  0
SOLID
  5
150E
100
AcDbEntity
  8
11100_LEFT_DIM
370
    13
390
0
  6
CONTINUOUS
 62
     7
100
AcDbTrace
 10
451.885881
 20
863.45001
 30
0.0
 11
446.885881
 21
862.45001
 31
0.0
 12
451.885881
 22
861.45001
 32
0.0
 13
446.885881
 23
862.45001
 33
0.0
  0
SOLID
  5
150F
100
AcDbEntity
  8
11100_LEFT_DIM
370
    13
390
0
  6
CONTINUOUS
 62
     7
100
AcDbTrace
 10
571.885881
 20
861.45001
 30
0.0
 11
576.885881
 21
862.45001
 31
0.0
 12
571.885881
 22
863.45001
 32
0.0
 13
576.885881
 23
862.45001
 33
0.0
  0
SOLID
  5
1510
100
AcDbEntity
  8
11100_LEFT_DIM
370
    13
390
0
  6
CONTINUOUS
 62
     7
100
AcDbTrace
 10
451.885881
 20
871.45001
 30
0.0
 11
446.885881
 21
870.45001
 31
0.0
 12
451.885881
 22
869.45001
 32
0.0
 13
446.885881
 23
870.45001
 33
0.0
  0
SOLID
  5
1511
100
AcDbEntity
  8
11100_LEFT_DIM
370
    13
390
0
  6
CONTINUOUS
 62
     7
100
AcDbTrace
 10
623.085881
 20
869.45001
 30
0.0
 11
628.085881
 21
870.45001
 31
0.0
 12
623.085881
 22
871.45001
 32
0.0
 13
628.085881
 23
870.45001
 33
0.0
  0
SOLID
  5
1512
100
AcDbEntity
  8
11100_LEFT_DIM
370
    13
390
0
  6
CONTINUOUS
 62
     7
100
AcDbTrace
 10
436.885881
 20
853.45001
 30
0.0
 11
441.885881
 21
854.45001
 31
0.0
 12
436.885881
 22
855.45001
 32
0.0
 13
441.885881
 23
854.45001
 33
0.0
  0
SOLID
  5
1513
100
AcDbEntity
  8
11100_LEFT_DIM
370
    13
390
0
  6
CONTINUOUS
 62
     7
100
AcDbTrace
 10
451.885881
 20
855.45001
 30
0.0
 11
446.885881
 21
854.45001
 31
0.0
 12
451.885881
 22
853.45001
 32
0.0
 13
446.885881
 23
854.45001
 33
0.0
  0
ARC
  5
1514
100
AcDbEntity
  8
15000_BACK
370
    25
390
0
  6
CENTER
 62
     7
100
AcDbCircle
 10
326.635881
 20
406.14999
 30
0.0
 40
2.5
100
AcDbArc
 50
0.0
 51
90.0
  0
LINE
  5
1515
100
AcDbEntity
  8
15000_BACK
370
    25
390
0
  6
CENTER
 62
     7
100
AcDbLine
 10
329.135881
 20
406.14999
 30
0.0
 11
329.135881
 21
404.44999
 31
0.0
  0
LINE
  5
1516
100
AcDbEntity
  8
15000_BACK
370
    25
390
0
  6
CENTER
 62
     7
100
AcDbLine
 10
329.135881
 20
404.44999
 30
0.0
 11
360.885881
 21
404.44999
 31
0.0
  0
LINE
  5
1517
100
AcDbEntity
  8
15000_BACK
370
    25
390
0
  6
CENTER
 62
     7
100
AcDbLine
 10
360.885881
 20
404.44999
 30
0.0
 11
360.885881
 21
574.44999
 31
0.0
  0
LINE
  5
1518
100
AcDbEntity
  8
15000_BACK
370
    25
390
0
  6
CENTER
 62
     7
100
AcDbLine
 10
360.885881
 20
574.44999
 30
0.0
 11
290.885881
 21
574.44999
 31
0.0
  0
LINE
  5
1519
100
AcDbEntity
  8
15000_BACK
370
    25
390
0
  6
CENTER
 62
     7
100
AcDbLine
 10
290.885881
 20
574.44999
 30
0.0
 11
290.885881
 21
404.44999
 31
0.0
  0
LINE
  5
151A
100
AcDbEntity
  8
15000_BACK
370
    25
390
0
  6
CENTER
 62
     7
100
AcDbLine
 10
290.885881
 20
404.44999
 30
0.0
 11
322.635881
 21
404.44999
 31
0.0
  0
LINE
  5
151B
100
AcDbEntity
  8
15000_BACK
370
    25
390
0
  6
CENTER
 62
     7
100
AcDbLine
 10
322.635881
 20
404.44999
 30
0.0
 11
322.635881
 21
406.14999
 31
0.0
  0
ARC
  5
151C
100
AcDbEntity
  8
15000_BACK
370
    25
390
0
  6
CENTER
 62
     7
100
AcDbCircle
 10
325.135881
 20
406.14999
 30
0.0
 40
2.5
100
AcDbArc
 50
90.0
 51
180.0
  0
LINE
  5
151D
100
AcDbEntity
  8
15000_BACK
370
    25
390
0
  6
CENTER
 62
     7
100
AcDbLine
 10
325.135881
 20
408.64999
 30
0.0
 11
326.635881
 21
408.64999
 31
0.0
  0
CIRCLE
  5
151E
100
AcDbEntity
  8
15000_BACK
370
    25
390
0
  6
CENTER
 62
     7
100
AcDbCircle
 10
295.885881
 20
409.04999
 30
0.0
 40
2.5
  0
CIRCLE
  5
151F
100
AcDbEntity
  8
15000_BACK
370
    25
390
0
  6
CENTER
 62
     7
100
AcDbCircle
 10
355.885881
 20
569.84999
 30
0.0
 40
2.5
  0
LINE
  5
1520
100
AcDbEntity
  8
15100_BACK_DIM
370
    13
390
0
  6
CONTINUOUS
 62
     7
100
AcDbLine
 10
355.885881
 20
569.44999
 30
0.0
 11
355.885881
 21
593.44999
 31
0.0
  0
TEXT
  5
1521
100
AcDbEntity
  8
15100_BACK_DIM
370
    13
390
0
  6
CONTINUOUS
 62
     7
100
AcDbText
 10
357.719214
 20
593.44999
 30
0.0
 40
2.0
  1
5
 72
     1
 11
358.385881
 21
593.44999
 31
0.0
100
AcDbText
  0
LINE
  5
1522
100
AcDbEntity
  8
15100_BACK_DIM
370
    13
390
0
  6
CONTINUOUS
 62
     7
100
AcDbLine
 10
370.885881
 20
592.44999
 30
0.0
 11
345.885881
 21
592.44999
 31
0.0
  0
LINE
  5
1523
100
AcDbEntity
  8
15100_BACK_DIM
370
    13
390
0
  6
CONTINUOUS
 62
     7
100
AcDbLine
 10
360.885881
 20
593.44999
 30
0.0
 11
360.885881
 21
574.44999
 31
0.0
  0
LINE
  5
1524
100
AcDbEntity
  8
15100_BACK_DIM
370
    13
390
0
  6
CONTINUOUS
 62
     7
100
AcDbLine
 10
295.885881
 20
409.04999
 30
0.0
 11
295.885881
 21
585.44999
 31
0.0
  0
TEXT
  5
1525
100
AcDbEntity
  8
15100_BACK_DIM
370
    13
390
0
  6
CONTINUOUS
 62
     7
100
AcDbText
 10
324.385881
 20
585.44999
 30
0.0
 40
2.0
  1
60
 72
     1
 11
325.885881
 21
585.44999
 31
0.0
100
AcDbText
  0
LINE
  5
1526
100
AcDbEntity
  8
15100_BACK_DIM
370
    13
390
0
  6
CONTINUOUS
 62
     7
100
AcDbLine
 10
295.885881
 20
584.44999
 30
0.0
 11
355.885881
 21
584.44999
 31
0.0
  0
LINE
  5
1527
100
AcDbEntity
  8
15100_BACK_DIM
370
    13
390
0
  6
CONTINUOUS
 62
     7
100
AcDbLine
 10
355.885881
 20
585.44999
 30
0.0
 11
355.885881
 21
569.84999
 31
0.0
  0
LINE
  5
1528
100
AcDbEntity
  8
15100_BACK_DIM
370
    13
390
0
  6
CONTINUOUS
 62
     7
100
AcDbLine
 10
355.885881
 20
569.84999
 30
0.0
 11
371.885881
 21
569.84999
 31
0.0
  0
TEXT
  5
1529
100
AcDbEntity
  8
15100_BACK_DIM
370
    13
390
0
  6
CONTINUOUS
 62
     7
100
AcDbText
 10
369.885881
 20
583.88749
 30
0.0
 40
2.0
  1
4.6
 50
90.0
 51
360.0
 72
     1
 11
369.885881
 21
585.88749
 31
0.0
100
AcDbText
  0
LINE
  5
152A
100
AcDbEntity
  8
15100_BACK_DIM
370
    13
390
0
  6
CONTINUOUS
 62
     7
100
AcDbLine
 10
370.885881
 20
589.82499
 30
0.0
 11
370.885881
 21
562.34999
 31
0.0
  0
LINE
  5
152B
100
AcDbEntity
  8
15100_BACK_DIM
370
    13
390
0
  6
CONTINUOUS
 62
     7
100
AcDbLine
 10
371.885881
 20
574.44999
 30
0.0
 11
360.885881
 21
574.44999
 31
0.0
  0
LINE
  5
152C
100
AcDbEntity
  8
15100_BACK_DIM
370
    13
390
0
  6
CONTINUOUS
 62
     7
100
AcDbLine
 10
295.885881
 20
409.04999
 30
0.0
 11
371.885881
 21
409.04999
 31
0.0
  0
TEXT
  5
152D
100
AcDbEntity
  8
15100_BACK_DIM
370
    13
390
0
  6
CONTINUOUS
 62
     7
100
AcDbText
 10
369.885881
 20
485.94999
 30
0.0
 40
2.0
  1
160.8
 50
90.0
 51
360.0
 72
     1
 11
369.885881
 21
489.44999
 31
0.0
100
AcDbText
  0
LINE
  5
152E
100
AcDbEntity
  8
15100_BACK_DIM
370
    13
390
0
  6
CONTINUOUS
 62
     7
100
AcDbLine
 10
370.885881
 20
409.04999
 30
0.0
 11
370.885881
 21
569.84999
 31
0.0
  0
LINE
  5
152F
100
AcDbEntity
  8
15100_BACK_DIM
370
    13
390
0
  6
CONTINUOUS
 62
     7
100
AcDbLine
 10
371.885881
 20
569.84999
 30
0.0
 11
355.885881
 21
569.84999
 31
0.0
  0
LINE
  5
1530
100
AcDbEntity
  8
15100_BACK_DIM
370
    13
390
0
  6
CONTINUOUS
 62
     7
100
AcDbLine
 10
295.885881
 20
409.04999
 30
0.0
 11
290.885881
 21
399.04999
 31
0.0
  0
TEXT
  5
1531
100
AcDbEntity
  8
15100_BACK_DIM
370
    13
390
0
  6
CONTINUOUS
 62
     7
100
AcDbText
 10
290.885881
 20
395.54999
 30
0.0
 40
2.0
  1
5
100
AcDbText
  0
CIRCLE
  5
1532
100
AcDbEntity
  8
15100_BACK_DIM
370
    13
390
0
  6
CONTINUOUS
 62
     7
100
AcDbCircle
 10
289.485881
 20
396.42499
 30
0.0
 40
0.875
  0
LINE
  5
1533
100
AcDbEntity
  8
15100_BACK_DIM
370
    13
390
0
  6
CONTINUOUS
 62
     7
100
AcDbLine
 10
288.610881
 20
395.54999
 30
0.0
 11
290.360881
 21
397.29999
 31
0.0
  0
SOLID
  5
1534
100
AcDbEntity
  8
15100_BACK_DIM
370
    13
390
0
  6
CONTINUOUS
 62
     7
100
AcDbTrace
 10
350.885881
 20
591.44999
 30
0.0
 11
355.885881
 21
592.44999
 31
0.0
 12
350.885881
 22
593.44999
 32
0.0
 13
355.885881
 23
592.44999
 33
0.0
  0
SOLID
  5
1535
100
AcDbEntity
  8
15100_BACK_DIM
370
    13
390
0
  6
CONTINUOUS
 62
     7
100
AcDbTrace
 10
365.885881
 20
593.44999
 30
0.0
 11
360.885881
 21
592.44999
 31
0.0
 12
365.885881
 22
591.44999
 32
0.0
 13
360.885881
 23
592.44999
 33
0.0
  0
SOLID
  5
1536
100
AcDbEntity
  8
15100_BACK_DIM
370
    13
390
0
  6
CONTINUOUS
 62
     7
100
AcDbTrace
 10
300.885881
 20
585.44999
 30
0.0
 11
295.885881
 21
584.44999
 31
0.0
 12
300.885881
 22
583.44999
 32
0.0
 13
295.885881
 23
584.44999
 33
0.0
  0
SOLID
  5
1537
100
AcDbEntity
  8
15100_BACK_DIM
370
    13
390
0
  6
CONTINUOUS
 62
     7
100
AcDbTrace
 10
350.885881
 20
583.44999
 30
0.0
 11
355.885881
 21
584.44999
 31
0.0
 12
350.885881
 22
585.44999
 32
0.0
 13
355.885881
 23
584.44999
 33
0.0
  0
SOLID
  5
1538
100
AcDbEntity
  8
15100_BACK_DIM
370
    13
390
0
  6
CONTINUOUS
 62
     7
100
AcDbTrace
 10
371.885881
 20
564.84999
 30
0.0
 11
370.885881
 21
569.84999
 31
0.0
 12
369.885881
 22
564.84999
 32
0.0
 13
370.885881
 23
569.84999
 33
0.0
  0
SOLID
  5
1539
100
AcDbEntity
  8
15100_BACK_DIM
370
    13
390
0
  6
CONTINUOUS
 62
     7
100
AcDbTrace
 10
369.885881
 20
579.44999
 30
0.0
 11
370.885881
 21
574.44999
 31
0.0
 12
371.885881
 22
579.44999
 32
0.0
 13
370.885881
 23
574.44999
 33
0.0
  0
SOLID
  5
153A
100
AcDbEntity
  8
15100_BACK_DIM
370
    13
390
0
  6
CONTINUOUS
 62
     7
100
AcDbTrace
 10
369.885881
 20
414.04999
 30
0.0
 11
370.885881
 21
409.04999
 31
0.0
 12
371.885881
 22
414.04999
 32
0.0
 13
370.885881
 23
409.04999
 33
0.0
  0
LINE
  5
153B
100
AcDbEntity
  8
15100_BACK_DIM
370
    13
390
0
  6
CONTINUOUS
 62
     7
100
AcDbLine
 10
369.885881
 20
564.84999
 30
0.0
 11
371.885881
 21
564.84999
 31
0.0
  0
LINE
  5
153C
100
AcDbEntity
  8
15100_BACK_DIM
370
    13
390
0
  6
CONTINUOUS
 62
     7
100
AcDbLine
 10
371.885881
 20
564.84999
 30
0.0
 11
370.885881
 21
569.84999
 31
0.0
  0
LINE
  5
153D
100
AcDbEntity
  8
15100_BACK_DIM
370
    13
390
0
  6
CONTINUOUS
 62
     7
100
AcDbLine
 10
369.885881
 20
564.84999
 30
0.0
 11
370.885881
 21
569.84999
 31
0.0
  0
LINE
  5
153E
100
AcDbEntity
  8
90000_FRAME
370
    13
  6
CONTINUOUS
 62
     7
100
AcDbLine
 10
152.112216
 20
178.490575
 30
0.0
 11
152.112216
 21
988.490575
 31
0.0
  0
LINE
  5
153F
100
AcDbEntity
  8
90000_FRAME
370
    13
  6
CONTINUOUS
 62
     7
100
AcDbLine
 10
752.112216
 20
988.490575
 30
0.0
 11
152.112216
 21
988.490575
 31
0.0
  0
LINE
  5
1540
100
AcDbEntity
  8
91000_TIP
370
    13
  6
CONTINUOUS
 62
     7
100
AcDbLine
 10
246.250598
 20
227.120848
 30
0.0
 11
276.250598
 21
234.620848
 31
0.0
  0
LINE
  5
1541
100
AcDbEntity
  8
91000_TIP
370
    13
  6
CONTINUOUS
 62
     7
100
AcDbLine
 10
242.412067
 20
219.620848
 30
0.0
 11
313.218035
 21
219.620848
 31
0.0
  0
LINE
  5
1542
100
AcDbEntity
  8
91000_TIP
370
    13
  6
CONTINUOUS
 62
     7
100
AcDbLine
 10
246.250598
 20
212.120848
 30
0.0
 11
276.250598
 21
204.620848
 31
0.0
  0
LINE
  5
1543
100
AcDbEntity
  8
91000_TIP
370
    13
  6
CONTINUOUS
 62
     7
100
AcDbLine
 10
246.250598
 20
227.120848
 30
0.0
 11
246.250598
 21
212.120848
 31
0.0
  0
LINE
  5
1544
100
AcDbEntity
  8
91000_TIP
370
    13
  6
CONTINUOUS
 62
     7
100
AcDbLine
 10
276.250598
 20
234.620848
 30
0.0
 11
276.250598
 21
204.620848
 31
0.0
  0
LINE
  5
1545
100
AcDbEntity
  8
91000_TIP
370
    13
  6
CONTINUOUS
 62
     7
100
AcDbLine
 10
295.750597
 20
202.456404
 30
0.0
 11
295.750597
 21
236.306562
 31
0.0
  0
CIRCLE
  5
1546
100
AcDbEntity
  8
91000_TIP
370
    13
  6
CONTINUOUS
 62
     7
100
AcDbCircle
 10
295.750597
 20
219.620848
 30
0.0
 40
15.0
  0
CIRCLE
  5
1547
100
AcDbEntity
  8
91000_TIP
370
    13
  6
CONTINUOUS
 62
     7
100
AcDbCircle
 10
295.750597
 20
219.620848
 30
0.0
 40
7.5
  0
TEXT
  5
1548
100
AcDbEntity
  8
90000_FRAME
370
    13
  6
CONTINUOUS
 62
     7
100
AcDbText
 10
333.790838
 20
252.823687
 30
0.0
 40
6.6
  1
All dimensions are in millimeters (mm)
 41
0.961374
100
AcDbText
  0
TEXT
  5
1549
100
AcDbEntity
  8
90000_FRAME
370
    13
  6
CONTINUOUS
 62
     7
100
AcDbText
 10
333.790838
 20
262.210754
 30
0.0
 40
6.6
  1
Alle Bemassungswerte sind in Millimeter (mm) angegeben.
 41
0.825144
100
AcDbText
  0
LINE
  5
154A
100
AcDbEntity
  8
90000_FRAME
370
    13
  6
CONTINUOUS
 62
     7
100
AcDbLine
 10
752.112216
 20
178.490575
 30
0.0
 11
752.112216
 21
988.490575
 31
0.0
  0
LINE
  5
154B
100
AcDbEntity
  8
90000_FRAME
370
    13
  6
CONTINUOUS
 62
     7
100
AcDbLine
 10
752.112216
 20
178.490575
 30
0.0
 11
152.112216
 21
178.490575
 31
0.0
  0
TEXT
  5
154C
100
AcDbEntity
  8
90000_FRAME
370
    13
  6
CONTINUOUS
 62
     7
100
AcDbText
 10
486.456466
 20
231.6
 30
0.0
 40
9.0
  1

 41
0.784213
100
AcDbText
  0
TEXT
  5
154D
100
AcDbEntity
  8
90000_FRAME
370
    13
  6
CONTINUOUS
 62
     7
100
AcDbText
 10
611.592216
 20
199.190575
 30
0.0
 40
6.6
  1
Massstab/Scale:
 41
0.9
100
AcDbText
  0
TEXT
  5
154E
100
AcDbEntity
  8
90000_FRAME
370
    13
  6
CONTINUOUS
 62
     7
100
AcDbText
 10
486.0
 20
199.190575
 30
0.0
 40
6.6
  1
Format/Size: DIN A4
 41
0.803258
100
AcDbText
  0
LINE
  5
154F
100
AcDbEntity
  8
90000_FRAME
370
    13
  6
CONTINUOUS
 62
     7
100
AcDbLine
 10
737.112216
 20
193.490575
 30
0.0
 11
737.112216
 21
247.490575
 31
0.0
  0
LINE
  5
1550
100
AcDbEntity
  8
90000_FRAME
370
    13
  6
CONTINUOUS
 62
     7
100
AcDbLine
 10
609.612216
 20
193.490575
 30
0.0
 11
609.612216
 21
211.490575
 31
0.0
  0
LINE
  5
1551
100
AcDbEntity
  8
90000_FRAME
370
    13
  6
CONTINUOUS
 62
     7
100
AcDbLine
 10
482.112216
 20
193.490575
 30
0.0
 11
482.112216
 21
247.490575
 31
0.0
  0
LINE
  5
1552
100
AcDbEntity
  8
90000_FRAME
370
    13
  6
CONTINUOUS
 62
     7
100
AcDbLine
 10
332.112216
 20
247.490575
 30
0.0
 11
737.112216
 21
247.490575
 31
0.0
  0
LINE
  5
1553
100
AcDbEntity
  8
90000_FRAME
370
    13
  6
CONTINUOUS
 62
     7
100
AcDbLine
 10
482.112216
 20
211.490575
 30
0.0
 11
737.112216
 21
211.490575
 31
0.0
  0
LINE
  5
1554
100
AcDbEntity
  8
90000_FRAME
370
    13
  6
CONTINUOUS
 62
     7
100
AcDbLine
 10
332.112216
 20
193.490575
 30
0.0
 11
332.112216
 21
247.490575
 31
0.0
  0
LINE
  5
1555
100
AcDbEntity
  8
90000_FRAME
370
    13
  6
CONTINUOUS
 62
     7
100
AcDbLine
 10
332.112216
 20
193.490575
 30
0.0
 11
737.112216
 21
193.490575
 31
0.0
  0
LINE
  5
1556
100
AcDbEntity
  8
90000_FRAME
370
    13
  6
CONTINUOUS
 62
     7
100
AcDbLine
 10
374.670817
 20
227.734219
 30
0.0
 11
374.670817
 21
213.474411
 31
0.0
  0
LINE
  5
1557
100
AcDbEntity
  8
90000_FRAME
370
    13
  6
CONTINUOUS
 62
     7
100
AcDbLine
 10
378.948759
 20
227.734219
 30
0.0
 11
378.948759
 21
213.474411
 31
0.0
  0
LINE
  5
1558
100
AcDbEntity
  8
90000_FRAME
370
    13
  6
CONTINUOUS
 62
     7
100
AcDbLine
 10
374.670817
 20
213.474411
 30
0.0
 11
378.948759
 21
213.474411
 31
0.0
  0
LINE
  5
1559
100
AcDbEntity
  8
90000_FRAME
370
    13
  6
CONTINUOUS
 62
     7
100
AcDbLine
 10
374.670817
 20
227.734219
 30
0.0
 11
378.948759
 21
227.734219
 31
0.0
  0
LINE
  5
155A
100
AcDbEntity
  8
90000_FRAME
370
    13
  6
CONTINUOUS
 62
     7
100
AcDbLine
 10
382.228515
 20
227.734219
 30
0.0
 11
382.228515
 21
213.474411
 31
0.0
  0
LINE
  5
155B
100
AcDbEntity
  8
90000_FRAME
370
    13
  6
CONTINUOUS
 62
     7
100
AcDbLine
 10
382.228515
 20
213.474411
 30
0.0
 11
392.923371
 21
213.474411
 31
0.0
  0
LINE
  5
155C
100
AcDbEntity
  8
90000_FRAME
370
    13
  6
CONTINUOUS
 62
     7
100
AcDbLine
 10
392.923371
 20
216.183775
 30
0.0
 11
386.363859
 21
216.183775
 31
0.0
  0
LINE
  5
155D
100
AcDbEntity
  8
90000_FRAME
370
    13
  6
CONTINUOUS
 62
     7
100
AcDbLine
 10
392.923371
 20
216.183775
 30
0.0
 11
392.923371
 21
213.474411
 31
0.0
  0
LINE
  5
155E
100
AcDbEntity
  8
90000_FRAME
370
    13
  6
CONTINUOUS
 62
     7
100
AcDbLine
 10
392.780772
 20
227.734219
 30
0.0
 11
382.228515
 21
227.734219
 31
0.0
  0
LINE
  5
155F
100
AcDbEntity
  8
90000_FRAME
370
    13
  6
CONTINUOUS
 62
     7
100
AcDbLine
 10
392.780772
 20
225.096154
 30
0.0
 11
386.363859
 21
225.096154
 31
0.0
  0
LINE
  5
1560
100
AcDbEntity
  8
90000_FRAME
370
    13
  6
CONTINUOUS
 62
     7
100
AcDbLine
 10
392.780772
 20
227.734219
 30
0.0
 11
392.780772
 21
225.096154
 31
0.0
  0
LINE
  5
1561
100
AcDbEntity
  8
90000_FRAME
370
    13
  6
CONTINUOUS
 62
     7
100
AcDbLine
 10
391.925184
 20
219.534829
 30
0.0
 11
386.363859
 21
219.534829
 31
0.0
  0
LINE
  5
1562
100
AcDbEntity
  8
90000_FRAME
370
    13
  6
CONTINUOUS
 62
     7
100
AcDbLine
 10
391.925184
 20
221.887698
 30
0.0
 11
391.925184
 21
219.534829
 31
0.0
  0
LINE
  5
1563
100
AcDbEntity
  8
90000_FRAME
370
    13
  6
CONTINUOUS
 62
     7
100
AcDbLine
 10
391.925184
 20
221.887698
 30
0.0
 11
386.363859
 21
221.887698
 31
0.0
  0
LINE
  5
1564
100
AcDbEntity
  8
90000_FRAME
370
    13
  6
CONTINUOUS
 62
     7
100
AcDbLine
 10
386.363859
 20
225.096154
 30
0.0
 11
386.363859
 21
221.887698
 31
0.0
  0
LINE
  5
1565
100
AcDbEntity
  8
90000_FRAME
370
    13
  6
CONTINUOUS
 62
     7
100
AcDbLine
 10
386.363859
 20
219.534829
 30
0.0
 11
386.363859
 21
216.183775
 31
0.0
  0
LINE
  5
1566
100
AcDbEntity
  8
90000_FRAME
370
    13
  6
CONTINUOUS
 62
     7
100
AcDbLine
 10
395.347538
 20
213.474411
 30
0.0
 11
395.347538
 21
227.734219
 31
0.0
  0
LINE
  5
1567
100
AcDbEntity
  8
90000_FRAME
370
    13
  6
CONTINUOUS
 62
     7
100
AcDbLine
 10
395.347538
 20
213.474411
 30
0.0
 11
398.199499
 21
213.474411
 31
0.0
  0
LINE
  5
1568
100
AcDbEntity
  8
90000_FRAME
370
    13
  6
CONTINUOUS
 62
     7
100
AcDbLine
 10
412.887101
 20
227.734219
 30
0.0
 11
412.887101
 21
213.474411
 31
0.0
  0
LINE
  5
1569
100
AcDbEntity
  8
90000_FRAME
370
    13
  6
CONTINUOUS
 62
     7
100
AcDbLine
 10
412.887101
 20
213.474411
 30
0.0
 11
408.751757
 21
213.474411
 31
0.0
  0
LINE
  5
156A
100
AcDbEntity
  8
90000_FRAME
370
    13
  6
CONTINUOUS
 62
     7
100
AcDbLine
 10
402.192245
 20
213.331813
 30
0.0
 11
404.759011
 21
213.331813
 31
0.0
  0
LINE
  5
156B
100
AcDbEntity
  8
90000_FRAME
370
    13
  6
CONTINUOUS
 62
     7
100
AcDbLine
 10
402.192245
 20
213.331813
 30
0.0
 11
398.199499
 21
222.600688
 31
0.0
  0
LINE
  5
156C
100
AcDbEntity
  8
90000_FRAME
370
    13
  6
CONTINUOUS
 62
     7
100
AcDbLine
 10
398.199499
 20
213.474411
 30
0.0
 11
398.199499
 21
222.600688
 31
0.0
  0
LINE
  5
156D
100
AcDbEntity
  8
90000_FRAME
370
    13
  6
CONTINUOUS
 62
     7
100
AcDbLine
 10
408.751757
 20
222.743286
 30
0.0
 11
404.759011
 21
213.331813
 31
0.0
  0
LINE
  5
156E
100
AcDbEntity
  8
90000_FRAME
370
    13
  6
CONTINUOUS
 62
     7
100
AcDbLine
 10
400.481068
 20
227.734219
 30
0.0
 11
395.347538
 21
227.734219
 31
0.0
  0
LINE
  5
156F
100
AcDbEntity
  8
90000_FRAME
370
    13
  6
CONTINUOUS
 62
     7
100
AcDbLine
 10
412.887101
 20
227.734219
 30
0.0
 11
407.75357
 21
227.734219
 31
0.0
  0
LINE
  5
1570
100
AcDbEntity
  8
90000_FRAME
370
    13
  6
CONTINUOUS
 62
     7
100
AcDbLine
 10
400.481068
 20
227.734219
 30
0.0
 11
404.188618
 21
219.035736
 31
0.0
  0
LINE
  5
1571
100
AcDbEntity
  8
90000_FRAME
370
    13
  6
CONTINUOUS
 62
     7
100
AcDbLine
 10
407.75357
 20
227.734219
 30
0.0
 11
404.188618
 21
219.035736
 31
0.0
  0
LINE
  5
1572
100
AcDbEntity
  8
90000_FRAME
370
    13
  6
CONTINUOUS
 62
     7
100
AcDbLine
 10
408.751757
 20
222.743286
 30
0.0
 11
408.751757
 21
213.474411
 31
0.0
  0
LINE
  5
1573
100
AcDbEntity
  8
90000_FRAME
370
    13
  6
CONTINUOUS
 62
     7
100
AcDbLine
 10
416.166856
 20
227.734219
 30
0.0
 11
416.166856
 21
213.474411
 31
0.0
  0
LINE
  5
1574
100
AcDbEntity
  8
90000_FRAME
370
    13
  6
CONTINUOUS
 62
     7
100
AcDbLine
 10
416.166856
 20
213.474411
 30
0.0
 11
426.861712
 21
213.474411
 31
0.0
  0
LINE
  5
1575
100
AcDbEntity
  8
90000_FRAME
370
    13
  6
CONTINUOUS
 62
     7
100
AcDbLine
 10
426.861712
 20
216.183775
 30
0.0
 11
420.3022
 21
216.183775
 31
0.0
  0
LINE
  5
1576
100
AcDbEntity
  8
90000_FRAME
370
    13
  6
CONTINUOUS
 62
     7
100
AcDbLine
 10
426.861712
 20
216.183775
 30
0.0
 11
426.861712
 21
213.474411
 31
0.0
  0
LINE
  5
1577
100
AcDbEntity
  8
90000_FRAME
370
    13
  6
CONTINUOUS
 62
     7
100
AcDbLine
 10
426.719114
 20
227.734219
 30
0.0
 11
416.166856
 21
227.734219
 31
0.0
  0
LINE
  5
1578
100
AcDbEntity
  8
90000_FRAME
370
    13
  6
CONTINUOUS
 62
     7
100
AcDbLine
 10
426.719114
 20
225.096154
 30
0.0
 11
420.3022
 21
225.096154
 31
0.0
  0
LINE
  5
1579
100
AcDbEntity
  8
90000_FRAME
370
    13
  6
CONTINUOUS
 62
     7
100
AcDbLine
 10
426.719114
 20
227.734219
 30
0.0
 11
426.719114
 21
225.096154
 31
0.0
  0
LINE
  5
157A
100
AcDbEntity
  8
90000_FRAME
370
    13
  6
CONTINUOUS
 62
     7
100
AcDbLine
 10
425.863525
 20
219.534829
 30
0.0
 11
420.3022
 21
219.534829
 31
0.0
  0
LINE
  5
157B
100
AcDbEntity
  8
90000_FRAME
370
    13
  6
CONTINUOUS
 62
     7
100
AcDbLine
 10
425.863525
 20
221.887698
 30
0.0
 11
425.863525
 21
219.534829
 31
0.0
  0
LINE
  5
157C
100
AcDbEntity
  8
90000_FRAME
370
    13
  6
CONTINUOUS
 62
     7
100
AcDbLine
 10
425.863525
 20
221.887698
 30
0.0
 11
420.3022
 21
221.887698
 31
0.0
  0
LINE
  5
157D
100
AcDbEntity
  8
90000_FRAME
370
    13
  6
CONTINUOUS
 62
     7
100
AcDbLine
 10
420.3022
 20
225.096154
 30
0.0
 11
420.3022
 21
221.887698
 31
0.0
  0
LINE
  5
157E
100
AcDbEntity
  8
90000_FRAME
370
    13
  6
CONTINUOUS
 62
     7
100
AcDbLine
 10
420.3022
 20
219.534829
 30
0.0
 11
420.3022
 21
216.183775
 31
0.0
  0
LINE
  5
157F
100
AcDbEntity
  8
90000_FRAME
370
    13
  6
CONTINUOUS
 62
     7
100
AcDbLine
 10
429.21458
 20
213.474411
 30
0.0
 11
429.21458
 21
227.734219
 31
0.0
  0
LINE
  5
1580
100
AcDbEntity
  8
90000_FRAME
370
    13
  6
CONTINUOUS
 62
     7
100
AcDbLine
 10
441.76321
 20
227.734219
 30
0.0
 11
441.76321
 21
213.474411
 31
0.0
  0
LINE
  5
1581
100
AcDbEntity
  8
90000_FRAME
370
    13
  6
CONTINUOUS
 62
     7
100
AcDbLine
 10
429.21458
 20
213.474411
 30
0.0
 11
432.066541
 21
213.474411
 31
0.0
  0
LINE
  5
1582
100
AcDbEntity
  8
90000_FRAME
370
    13
  6
CONTINUOUS
 62
     7
100
AcDbLine
 10
441.76321
 20
227.734219
 30
0.0
 11
438.911249
 21
227.734219
 31
0.0
  0
LINE
  5
1583
100
AcDbEntity
  8
90000_FRAME
370
    13
  6
CONTINUOUS
 62
     7
100
AcDbLine
 10
433.849017
 20
227.734219
 30
0.0
 11
429.21458
 21
227.734219
 31
0.0
  0
LINE
  5
1584
100
AcDbEntity
  8
90000_FRAME
370
    13
  6
CONTINUOUS
 62
     7
100
AcDbLine
 10
441.76321
 20
213.474411
 30
0.0
 11
437.200072
 21
213.474411
 31
0.0
  0
LINE
  5
1585
100
AcDbEntity
  8
90000_FRAME
370
    13
  6
CONTINUOUS
 62
     7
100
AcDbLine
 10
437.200072
 20
213.474411
 30
0.0
 11
432.066541
 21
222.600688
 31
0.0
  0
LINE
  5
1586
100
AcDbEntity
  8
90000_FRAME
370
    13
  6
CONTINUOUS
 62
     7
100
AcDbLine
 10
433.849017
 20
227.734219
 30
0.0
 11
438.911249
 21
218.893138
 31
0.0
  0
LINE
  5
1587
100
AcDbEntity
  8
90000_FRAME
370
    13
  6
CONTINUOUS
 62
     7
100
AcDbLine
 10
438.911249
 20
227.734219
 30
0.0
 11
438.911249
 21
218.893138
 31
0.0
  0
LINE
  5
1588
100
AcDbEntity
  8
90000_FRAME
370
    13
  6
CONTINUOUS
 62
     7
100
AcDbLine
 10
432.066541
 20
213.474411
 30
0.0
 11
432.066541
 21
222.600688
 31
0.0
  0
LINE
  5
1589
100
AcDbEntity
  8
90000_FRAME
370
    13
  6
CONTINUOUS
 62
     7
100
AcDbLine
 10
444.187378
 20
213.759607
 30
0.0
 11
444.187378
 21
216.611569
 31
0.0
  0
LINE
  5
158A
100
AcDbEntity
  8
90000_FRAME
370
    13
  6
CONTINUOUS
 62
     7
100
AcDbLine
 10
454.169243
 20
224.739659
 30
0.0
 11
454.169243
 21
227.591621
 31
0.0
  0
ARC
  5
158B
100
AcDbEntity
  8
90000_FRAME
370
    13
  6
CONTINUOUS
 62
     7
100
AcDbCircle
 10
449.301301
 20
219.345887
 30
0.0
 40
3.334858
100
AcDbArc
 50
277.709996
 51
295.688493
  0
ARC
  5
158C
100
AcDbEntity
  8
90000_FRAME
370
    13
  6
CONTINUOUS
 62
     7
100
AcDbCircle
 10
450.154231
 20
217.17141
 30
0.0
 40
1.020507
100
AcDbArc
 50
305.503221
 51
72.46529
  0
ARC
  5
158D
100
AcDbEntity
  8
90000_FRAME
370
    13
  6
CONTINUOUS
 62
     7
100
AcDbCircle
 10
448.456249
 20
227.37653
 30
0.0
 40
14.270384
100
AcDbArc
 50
252.59392
 51
280.98166
  0
ARC
  5
158E
100
AcDbEntity
  8
90000_FRAME
370
    13
  6
CONTINUOUS
 62
     7
100
AcDbCircle
 10
449.820756
 20
219.522489
 30
0.0
 40
6.30218
100
AcDbArc
 50
282.405836
 51
311.864443
  0
ARC
  5
158F
100
AcDbEntity
  8
90000_FRAME
370
    13
  6
CONTINUOUS
 62
     7
100
AcDbCircle
 10
449.000063
 20
224.347514
 30
0.0
 40
0.908888
100
AcDbArc
 50
154.440035
 51
221.82017
  0
ARC
  5
1590
100
AcDbEntity
  8
90000_FRAME
370
    13
  6
CONTINUOUS
 62
     7
100
AcDbCircle
 10
449.237726
 20
224.109851
 30
0.0
 40
1.230927
100
AcDbArc
 50
102.828783
 51
149.225964
  0
ARC
  5
1591
100
AcDbEntity
  8
90000_FRAME
370
    13
  6
CONTINUOUS
 62
     7
100
AcDbCircle
 10
450.488806
 20
218.882845
 30
0.0
 40
6.60551
100
AcDbArc
 50
84.040006
 51
103.342766
  0
ARC
  5
1592
100
AcDbEntity
  8
90000_FRAME
370
    13
  6
CONTINUOUS
 62
     7
100
AcDbCircle
 10
449.465915
 20
211.630753
 30
0.0
 40
13.927121
100
AcDbArc
 50
70.262586
 51
82.952419
  0
ARC
  5
1593
100
AcDbEntity
  8
90000_FRAME
370
    13
  6
CONTINUOUS
 62
     7
100
AcDbCircle
 10
447.92386
 20
225.645622
 30
0.0
 40
9.776268
100
AcDbArc
 50
247.530021
 51
280.757952
  0
ARC
  5
1594
100
AcDbEntity
  8
90000_FRAME
370
    13
  6
CONTINUOUS
 62
     7
100
AcDbCircle
 10
428.768961
 20
170.891062
 30
0.0
 40
51.994825
100
AcDbArc
 50
65.341467
 51
67.399777
  0
ARC
  5
1595
100
AcDbEntity
  8
90000_FRAME
370
    13
  6
CONTINUOUS
 62
     7
100
AcDbCircle
 10
461.156548
 20
248.268341
 30
0.0
 40
31.887493
100
AcDbArc
 50
242.86201
 51
247.104203
  0
ARC
  5
1596
100
AcDbEntity
  8
90000_FRAME
370
    13
  6
CONTINUOUS
 62
     7
100
AcDbCircle
 10
449.591845
 20
225.666547
 30
0.0
 40
6.498875
100
AcDbArc
 50
227.311928
 51
242.704032
  0
ARC
  5
1597
100
AcDbEntity
  8
90000_FRAME
370
    13
  6
CONTINUOUS
 62
     7
100
AcDbCircle
 10
447.779752
 20
223.549514
 30
0.0
 40
3.715565
100
AcDbArc
 50
194.795219
 51
225.717655
  0
ARC
  5
1598
100
AcDbEntity
  8
90000_FRAME
370
    13
  6
CONTINUOUS
 62
     7
100
AcDbCircle
 10
447.966226
 20
223.670174
 30
0.0
 40
3.927276
100
AcDbArc
 50
164.197486
 51
195.802514
  0
ARC
  5
1599
100
AcDbEntity
  8
90000_FRAME
370
    13
  6
CONTINUOUS
 62
     7
100
AcDbCircle
 10
449.637298
 20
221.005372
 30
0.0
 40
7.100774
100
AcDbArc
 50
86.221802
 51
120.42726
  0
ARC
  5
159A
100
AcDbEntity
  8
90000_FRAME
370
    13
  6
CONTINUOUS
 62
     7
100
AcDbCircle
 10
448.830727
 20
200.916869
 30
0.0
 40
27.203715
100
AcDbArc
 50
78.682705
 51
87.31476
  0
ARC
  5
159B
100
AcDbEntity
  8
90000_FRAME
370
    13
  6
CONTINUOUS
 62
     7
100
AcDbCircle
 10
447.46252
 20
223.992697
 30
0.0
 40
3.359242
100
AcDbArc
 50
142.813918
 51
167.152295
  0
ARC
  5
159C
100
AcDbEntity
  8
90000_FRAME
370
    13
  6
CONTINUOUS
 62
     7
100
AcDbCircle
 10
448.498448
 20
223.072952
 30
0.0
 40
4.74164
100
AcDbArc
 50
121.214095
 51
141.525477
  0
ARC
  5
159D
100
AcDbEntity
  8
90000_FRAME
370
    13
  6
CONTINUOUS
 62
     7
100
AcDbCircle
 10
450.229971
 20
225.506124
 30
0.0
 40
2.598383
100
AcDbArc
 50
222.776039
 51
239.036243
  0
ARC
  5
159E
100
AcDbEntity
  8
90000_FRAME
370
    13
  6
CONTINUOUS
 62
     7
100
AcDbCircle
 10
442.709842
 20
203.515307
 30
0.0
 40
20.576321
100
AcDbArc
 50
59.902027
 51
68.203648
  0
ARC
  5
159F
100
AcDbEntity
  8
90000_FRAME
370
    13
  6
CONTINUOUS
 62
     7
100
AcDbCircle
 10
452.935326
 20
230.292967
 30
0.0
 40
8.096223
100
AcDbArc
 50
240.0482
 51
251.377967
  0
ARC
  5
15A0
100
AcDbEntity
  8
90000_FRAME
370
    13
  6
CONTINUOUS
 62
     7
100
AcDbCircle
 10
450.938954
 20
217.822271
 30
0.0
 40
4.300342
100
AcDbArc
 50
315.890455
 51
333.522926
  0
ARC
  5
15A1
100
AcDbEntity
  8
90000_FRAME
370
    13
  6
CONTINUOUS
 62
     7
100
AcDbCircle
 10
450.952869
 20
217.662049
 30
0.0
 40
4.218686
100
AcDbArc
 50
335.386797
 51
24.391512
  0
ARC
  5
15A2
100
AcDbEntity
  8
90000_FRAME
370
    13
  6
CONTINUOUS
 62
     7
100
AcDbCircle
 10
450.736254
 20
217.428479
 30
0.0
 40
4.514108
100
AcDbArc
 50
25.956292
 51
59.483483
  0
LINE
  5
15A3
100
AcDbEntity
  8
90000_FRAME
370
    13
  6
CONTINUOUS
 62
     7
100
AcDbLine
 10
361.409196
 20
213.759607
 30
0.0
 11
361.409196
 21
216.611569
 31
0.0
  0
LINE
  5
15A4
100
AcDbEntity
  8
90000_FRAME
370
    13
  6
CONTINUOUS
 62
     7
100
AcDbLine
 10
371.391062
 20
224.739659
 30
0.0
 11
371.391062
 21
227.591621
 31
0.0
  0
ARC
  5
15A5
100
AcDbEntity
  8
90000_FRAME
370
    13
  6
CONTINUOUS
 62
     7
100
AcDbCircle
 10
366.52312
 20
219.345887
 30
0.0
 40
3.334858
100
AcDbArc
 50
277.709996
 51
295.688493
  0
ARC
  5
15A6
100
AcDbEntity
  8
90000_FRAME
370
    13
  6
CONTINUOUS
 62
     7
100
AcDbCircle
 10
367.37605
 20
217.17141
 30
0.0
 40
1.020507
100
AcDbArc
 50
305.503221
 51
72.46529
  0
ARC
  5
15A7
100
AcDbEntity
  8
90000_FRAME
370
    13
  6
CONTINUOUS
 62
     7
100
AcDbCircle
 10
365.678068
 20
227.37653
 30
0.0
 40
14.270384
100
AcDbArc
 50
252.59392
 51
280.98166
  0
ARC
  5
15A8
100
AcDbEntity
  8
90000_FRAME
370
    13
  6
CONTINUOUS
 62
     7
100
AcDbCircle
 10
367.042574
 20
219.522489
 30
0.0
 40
6.30218
100
AcDbArc
 50
282.405836
 51
311.864443
  0
ARC
  5
15A9
100
AcDbEntity
  8
90000_FRAME
370
    13
  6
CONTINUOUS
 62
     7
100
AcDbCircle
 10
366.221881
 20
224.347514
 30
0.0
 40
0.908888
100
AcDbArc
 50
154.440035
 51
221.82017
  0
ARC
  5
15AA
100
AcDbEntity
  8
90000_FRAME
370
    13
  6
CONTINUOUS
 62
     7
100
AcDbCircle
 10
366.459545
 20
224.109851
 30
0.0
 40
1.230927
100
AcDbArc
 50
102.828783
 51
149.225964
  0
ARC
  5
15AB
100
AcDbEntity
  8
90000_FRAME
370
    13
  6
CONTINUOUS
 62
     7
100
AcDbCircle
 10
367.710625
 20
218.882845
 30
0.0
 40
6.60551
100
AcDbArc
 50
84.040006
 51
103.342766
  0
ARC
  5
15AC
100
AcDbEntity
  8
90000_FRAME
370
    13
  6
CONTINUOUS
 62
     7
100
AcDbCircle
 10
366.687734
 20
211.630753
 30
0.0
 40
13.927121
100
AcDbArc
 50
70.262586
 51
82.952419
  0
ARC
  5
15AD
100
AcDbEntity
  8
90000_FRAME
370
    13
  6
CONTINUOUS
 62
     7
100
AcDbCircle
 10
365.145679
 20
225.645622
 30
0.0
 40
9.776268
100
AcDbArc
 50
247.530021
 51
280.757952
  0
ARC
  5
15AE
100
AcDbEntity
  8
90000_FRAME
370
    13
  6
CONTINUOUS
 62
     7
100
AcDbCircle
 10
345.99078
 20
170.891062
 30
0.0
 40
51.994825
100
AcDbArc
 50
65.341467
 51
67.399777
  0
ARC
  5
15AF
100
AcDbEntity
  8
90000_FRAME
370
    13
  6
CONTINUOUS
 62
     7
100
AcDbCircle
 10
378.378367
 20
248.268341
 30
0.0
 40
31.887493
100
AcDbArc
 50
242.86201
 51
247.104203
  0
ARC
  5
15B0
100
AcDbEntity
  8
90000_FRAME
370
    13
  6
CONTINUOUS
 62
     7
100
AcDbCircle
 10
366.813663
 20
225.666547
 30
0.0
 40
6.498875
100
AcDbArc
 50
227.311928
 51
242.704032
  0
ARC
  5
15B1
100
AcDbEntity
  8
90000_FRAME
370
    13
  6
CONTINUOUS
 62
     7
100
AcDbCircle
 10
365.001571
 20
223.549514
 30
0.0
 40
3.715565
100
AcDbArc
 50
194.795219
 51
225.717655
  0
ARC
  5
15B2
100
AcDbEntity
  8
90000_FRAME
370
    13
  6
CONTINUOUS
 62
     7
100
AcDbCircle
 10
366.859117
 20
221.005372
 30
0.0
 40
7.100774
100
AcDbArc
 50
86.221802
 51
120.42726
  0
ARC
  5
15B3
100
AcDbEntity
  8
90000_FRAME
370
    13
  6
CONTINUOUS
 62
     7
100
AcDbCircle
 10
366.052546
 20
200.916869
 30
0.0
 40
27.203715
100
AcDbArc
 50
78.682705
 51
87.31476
  0
ARC
  5
15B4
100
AcDbEntity
  8
90000_FRAME
370
    13
  6
CONTINUOUS
 62
     7
100
AcDbCircle
 10
365.720267
 20
223.072952
 30
0.0
 40
4.74164
100
AcDbArc
 50
121.214095
 51
141.525477
  0
ARC
  5
15B5
100
AcDbEntity
  8
90000_FRAME
370
    13
  6
CONTINUOUS
 62
     7
100
AcDbCircle
 10
367.45179
 20
225.506124
 30
0.0
 40
2.598383
100
AcDbArc
 50
222.776039
 51
239.036243
  0
ARC
  5
15B6
100
AcDbEntity
  8
90000_FRAME
370
    13
  6
CONTINUOUS
 62
     7
100
AcDbCircle
 10
359.931661
 20
203.515307
 30
0.0
 40
20.576321
100
AcDbArc
 50
59.902027
 51
68.203648
  0
ARC
  5
15B7
100
AcDbEntity
  8
90000_FRAME
370
    13
  6
CONTINUOUS
 62
     7
100
AcDbCircle
 10
370.157145
 20
230.292967
 30
0.0
 40
8.096223
100
AcDbArc
 50
240.0482
 51
251.377967
  0
ARC
  5
15B8
100
AcDbEntity
  8
90000_FRAME
370
    13
  6
CONTINUOUS
 62
     7
100
AcDbCircle
 10
368.160773
 20
217.822271
 30
0.0
 40
4.300342
100
AcDbArc
 50
315.890455
 51
333.522926
  0
ARC
  5
15B9
100
AcDbEntity
  8
90000_FRAME
370
    13
  6
CONTINUOUS
 62
     7
100
AcDbCircle
 10
368.174688
 20
217.662049
 30
0.0
 40
4.218686
100
AcDbArc
 50
335.386797
 51
24.391512
  0
ARC
  5
15BA
100
AcDbEntity
  8
90000_FRAME
370
    13
  6
CONTINUOUS
 62
     7
100
AcDbCircle
 10
367.958073
 20
217.428479
 30
0.0
 40
4.514108
100
AcDbArc
 50
25.956292
 51
59.483483
  0
LINE
  5
15BB
100
AcDbEntity
  8
90000_FRAME
370
    13
  6
CONTINUOUS
 62
     7
100
AcDbLine
 10
361.984682
 20
225.991802
 30
0.0
 11
362.80688
 21
226.814021
 31
0.0
  0
ARC
  5
15BC
100
AcDbEntity
  8
90000_FRAME
370
    13
  6
CONTINUOUS
 62
     7
100
AcDbCircle
 10
365.188045
 20
223.670174
 30
0.0
 40
3.927276
100
AcDbArc
 50
164.197486
 51
195.802514
  0
ARC
  5
15BD
100
AcDbEntity
  8
90000_FRAME
370
    13
  6
CONTINUOUS
 62
     7
100
AcDbCircle
 10
364.684339
 20
223.992697
 30
0.0
 40
3.359242
100
AcDbArc
 50
142.813918
 51
167.152295
  0
TEXT
  5
15BE
100
AcDbEntity
  8
90000_FRAME
370
    13
  6
CONTINUOUS
 62
     7
100
AcDbText
 10
696.0
 20
199.1907
 30
0.0
 40
6.6
  1
1:3
 41
0.9
100
AcDbText
  0
TEXT
  5
15BF
100
AcDbEntity
  8
90000_FRAME
370
    13
  6
CONTINUOUS
 62
     7
100
AcDbText
 10
486.0
 20
216.6
 30
0.0
 40
6.6
  1
3RW3046_00002712_002_ALL.dxf
 41
0.784213
100
AcDbText
  0
ENDSEC
  0
SECTION
  2
OBJECTS
  0
DICTIONARY
  5
FE4
100
AcDbDictionary
280
     0
281
     1
  3
ACAD_GROUP
350
FE5
  3
ACAD_MLINESTYLE
350
FE6
  0
DICTIONARY
  5
FE5
102
{ACAD_REACTORS
330
FE4
102
}
100
AcDbDictionary
280
     0
281
     1
  0
DICTIONARY
  5
FE6
102
{ACAD_REACTORS
330
FE4
102
}
100
AcDbDictionary
280
     0
281
     1
  3
Standard
350
FE7
  0
MLINESTYLE
  5
FE7
102
{ACAD_REACTORS
330
FE6
102
}
100
AcDbMlineStyle
  2
Standard
 70
     0
  3

 62
     0
 51
90.0
 52
90.0
 71
     2
 49
0.5
 62
   256
  6
ByLayer
 49
-0.5
 62
   256
  6
ByLayer
  0
ENDSEC
  0
EOF
